  0
SECTION
  2
HEADER
  9
$ACADVER
  1
AC1015
  9
$ACADMAINTVER
 70
    10
  9
$DWGCODEPAGE
  3
ANSI_932
  9
$INSBASE
 10
0.0
 20
0.0
 30
0.0
  9
$EXTMIN
 10
226.4881625269425
 20
33.13140896280691
 30
-0.0015258207003583
  9
$EXTMAX
 10
227.5122415930417
 20
34.12323013660872
 30
0.0000000349246037
  9
$LIMMIN
 10
0.0
 20
0.0
  9
$LIMMAX
 10
100.0
 20
100.0
  9
$ORTHOMODE
 70
     0
  9
$REGENMODE
 70
     1
  9
$FILLMODE
 70
     1
  9
$QTEXTMODE
 70
     0
  9
$MIRRTEXT
 70
     1
  9
$LTSCALE
 40
1.0
  9
$ATTMODE
 70
     1
  9
$TEXTSIZE
 40
0.0
  9
$TRACEWID
 40
0.05
  9
$TEXTSTYLE
  7
STANDARD
  9
$CLAYER
  8
DIM
  9
$CELTYPE
  6
CONTINUOUS
  9
$CECOLOR
 62
   256
  9
$CELTSCALE
 40
1.0
  9
$DISPSILH
 70
     0
  9
$DIMSCALE
 40
1.0
  9
$DIMASZ
 40
0.18
  9
$DIMEXO
 40
0.0625
  9
$DIMDLI
 40
0.38
  9
$DIMRND
 40
0.0
  9
$DIMDLE
 40
0.0
  9
$DIMEXE
 40
0.18
  9
$DIMTP
 40
0.0
  9
$DIMTM
 40
0.0
  9
$DIMTXT
 40
0.18
  9
$DIMCEN
 40
0.09
  9
$DIMTSZ
 40
0.0
  9
$DIMTOL
 70
     0
  9
$DIMLIM
 70
     0
  9
$DIMTIH
 70
     1
  9
$DIMTOH
 70
     1
  9
$DIMSE1
 70
     0
  9
$DIMSE2
 70
     0
  9
$DIMTAD
 70
     0
  9
$DIMZIN
 70
     0
  9
$DIMBLK
  1

  9
$DIMASO
 70
     1
  9
$DIMSHO
 70
     1
  9
$DIMPOST
  1

  9
$DIMAPOST
  1

  9
$DIMALT
 70
     0
  9
$DIMALTD
 70
     2
  9
$DIMALTF
 40
25.4
  9
$DIMLFAC
 40
1.0
  9
$DIMTOFL
 70
     0
  9
$DIMTVP
 40
0.0
  9
$DIMTIX
 70
     0
  9
$DIMSOXD
 70
     0
  9
$DIMSAH
 70
     0
  9
$DIMBLK1
  1

  9
$DIMBLK2
  1

  9
$DIMSTYLE
  2
STANDARD
  9
$DIMCLRD
 70
     0
  9
$DIMCLRE
 70
     0
  9
$DIMCLRT
 70
     0
  9
$DIMTFAC
 40
1.0
  9
$DIMGAP
 40
0.09
  9
$DIMJUST
 70
     0
  9
$DIMSD1
 70
     0
  9
$DIMSD2
 70
     0
  9
$DIMTOLJ
 70
     1
  9
$DIMTZIN
 70
     0
  9
$DIMALTZ
 70
     0
  9
$DIMALTTZ
 70
     0
  9
$DIMUPT
 70
     0
  9
$DIMDEC
 70
     4
  9
$DIMTDEC
 70
     4
  9
$DIMALTU
 70
     2
  9
$DIMALTTD
 70
     2
  9
$DIMTXSTY
  7
STANDARD
  9
$DIMAUNIT
 70
     0
  9
$DIMADEC
 70
     0
  9
$DIMALTRND
 40
0.0
  9
$DIMAZIN
 70
     0
  9
$DIMDSEP
 70
    46
  9
$DIMATFIT
 70
     3
  9
$DIMFRAC
 70
     0
  9
$DIMLDRBLK
  1

  9
$DIMLUNIT
 70
     2
  9
$DIMLWD
 70
    -2
  9
$DIMLWE
 70
    -2
  9
$DIMTMOVE
 70
     0
  9
$LUNITS
 70
     2
  9
$LUPREC
 70
     4
  9
$SKETCHINC
 40
0.1
  9
$FILLETRAD
 40
0.0
  9
$AUNITS
 70
     0
  9
$AUPREC
 70
     0
  9
$MENU
  1
acad
  9
$ELEVATION
 40
0.0
  9
$PELEVATION
 40
0.0
  9
$THICKNESS
 40
0.0
  9
$LIMCHECK
 70
     0
  9
$CHAMFERA
 40
0.0
  9
$CHAMFERB
 40
0.0
  9
$CHAMFERC
 40
0.0
  9
$CHAMFERD
 40
0.0
  9
$SKPOLY
 70
     0
  9
$TDCREATE
 40
2444972.375000000
  9
$TDUCREATE
 40
2444972.000000000
  9
$TDUPDATE
 40
2456381.488275995
  9
$TDUUPDATE
 40
2456381.113275995
  9
$TDINDWG
 40
0.1346102546
  9
$TDUSRTIMER
 40
0.1346102546
  9
$USRTIMER
 70
     1
  9
$ANGBASE
 50
0.0
  9
$ANGDIR
 70
     0
  9
$PDMODE
 70
     0
  9
$PDSIZE
 40
0.0
  9
$PLINEWID
 40
0.0
  9
$SPLFRAME
 70
     0
  9
$SPLINETYPE
 70
     6
  9
$SPLINESEGS
 70
     8
  9
$HANDSEED
  5
1B3D
  9
$SURFTAB1
 70
     6
  9
$SURFTAB2
 70
     6
  9
$SURFTYPE
 70
     6
  9
$SURFU
 70
     6
  9
$SURFV
 70
     6
  9
$UCSBASE
  2

  9
$UCSNAME
  2

  9
$UCSORG
 10
0.0
 20
0.0
 30
0.0
  9
$UCSXDIR
 10
1.0
 20
0.0
 30
0.0
  9
$UCSYDIR
 10
0.0
 20
1.0
 30
0.0
  9
$UCSORTHOREF
  2

  9
$UCSORTHOVIEW
 70
     0
  9
$UCSORGTOP
 10
0.0
 20
0.0
 30
0.0
  9
$UCSORGBOTTOM
 10
0.0
 20
0.0
 30
0.0
  9
$UCSORGLEFT
 10
0.0
 20
0.0
 30
0.0
  9
$UCSORGRIGHT
 10
0.0
 20
0.0
 30
0.0
  9
$UCSORGFRONT
 10
0.0
 20
0.0
 30
0.0
  9
$UCSORGBACK
 10
0.0
 20
0.0
 30
0.0
  9
$PUCSBASE
  2

  9
$PUCSNAME
  2

  9
$PUCSORG
 10
0.0
 20
0.0
 30
0.0
  9
$PUCSXDIR
 10
1.0
 20
0.0
 30
0.0
  9
$PUCSYDIR
 10
0.0
 20
1.0
 30
0.0
  9
$PUCSORTHOREF
  2

  9
$PUCSORTHOVIEW
 70
     0
  9
$PUCSORGTOP
 10
0.0
 20
0.0
 30
0.0
  9
$PUCSORGBOTTOM
 10
0.0
 20
0.0
 30
0.0
  9
$PUCSORGLEFT
 10
0.0
 20
0.0
 30
0.0
  9
$PUCSORGRIGHT
 10
0.0
 20
0.0
 30
0.0
  9
$PUCSORGFRONT
 10
0.0
 20
0.0
 30
0.0
  9
$PUCSORGBACK
 10
0.0
 20
0.0
 30
0.0
  9
$USERI1
 70
     0
  9
$USERI2
 70
     0
  9
$USERI3
 70
     0
  9
$USERI4
 70
     0
  9
$USERI5
 70
     0
  9
$USERR1
 40
0.0
  9
$USERR2
 40
0.0
  9
$USERR3
 40
0.0
  9
$USERR4
 40
0.0
  9
$USERR5
 40
0.0
  9
$WORLDVIEW
 70
     1
  9
$SHADEDGE
 70
     3
  9
$SHADEDIF
 70
    70
  9
$TILEMODE
 70
     1
  9
$MAXACTVP
 70
    16
  9
$PINSBASE
 10
0.0
 20
0.0
 30
0.0
  9
$PLIMCHECK
 70
     0
  9
$PEXTMIN
 10
1.000000000000000E+20
 20
1.000000000000000E+20
 30
1.000000000000000E+20
  9
$PEXTMAX
 10
-1.000000000000000E+20
 20
-1.000000000000000E+20
 30
-1.000000000000000E+20
  9
$PLIMMIN
 10
0.0
 20
0.0
  9
$PLIMMAX
 10
12.0
 20
9.0
  9
$UNITMODE
 70
     0
  9
$VISRETAIN
 70
     0
  9
$PLINEGEN
 70
     1
  9
$PSLTSCALE
 70
     0
  9
$TREEDEPTH
 70
  3020
  9
$CMLSTYLE
  2
STANDARD
  9
$CMLJUST
 70
     0
  9
$CMLSCALE
 40
1.0
  9
$PROXYGRAPHICS
 70
     1
  9
$MEASUREMENT
 70
     0
  9
$CELWEIGHT
370
    -1
  9
$ENDCAPS
280
     0
  9
$JOINSTYLE
280
     0
  9
$LWDISPLAY
290
     0
  9
$INSUNITS
 70
     0
  9
$HYPERLINKBASE
  1

  9
$STYLESHEET
  1
プリンタ.ctb
  9
$XEDIT
290
     1
  9
$CEPSNTYPE
380
     0
  9
$PSTYLEMODE
290
     1
  9
$FINGERPRINTGUID
  2
{7E5E7D33-40A8-4612-AA41-990508750287}
  9
$VERSIONGUID
  2
{83A70553-B247-4989-A0F1-8BE7309B0694}
  9
$EXTNAMES
290
     1
  9
$PSVPSCALE
 40
0.0
  9
$OLESTARTUP
290
     0
  0
ENDSEC
  0
SECTION
  2
CLASSES
  0
CLASS
  1
LWPOLYLINE
  2
AcDbPolyline
  3
AutoCAD 2000
 90
    32768
280
     0
281
     1
  0
CLASS
  1
IMAGE
  2
AcDbRasterImage
  3
ISM
 90
    32895
280
     0
281
     1
  0
CLASS
  1
OLE2FRAME
  2
AcDbOle2Frame
  3
AutoCAD 2000
 90
    32768
280
     0
281
     1
  0
CLASS
  1
HATCH
  2
AcDbHatch
  3
AutoCAD 2000
 90
    32768
280
     0
281
     1
  0
CLASS
  1
DICTIONARYVAR
  2
AcDbDictionaryVar
  3
AutoCAD 2000
 90
        0
280
     0
281
     0
  0
CLASS
  1
RASTERVARIABLES
  2
AcDbRasterVariables
  3
ISM
 90
    32768
280
     0
281
     0
  0
CLASS
  1
IMAGEDEF
  2
AcDbRasterImageDef
  3
ISM
 90
    32768
280
     0
281
     0
  0
CLASS
  1
IMAGEDEF_REACTOR
  2
AcDbRasterImageDefReactor
  3
ISM
 90
    32769
280
     0
281
     0
  0
CLASS
  1
IDBUFFER
  2
AcDbIdBuffer
  3
AutoCAD 2000
 90
    32768
280
     0
281
     0
  0
CLASS
  1
SPATIAL_FILTER
  2
AcDbSpatialFilter
  3
AutoCAD 2000
 90
    32768
280
     0
281
     0
  0
CLASS
  1
XRECORD
  2
AcDbXrecord
  3
AutoCAD 2000
 90
    32768
280
     0
281
     0
  0
CLASS
  1
SORTENTSTABLE
  2
AcDbSortentsTable
  3
AutoCAD 2000
 90
    32768
280
     0
281
     0
  0
CLASS
  1
LAYER_INDEX
  2
AcDbLayerIndex
  3
AutoCAD 2000
 90
    32768
280
     0
281
     0
  0
CLASS
  1
SPATIAL_INDEX
  2
AcDbSpatialIndex
  3
AutoCAD 2000
 90
    32768
280
     0
281
     0
  0
CLASS
  1
OBJECT_PTR
  2
CAseDLPNTableRecord
  3
"ASE-LPNTableRecord"
 90
    32768
280
     0
281
     0
  0
CLASS
  1
LAYOUT
  2
AcDbLayout
  3
AutoCAD 2000
 90
        0
280
     0
281
     0
  0
CLASS
  1
PLOTSETTINGS
  2
AcDbPlotSettings
  3
AutoCAD 2000
 90
    32768
280
     0
281
     0
  0
CLASS
  1
ACDBDICTIONARYWDFLT
  2
AcDbDictionaryWithDefault
  3
AutoCAD 2000
 90
        0
280
     0
281
     0
  0
CLASS
  1
ACDBPLACEHOLDER
  2
AcDbPlaceHolder
  3
AutoCAD 2000
 90
        0
280
     0
281
     0
  0
CLASS
  1
VBA_PROJECT
  2
AcDbVbaProject
  3
acad
 90
    32768
280
     0
281
     0
  0
CLASS
  1
WIPEOUT
  2
AcDbWipeout
  3
"WipeOut|Product Desc: Object Enabler for WipeOut entity^I^I^I^I^I^I|Company: Autodesk, Inc.^I^I^I^I^I^I|WEB Address: www.autodesk.com"
 90
    32895
280
     0
281
     1
  0
CLASS
  1
WIPEOUTVARIABLES
  2
AcDbWipeoutVariables
  3
"WipeOut|Product Desc:     WipeOut Dbx Application|Company:          Autodesk, Inc.|WEB Address:      www.autodesk.com"
 90
    32768
280
     0
281
     0
  0
CLASS
  1
RTEXT
  2
RText
  3
RText|AutoCAD Express Tool|expresstools@autodesk.com
 90
    32768
280
     0
281
     1
  0
CLASS
  1
ARCALIGNEDTEXT
  2
AcDbArcAlignedText
  3
ATEXT|AutoCAD Express Tool|expresstools@autodesk.com
 90
    32768
280
     0
281
     1
  0
CLASS
  1
LONG_TRANSACTION
  2
AcDbLongTransaction
  3
AutoCAD 2000
 90
    32768
280
     0
281
     0
  0
CLASS
  1
LWPOLYLINE
  2
AcDbPolyline
  3
AutoCAD 2000
 90
    32768
280
     0
281
     1
  0
CLASS
  1
HATCH
  2
AcDbHatch
  3
AutoCAD 2000
 90
    32768
280
     0
281
     1
  0
CLASS
  1
XRECORD
  2
AcDbXrecord
  3
AutoCAD 2000
 90
    32768
280
     0
281
     0
  0
CLASS
  1
LONG_TRANSACTION
  2
AcDbLongTransaction
  3
AutoCAD 2000
 90
    32768
280
     0
281
     0
  0
CLASS
  1
LWPOLYLINE
  2
AcDbPolyline
  3
AutoCAD 2000
 90
    32768
280
     0
281
     1
  0
CLASS
  1
HATCH
  2
AcDbHatch
  3
AutoCAD 2000
 90
    32768
280
     0
281
     1
  0
CLASS
  1
XRECORD
  2
AcDbXrecord
  3
AutoCAD 2000
 90
    32768
280
     0
281
     0
  0
CLASS
  1
MATERIAL
  2
AcDbMaterial
  3
ObjectDBX Classes
 90
        0
280
     0
281
     0
  0
CLASS
  1
VISUALSTYLE
  2
AcDbVisualStyle
  3
ObjectDBX Classes
 90
     4095
280
     0
281
     0
  0
CLASS
  1
TABLESTYLE
  2
AcDbTableStyle
  3
ObjectDBX Classes
 90
     2047
280
     0
281
     0
  0
ENDSEC
  0
SECTION
  2
TABLES
  0
TABLE
  2
VPORT
  5
7
102
{ACAD_XDICTIONARY
360
802
102
}
330
0
100
AcDbSymbolTable
 70
     2
  0
VPORT
  5
1B3C
330
7
100
AcDbSymbolTableRecord
100
AcDbViewportTableRecord
  2
*Active
 70
     0
 10
0.0
 20
0.0
 11
1.0
 21
1.0
 12
227.0002020599921
 22
33.62731954970782
 13
0.0
 23
0.0
 14
1.0
 24
1.0
 15
0.0
 25
0.0
 16
0.0
 26
0.0
 36
1.0
 17
0.0
 27
0.0
 37
0.0
 40
1.000074886759932
 41
1.747222222222222
 42
50.0
 43
0.0
 44
0.0
 50
0.0
 51
0.0
 71
     0
 72
   100
 73
     1
 74
     0
 75
     0
 76
     0
 77
     0
 78
     0
281
     0
 65
     1
110
0.0
120
0.0
130
0.0
111
1.0
121
0.0
131
0.0
112
0.0
122
1.0
132
0.0
 79
     0
146
0.0
  0
ENDTAB
  0
TABLE
  2
LTYPE
  5
4
330
0
100
AcDbSymbolTable
 70
     4
  0
LTYPE
  5
11
330
4
100
AcDbSymbolTableRecord
100
AcDbLinetypeTableRecord
  2
BYBLOCK
 70
     0
  3

 72
    65
 73
     0
 40
0.0
  0
LTYPE
  5
12
330
4
100
AcDbSymbolTableRecord
100
AcDbLinetypeTableRecord
  2
BYLAYER
 70
     0
  3

 72
    65
 73
     0
 40
0.0
  0
LTYPE
  5
13
330
4
100
AcDbSymbolTableRecord
100
AcDbLinetypeTableRecord
  2
CONTINUOUS
 70
     0
  3
Solid line
 72
    65
 73
     0
 40
0.0
  0
LTYPE
  5
12D4
330
4
100
AcDbSymbolTableRecord
100
AcDbLinetypeTableRecord
  2
AI-Linetype-1
 70
     0
  3
Adobe Illustrator Linetype No. 1
 72
    65
 73
     4
 40
3.623950058531568
 49
2.264968755041418
 74
     0
 49
-0.4529937678300501
 74
     0
 49
0.4529937678300501
 74
     0
 49
-0.4529937678300501
 74
     0
  0
LTYPE
  5
12D5
330
4
100
AcDbSymbolTableRecord
100
AcDbLinetypeTableRecord
  2
AI-Linetype-2
 70
     0
  3
Adobe Illustrator Linetype No. 2
 72
    65
 73
     4
 40
3.623950058531568
 49
2.264968755041418
 74
     0
 49
-0.4529937678300501
 74
     0
 49
0.4529937678300501
 74
     0
 49
-0.4529937678300501
 74
     0
  0
LTYPE
  5
12D6
330
4
100
AcDbSymbolTableRecord
100
AcDbLinetypeTableRecord
  2
AI-Linetype-3
 70
     0
  3
Adobe Illustrator Linetype No. 3
 72
    65
 73
     4
 40
3.623950058531568
 49
2.264968755041418
 74
     0
 49
-0.4529937678300501
 74
     0
 49
0.4529937678300501
 74
     0
 49
-0.4529937678300501
 74
     0
  0
ENDTAB
  0
TABLE
  2
LAYER
  5
2
102
{ACAD_XDICTIONARY
360
C88
102
}
330
0
100
AcDbSymbolTable
 70
     6
  0
LAYER
  5
14
102
{ACAD_XDICTIONARY
360
806
102
}
330
2
100
AcDbSymbolTableRecord
100
AcDbLayerTableRecord
  2
0
 70
     0
 62
     7
  6
CONTINUOUS
370
    -3
390
770
  0
LAYER
  5
8A5
330
2
100
AcDbSymbolTableRecord
100
AcDbLayerTableRecord
  2
DIM
 70
     0
 62
     3
  6
CONTINUOUS
370
    -3
390
770
  0
LAYER
  5
8A6
330
2
100
AcDbSymbolTableRecord
100
AcDbLayerTableRecord
  2
DEFPOINTS
 70
     0
 62
     7
  6
CONTINUOUS
290
     0
370
    -3
390
770
  0
LAYER
  5
C95
330
2
100
AcDbSymbolTableRecord
100
AcDbLayerTableRecord
  2
002
 70
     0
 62
     7
  6
CONTINUOUS
370
    -3
390
770
  0
LAYER
  5
12D7
330
2
100
AcDbSymbolTableRecord
100
AcDbLayerTableRecord
  2
001
 70
     0
 62
     7
  6
CONTINUOUS
370
    -3
390
770
  0
LAYER
  5
12D8
330
2
100
AcDbSymbolTableRecord
100
AcDbLayerTableRecord
  2
LAYER_1
 70
     0
 62
   160
  6
CONTINUOUS
370
    -3
390
770
  0
ENDTAB
  0
TABLE
  2
STYLE
  5
3
330
0
100
AcDbSymbolTable
 70
     1
  0
STYLE
  5
17
330
3
100
AcDbSymbolTableRecord
100
AcDbTextStyleTableRecord
  2
STANDARD
 70
     0
 40
0.0
 41
0.8
 50
0.0
 71
     0
 42
0.0
  3
txt.shx
  4
newext.shx
  0
ENDTAB
  0
TABLE
  2
VIEW
  5
5
330
0
100
AcDbSymbolTable
 70
     0
  0
ENDTAB
  0
TABLE
  2
UCS
  5
6
330
0
100
AcDbSymbolTable
 70
     0
  0
ENDTAB
  0
TABLE
  2
APPID
  5
8
330
0
100
AcDbSymbolTable
 70
     5
  0
APPID
  5
16
330
8
100
AcDbSymbolTableRecord
100
AcDbRegAppTableRecord
  2
ACAD
 70
     0
  0
APPID
  5
8AA
330
8
100
AcDbSymbolTableRecord
100
AcDbRegAppTableRecord
  2
ACAD_DSTYLE_DIMRADIAL_EXTENSION
 70
     0
  0
APPID
  5
F69
330
8
100
AcDbSymbolTableRecord
100
AcDbRegAppTableRecord
  2
ACAD_PSEXT
 70
     0
  0
APPID
  5
F6A
330
8
100
AcDbSymbolTableRecord
100
AcDbRegAppTableRecord
  2
DCO15
 70
     0
  0
APPID
  5
F6B
330
8
100
AcDbSymbolTableRecord
100
AcDbRegAppTableRecord
  2
ACAD_EXEMPT_FROM_CAD_STANDARDS
 70
     0
  0
ENDTAB
  0
TABLE
  2
DIMSTYLE
  5
9
330
0
100
AcDbSymbolTable
 70
     1
100
AcDbDimStyleTable
 71
     0
  0
DIMSTYLE
105
18
330
9
100
AcDbSymbolTableRecord
100
AcDbDimStyleTableRecord
  2
STANDARD
 70
     0
340
17
  0
ENDTAB
  0
TABLE
  2
BLOCK_RECORD
  5
1
330
0
100
AcDbSymbolTable
 70
    24
  0
BLOCK_RECORD
  5
A
102
{ACAD_XDICTIONARY
360
767
102
}
330
1
100
AcDbSymbolTableRecord
100
AcDbBlockTableRecord
  2
*MODEL_SPACE
340
771
  0
BLOCK_RECORD
  5
B
102
{ACAD_XDICTIONARY
360
769
102
}
330
1
100
AcDbSymbolTableRecord
100
AcDbBlockTableRecord
  2
*PAPER_SPACE
340
772
  0
BLOCK_RECORD
  5
12B0
330
1
100
AcDbSymbolTableRecord
100
AcDbBlockTableRecord
  2
*X0
340
0
102
{BLKREFS
331
150D
102
}
  0
BLOCK_RECORD
  5
12B3
330
1
100
AcDbSymbolTableRecord
100
AcDbBlockTableRecord
  2
*X1
340
0
102
{BLKREFS
331
150E
102
}
  0
BLOCK_RECORD
  5
12B6
330
1
100
AcDbSymbolTableRecord
100
AcDbBlockTableRecord
  2
*X2
340
0
102
{BLKREFS
331
150F
102
}
  0
BLOCK_RECORD
  5
12B9
330
1
100
AcDbSymbolTableRecord
100
AcDbBlockTableRecord
  2
*X3
340
0
102
{BLKREFS
331
1510
102
}
  0
BLOCK_RECORD
  5
12BC
330
1
100
AcDbSymbolTableRecord
100
AcDbBlockTableRecord
  2
*X4
340
0
102
{BLKREFS
331
1511
102
}
  0
BLOCK_RECORD
  5
12BF
330
1
100
AcDbSymbolTableRecord
100
AcDbBlockTableRecord
  2
*X5
340
0
102
{BLKREFS
331
1512
102
}
  0
BLOCK_RECORD
  5
12C2
330
1
100
AcDbSymbolTableRecord
100
AcDbBlockTableRecord
  2
*X6
340
0
102
{BLKREFS
331
1519
102
}
  0
BLOCK_RECORD
  5
12C5
330
1
100
AcDbSymbolTableRecord
100
AcDbBlockTableRecord
  2
*X7
340
0
102
{BLKREFS
331
151A
102
}
  0
BLOCK_RECORD
  5
12C8
330
1
100
AcDbSymbolTableRecord
100
AcDbBlockTableRecord
  2
*X8
340
0
102
{BLKREFS
331
1517
102
}
  0
BLOCK_RECORD
  5
12CB
330
1
100
AcDbSymbolTableRecord
100
AcDbBlockTableRecord
  2
*X9
340
0
102
{BLKREFS
331
1518
102
}
  0
BLOCK_RECORD
  5
12CE
330
1
100
AcDbSymbolTableRecord
100
AcDbBlockTableRecord
  2
*X10
340
0
102
{BLKREFS
331
1515
102
}
  0
BLOCK_RECORD
  5
12D1
330
1
100
AcDbSymbolTableRecord
100
AcDbBlockTableRecord
  2
*X11
340
0
102
{BLKREFS
331
1516
102
}
  0
BLOCK_RECORD
  5
16F3
330
1
100
AcDbSymbolTableRecord
100
AcDbBlockTableRecord
  2
*X12
340
0
102
{BLKREFS
331
194B
102
}
  0
BLOCK_RECORD
  5
16F6
330
1
100
AcDbSymbolTableRecord
100
AcDbBlockTableRecord
  2
*X13
340
0
102
{BLKREFS
331
194C
102
}
  0
BLOCK_RECORD
  5
16F9
330
1
100
AcDbSymbolTableRecord
100
AcDbBlockTableRecord
  2
*X14
340
0
102
{BLKREFS
331
194D
102
}
  0
BLOCK_RECORD
  5
16FC
330
1
100
AcDbSymbolTableRecord
100
AcDbBlockTableRecord
  2
*X15
340
0
102
{BLKREFS
331
194E
102
}
  0
BLOCK_RECORD
  5
16FF
330
1
100
AcDbSymbolTableRecord
100
AcDbBlockTableRecord
  2
*X16
340
0
102
{BLKREFS
331
194F
102
}
  0
BLOCK_RECORD
  5
1702
330
1
100
AcDbSymbolTableRecord
100
AcDbBlockTableRecord
  2
*X17
340
0
102
{BLKREFS
331
1950
102
}
  0
BLOCK_RECORD
  5
1705
330
1
100
AcDbSymbolTableRecord
100
AcDbBlockTableRecord
  2
*X18
340
0
102
{BLKREFS
331
1957
102
}
  0
BLOCK_RECORD
  5
1708
330
1
100
AcDbSymbolTableRecord
100
AcDbBlockTableRecord
  2
*X19
340
0
102
{BLKREFS
331
1958
102
}
  0
BLOCK_RECORD
  5
170B
330
1
100
AcDbSymbolTableRecord
100
AcDbBlockTableRecord
  2
*X20
340
0
102
{BLKREFS
331
1955
102
}
  0
BLOCK_RECORD
  5
170E
330
1
100
AcDbSymbolTableRecord
100
AcDbBlockTableRecord
  2
*X21
340
0
102
{BLKREFS
331
1956
102
}
  0
BLOCK_RECORD
  5
1711
330
1
100
AcDbSymbolTableRecord
100
AcDbBlockTableRecord
  2
*X22
340
0
102
{BLKREFS
331
1953
102
}
  0
BLOCK_RECORD
  5
1714
330
1
100
AcDbSymbolTableRecord
100
AcDbBlockTableRecord
  2
*X23
340
0
102
{BLKREFS
331
1954
102
}
  0
ENDTAB
  0
ENDSEC
  0
SECTION
  2
BLOCKS
  0
BLOCK
  5
D
330
A
100
AcDbEntity
  8
0
100
AcDbBlockBegin
  2
*MODEL_SPACE
 70
     0
 10
0.0
 20
0.0
 30
0.0
  3
*MODEL_SPACE
  1

  0
ENDBLK
  5
E
330
A
100
AcDbEntity
  8
0
100
AcDbBlockEnd
  0
BLOCK
  5
F
330
B
100
AcDbEntity
 67
     1
  8
0
100
AcDbBlockBegin
  2
*PAPER_SPACE
 70
     0
 10
0.0
 20
0.0
 30
0.0
  3
*PAPER_SPACE
  1

  0
ENDBLK
  5
10
330
B
100
AcDbEntity
 67
     1
  8
0
100
AcDbBlockEnd
  0
BLOCK
  5
12B1
330
12B0
100
AcDbEntity
  8
0
100
AcDbBlockBegin
  2
*X0
 70
     1
 10
0.0
 20
0.0
 30
0.0
  3
*X0
  1

  0
ENDBLK
  5
12B2
330
12B0
100
AcDbEntity
  8
0
100
AcDbBlockEnd
  0
BLOCK
  5
12B4
330
12B3
100
AcDbEntity
  8
0
100
AcDbBlockBegin
  2
*X1
 70
     1
 10
0.0
 20
0.0
 30
0.0
  3
*X1
  1

  0
ENDBLK
  5
12B5
330
12B3
100
AcDbEntity
  8
0
100
AcDbBlockEnd
  0
BLOCK
  5
12B7
330
12B6
100
AcDbEntity
  8
0
100
AcDbBlockBegin
  2
*X2
 70
     1
 10
0.0
 20
0.0
 30
0.0
  3
*X2
  1

  0
ENDBLK
  5
12B8
330
12B6
100
AcDbEntity
  8
0
100
AcDbBlockEnd
  0
BLOCK
  5
12BA
330
12B9
100
AcDbEntity
  8
0
100
AcDbBlockBegin
  2
*X3
 70
     1
 10
0.0
 20
0.0
 30
0.0
  3
*X3
  1

  0
ENDBLK
  5
12BB
330
12B9
100
AcDbEntity
  8
0
100
AcDbBlockEnd
  0
BLOCK
  5
12BD
330
12BC
100
AcDbEntity
  8
0
100
AcDbBlockBegin
  2
*X4
 70
     1
 10
0.0
 20
0.0
 30
0.0
  3
*X4
  1

  0
ENDBLK
  5
12BE
330
12BC
100
AcDbEntity
  8
0
100
AcDbBlockEnd
  0
BLOCK
  5
12C0
330
12BF
100
AcDbEntity
  8
0
100
AcDbBlockBegin
  2
*X5
 70
     1
 10
0.0
 20
0.0
 30
0.0
  3
*X5
  1

  0
ENDBLK
  5
12C1
330
12BF
100
AcDbEntity
  8
0
100
AcDbBlockEnd
  0
BLOCK
  5
12C3
330
12C2
100
AcDbEntity
  8
0
100
AcDbBlockBegin
  2
*X6
 70
     1
 10
0.0
 20
0.0
 30
0.0
  3
*X6
  1

  0
ENDBLK
  5
12C4
330
12C2
100
AcDbEntity
  8
0
100
AcDbBlockEnd
  0
BLOCK
  5
12C6
330
12C5
100
AcDbEntity
  8
0
100
AcDbBlockBegin
  2
*X7
 70
     1
 10
0.0
 20
0.0
 30
0.0
  3
*X7
  1

  0
ENDBLK
  5
12C7
330
12C5
100
AcDbEntity
  8
0
100
AcDbBlockEnd
  0
BLOCK
  5
12C9
330
12C8
100
AcDbEntity
  8
0
100
AcDbBlockBegin
  2
*X8
 70
     1
 10
0.0
 20
0.0
 30
0.0
  3
*X8
  1

  0
ENDBLK
  5
12CA
330
12C8
100
AcDbEntity
  8
0
100
AcDbBlockEnd
  0
BLOCK
  5
12CC
330
12CB
100
AcDbEntity
  8
0
100
AcDbBlockBegin
  2
*X9
 70
     1
 10
0.0
 20
0.0
 30
0.0
  3
*X9
  1

  0
ENDBLK
  5
12CD
330
12CB
100
AcDbEntity
  8
0
100
AcDbBlockEnd
  0
BLOCK
  5
12CF
330
12CE
100
AcDbEntity
  8
0
100
AcDbBlockBegin
  2
*X10
 70
     1
 10
0.0
 20
0.0
 30
0.0
  3
*X10
  1

  0
ENDBLK
  5
12D0
330
12CE
100
AcDbEntity
  8
0
100
AcDbBlockEnd
  0
BLOCK
  5
12D2
330
12D1
100
AcDbEntity
  8
0
100
AcDbBlockBegin
  2
*X11
 70
     1
 10
0.0
 20
0.0
 30
0.0
  3
*X11
  1

  0
ENDBLK
  5
12D3
330
12D1
100
AcDbEntity
  8
0
100
AcDbBlockEnd
  0
BLOCK
  5
16F4
330
16F3
100
AcDbEntity
  8
0
100
AcDbBlockBegin
  2
*X12
 70
     1
 10
0.0
 20
0.0
 30
0.0
  3
*X12
  1

  0
ENDBLK
  5
16F5
330
16F3
100
AcDbEntity
  8
0
100
AcDbBlockEnd
  0
BLOCK
  5
16F7
330
16F6
100
AcDbEntity
  8
0
100
AcDbBlockBegin
  2
*X13
 70
     1
 10
0.0
 20
0.0
 30
0.0
  3
*X13
  1

  0
ENDBLK
  5
16F8
330
16F6
100
AcDbEntity
  8
0
100
AcDbBlockEnd
  0
BLOCK
  5
16FA
330
16F9
100
AcDbEntity
  8
0
100
AcDbBlockBegin
  2
*X14
 70
     1
 10
0.0
 20
0.0
 30
0.0
  3
*X14
  1

  0
ENDBLK
  5
16FB
330
16F9
100
AcDbEntity
  8
0
100
AcDbBlockEnd
  0
BLOCK
  5
16FD
330
16FC
100
AcDbEntity
  8
0
100
AcDbBlockBegin
  2
*X15
 70
     1
 10
0.0
 20
0.0
 30
0.0
  3
*X15
  1

  0
ENDBLK
  5
16FE
330
16FC
100
AcDbEntity
  8
0
100
AcDbBlockEnd
  0
BLOCK
  5
1700
330
16FF
100
AcDbEntity
  8
0
100
AcDbBlockBegin
  2
*X16
 70
     1
 10
0.0
 20
0.0
 30
0.0
  3
*X16
  1

  0
ENDBLK
  5
1701
330
16FF
100
AcDbEntity
  8
0
100
AcDbBlockEnd
  0
BLOCK
  5
1703
330
1702
100
AcDbEntity
  8
0
100
AcDbBlockBegin
  2
*X17
 70
     1
 10
0.0
 20
0.0
 30
0.0
  3
*X17
  1

  0
ENDBLK
  5
1704
330
1702
100
AcDbEntity
  8
0
100
AcDbBlockEnd
  0
BLOCK
  5
1706
330
1705
100
AcDbEntity
  8
0
100
AcDbBlockBegin
  2
*X18
 70
     1
 10
0.0
 20
0.0
 30
0.0
  3
*X18
  1

  0
ENDBLK
  5
1707
330
1705
100
AcDbEntity
  8
0
100
AcDbBlockEnd
  0
BLOCK
  5
1709
330
1708
100
AcDbEntity
  8
0
100
AcDbBlockBegin
  2
*X19
 70
     1
 10
0.0
 20
0.0
 30
0.0
  3
*X19
  1

  0
ENDBLK
  5
170A
330
1708
100
AcDbEntity
  8
0
100
AcDbBlockEnd
  0
BLOCK
  5
170C
330
170B
100
AcDbEntity
  8
0
100
AcDbBlockBegin
  2
*X20
 70
     1
 10
0.0
 20
0.0
 30
0.0
  3
*X20
  1

  0
ENDBLK
  5
170D
330
170B
100
AcDbEntity
  8
0
100
AcDbBlockEnd
  0
BLOCK
  5
170F
330
170E
100
AcDbEntity
  8
0
100
AcDbBlockBegin
  2
*X21
 70
     1
 10
0.0
 20
0.0
 30
0.0
  3
*X21
  1

  0
ENDBLK
  5
1710
330
170E
100
AcDbEntity
  8
0
100
AcDbBlockEnd
  0
BLOCK
  5
1712
330
1711
100
AcDbEntity
  8
0
100
AcDbBlockBegin
  2
*X22
 70
     1
 10
0.0
 20
0.0
 30
0.0
  3
*X22
  1

  0
ENDBLK
  5
1713
330
1711
100
AcDbEntity
  8
0
100
AcDbBlockEnd
  0
BLOCK
  5
1715
330
1714
100
AcDbEntity
  8
0
100
AcDbBlockBegin
  2
*X23
 70
     1
 10
0.0
 20
0.0
 30
0.0
  3
*X23
  1

  0
ENDBLK
  5
1716
330
1714
100
AcDbEntity
  8
0
100
AcDbBlockEnd
  0
ENDSEC
  0
SECTION
  2
ENTITIES
  0
LINE
  5
A6
330
A
100
AcDbEntity
  8
002
100
AcDbLine
 10
226.5052981526213
 20
34.0378100761624
 30
0.0
 11
227.5052981526214
 21
34.0378100761624
 31
0.0
  0
LINE
  5
A5
330
A
100
AcDbEntity
  8
002
100
AcDbLine
 10
226.7052984989633
 20
34.11781073421208
 30
0.0
 11
226.7052984989633
 21
34.0378100761624
 31
0.0
  0
LINE
  5
A3
330
A
100
AcDbEntity
  8
002
100
AcDbLine
 10
227.4052988453051
 20
33.49781866350383
 30
0.0
 11
227.4052988453053
 21
33.13782739132063
 31
0.0
  0
LINE
  5
A2
330
A
100
AcDbEntity
  8
002
100
AcDbLine
 10
226.6052983257924
 20
33.49781866350383
 30
0.0
 11
226.6052983257921
 21
33.13782739132063
 31
0.0
  0
LINE
  5
9E
330
A
100
AcDbEntity
  8
002
100
AcDbLine
 10
226.6052983257924
 20
33.29782351229093
 30
0.0
 11
227.4052988453053
 21
33.29782351229093
 31
0.0
  0
LINE
  5
9D
330
A
100
AcDbEntity
  8
002
100
AcDbLine
 10
226.7602984643291
 20
33.49781866350383
 30
0.0
 11
226.7602984643291
 21
33.13782739132063
 31
0.0
  0
TEXT
  5
4D4
330
A
100
AcDbEntity
  8
002
  6
Continuous
100
AcDbText
 10
227.2970806678924
 20
33.99531045713853
 30
0.0
 40
0.024999993243562
  1
DBM-20VF
 41
0.8
100
AcDbText
  0
TEXT
  5
4D5
330
A
100
AcDbEntity
  8
002
  6
Continuous
100
AcDbText
 10
226.7565027581327
 20
34.05781045713853
 30
0.0
 40
0.0399999901963199
  1
バリフォーカルレンズ内臓ドームカメラ
 41
0.8
100
AcDbText
  0
TEXT
  5
67E
330
A
100
AcDbEntity
  8
002
  6
Continuous
100
AcDbText
 10
226.6244255687548
 20
33.26533142937208
 30
0.0
 40
0.0249999769310372
  1
最低被写体照度
 41
0.65
100
AcDbText
  0
LINE
  5
11CA
330
A
100
AcDbEntity
  8
002
100
AcDbLine
 10
226.6052983257924
 20
33.33782254253351
 30
0.0
 11
227.4052988453053
 21
33.33782254253351
 31
0.0
  0
LINE
  5
11CB
330
A
100
AcDbEntity
  8
002
100
AcDbLine
 10
226.6052983257924
 20
33.37782157277609
 30
0.0
 11
227.4052988453053
 21
33.37782157277609
 31
0.0
  0
TEXT
  5
11CC
330
A
100
AcDbEntity
  8
002
  6
Continuous
100
AcDbText
 10
226.6244250592337
 20
33.42532063765285
 30
0.0
 40
0.024999993243562
  1
撮像素子
 41
0.8
100
AcDbText
  0
TEXT
  5
11CD
330
A
100
AcDbEntity
  8
002
  6
Continuous
100
AcDbText
 10
226.7769644383119
 20
33.42532063765285
 30
0.0
 40
0.024999993243562
  1
１／３インチ ＳＯＮＹ Ｓｕｐｅｒ ＨＡＤ ＣＣＤ Ⅱ
 41
0.7
100
AcDbText
  0
TEXT
  5
11CE
330
A
100
AcDbEntity
  8
002
  6
Continuous
100
AcDbText
 10
226.6244250592337
 20
33.46531966789543
 30
0.0
 40
0.024999993243562
  1
電　　源
 41
0.8
100
AcDbText
  0
TEXT
  5
11CF
330
A
100
AcDbEntity
  8
002
  6
Continuous
100
AcDbText
 10
226.7769644383119
 20
33.46531966789543
 30
0.0
 40
0.024999993243562
  1
ＤＣ１２Ｖ（１０Ｖ～１５Ｖ）
 41
0.7
100
AcDbText
  0
TEXT
  5
11D1
330
A
100
AcDbEntity
  8
002
  6
Continuous
100
AcDbText
 10
226.7818002375999
 20
33.26532451668254
 30
0.0
 40
0.024999993243562
  1
カラー：０．０５Ｌｕｘ（ＡＧＣ ＭＡＸ時）
 41
0.7
100
AcDbText
  0
LINE
  5
11D3
330
A
100
AcDbEntity
  8
002
100
AcDbLine
 10
226.6052983257923
 20
33.21782545180578
 30
0.0
 11
227.4052988453052
 21
33.21782545180578
 31
0.0
  0
LINE
  5
11DB
330
A
100
AcDbEntity
  8
002
100
AcDbLine
 10
226.6052983257922
 20
33.17782642156321
 30
0.0
 11
227.4052988453052
 21
33.17782642156321
 31
0.0
  0
TEXT
  5
11DE
330
A
100
AcDbEntity
  8
002
  6
Continuous
100
AcDbText
 10
226.7818002375999
 20
33.22532548643996
 30
0.0
 40
0.024999993243562
  1
白黒（ＩＣＲ）：０．００５Ｌｕｘ
 41
0.7
100
AcDbText
  0
LINE
  5
120C
330
A
100
AcDbEntity
  8
002
100
AcDbLine
 10
226.6052983257924
 20
33.49781866350383
 30
0.0
 11
227.4052988453053
 21
33.49781866350383
 31
0.0
  0
LINE
  5
120D
330
A
100
AcDbEntity
  8
002
100
AcDbLine
 10
226.6052983257924
 20
33.45781963326124
 30
0.0
 11
227.4052988453053
 21
33.45781963326124
 31
0.0
  0
LINE
  5
120E
330
A
100
AcDbEntity
  8
002
100
AcDbLine
 10
226.6052983257924
 20
33.41782060301866
 30
0.0
 11
227.4052988453053
 21
33.41782060301866
 31
0.0
  0
TEXT
  5
1211
330
A
100
AcDbEntity
  8
002
  6
Continuous
100
AcDbText
 10
226.6244250592338
 20
33.38532160741028
 30
0.0
 40
0.024999993243562
  1
総画素数
 41
0.8
100
AcDbText
  0
TEXT
  5
1212
330
A
100
AcDbEntity
  8
002
  6
Continuous
100
AcDbText
 10
226.776964438312
 20
33.38532160741028
 30
0.0
 40
0.024999993243562
  1
４１万画素 ８１１（Ｈ）×５０８（Ｖ）
 41
0.7
100
AcDbText
  0
TEXT
  5
1213
330
A
100
AcDbEntity
  8
002
  6
Continuous
100
AcDbText
 10
226.776964438312
 20
33.3453225771677
 30
0.0
 40
0.024999993243562
  1
３８万画素 ７６８（Ｈ）×４９４（Ｖ）
 41
0.7
100
AcDbText
  0
TEXT
  5
1214
330
A
100
AcDbEntity
  8
002
  6
Continuous
100
AcDbText
 10
226.6244250592338
 20
33.3453225771677
 30
0.0
 40
0.024999993243562
  1
有効画素数
 41
0.8
100
AcDbText
  0
TEXT
  5
1215
330
A
100
AcDbEntity
  8
002
  6
Continuous
100
AcDbText
 10
226.6244250592337
 20
33.30532354692513
 30
0.0
 40
0.024999993243562
  1
水平解像度
 41
0.8
100
AcDbText
  0
TEXT
  5
1216
330
A
100
AcDbEntity
  8
002
  6
Continuous
100
AcDbText
 10
226.7818002375999
 20
33.30532354692513
 30
0.0
 40
0.024999993243562
  1
６００ＴＶ本（ＢＷ ６５０ＴＶ本）
 41
0.7
100
AcDbText
  0
LINE
  5
1235
330
A
100
AcDbEntity
  8
002
100
AcDbLine
 10
226.7602984643291
 20
33.25782448204835
 30
0.0
 11
227.4052988453052
 21
33.25782448204835
 31
0.0
  0
TEXT
  5
126E
330
A
100
AcDbEntity
  8
002
  6
Continuous
100
AcDbText
 10
226.6244250592337
 20
33.18532645619739
 30
0.0
 40
0.024999993243562
  1
レンズ
 41
0.8
100
AcDbText
  0
TEXT
  5
126F
330
A
100
AcDbEntity
  8
002
  6
Continuous
100
AcDbText
 10
226.7769644383118
 20
33.18532645619739
 30
0.0
 40
0.024999993243562
  1
ＤＣ アイリスバリフォーカルレンズ内蔵（ｆ＝２．８～１０．５ｍｍ）
 41
0.55
100
AcDbText
  0
TEXT
  5
129A
330
A
100
AcDbEntity
  8
002
  6
Continuous
100
AcDbText
 10
226.7769644383119
 20
33.14532742595481
 30
0.0
 40
0.024999993243562
  1
Ｈ７８°×Ｖ６２°～Ｈ２６．１°×Ｖ１９．９°
 41
0.7
100
AcDbText
  0
TEXT
  5
129B
330
A
100
AcDbEntity
  8
002
  6
Continuous
100
AcDbText
 10
226.6244250592337
 20
33.14532742595481
 30
0.0
 40
0.024999993243562
  1
レンズ画角
 41
0.8
100
AcDbText
  0
LINE
  5
129C
330
A
100
AcDbEntity
  8
002
100
AcDbLine
 10
226.6052983257923
 20
33.13782739132063
 30
0.0
 11
227.4052988453053
 21
33.13782739132063
 31
0.0
  0
INSERT
  5
150D
330
A
100
AcDbEntity
  8
LAYER_1
 62
   104
100
AcDbBlockReference
  2
*X0
 10
402.4716207316282
 20
135.0758476793925
 30
0.0
  0
INSERT
  5
150E
330
A
100
AcDbEntity
  8
LAYER_1
 62
   104
100
AcDbBlockReference
  2
*X1
 10
402.4716207316282
 20
135.0758476793925
 30
0.0
  0
INSERT
  5
150F
330
A
100
AcDbEntity
  8
LAYER_1
 62
   104
100
AcDbBlockReference
  2
*X2
 10
394.0883257316281
 20
145.8241146793925
 30
0.0
  0
INSERT
  5
1510
330
A
100
AcDbEntity
  8
LAYER_1
 62
   104
100
AcDbBlockReference
  2
*X3
 10
394.0883257316281
 20
145.8241146793925
 30
0.0
  0
INSERT
  5
1511
330
A
100
AcDbEntity
  8
LAYER_1
 62
   104
100
AcDbBlockReference
  2
*X4
 10
493.2932947316281
 20
136.7794476793925
 30
0.0
  0
INSERT
  5
1512
330
A
100
AcDbEntity
  8
LAYER_1
 62
   104
100
AcDbBlockReference
  2
*X5
 10
493.2932947316281
 20
136.7794476793925
 30
0.0
  0
INSERT
  5
1515
330
A
100
AcDbEntity
  8
LAYER_1
 62
   104
100
AcDbBlockReference
  2
*X10
 10
229.8191639760409
 20
33.82088083275189
 30
0.0
 41
0.0037494214483615
 42
0.0037494214483615
 43
0.003749421448353
  0
INSERT
  5
1516
330
A
100
AcDbEntity
  8
LAYER_1
 62
   104
100
AcDbBlockReference
  2
*X11
 10
229.8191639760409
 20
33.82088083275189
 30
0.0
 41
0.0037494214483615
 42
0.0037494214483615
 43
0.003749421448353
  0
INSERT
  5
1517
330
A
100
AcDbEntity
  8
LAYER_1
 62
   104
100
AcDbBlockReference
  2
*X8
 10
229.447202737489
 20
33.85479310119491
 30
0.0
 41
0.0037494214483615
 42
0.0037494214483615
 43
0.003749421448353
  0
INSERT
  5
1518
330
A
100
AcDbEntity
  8
LAYER_1
 62
   104
100
AcDbBlockReference
  2
*X9
 10
229.447202737489
 20
33.85479310119491
 30
0.0
 41
0.0037494214483615
 42
0.0037494214483615
 43
0.003749421448353
  0
INSERT
  5
1519
330
A
100
AcDbEntity
  8
LAYER_1
 62
   104
100
AcDbBlockReference
  2
*X6
 10
229.4786352435699
 20
33.81449331837247
 30
0.0
 41
0.0037494214483615
 42
0.0037494214483615
 43
0.003749421448353
  0
INSERT
  5
151A
330
A
100
AcDbEntity
  8
LAYER_1
 62
   104
100
AcDbBlockReference
  2
*X7
 10
229.4786352435699
 20
33.81449331837247
 30
0.0
 41
0.0037494214483615
 42
0.0037494214483615
 43
0.003749421448353
  0
SPLINE
  5
151B
330
A
100
AcDbEntity
  8
001
370
     9
100
AcDbSpline
210
0.0
220
0.0
230
1.0
 70
     8
 71
     3
 72
     8
 73
     4
 74
     0
 42
0.0000000001
 43
0.0000000001
 40
0.0
 40
0.0
 40
0.0
 40
0.0
 40
1.0
 40
1.0
 40
1.0
 40
1.0
 10
227.1146826626853
 20
33.65130813726156
 30
0.0
 10
227.1146826626853
 20
33.65089851513814
 30
0.0
 10
227.1145600172051
 20
33.65050887458171
 30
0.0
 10
227.1143064580101
 20
33.6502642726409
 30
0.0
1001
ACAD
1000
RTTcAl
1070
-26105
1071
-1023410177
1000
$$NoName$$
  0
SPLINE
  5
151C
330
A
100
AcDbEntity
  8
001
370
     9
100
AcDbSpline
210
0.0
220
0.0
230
1.0
 70
     8
 71
     3
 72
     8
 73
     4
 74
     0
 42
0.0000000001
 43
0.0000000001
 40
0.0
 40
0.0
 40
0.0
 40
0.0
 40
1.0
 40
1.0
 40
1.0
 40
1.0
 10
227.1147653450315
 20
33.6502642726409
 30
0.0
 10
227.115005812855
 20
33.65051507575769
 30
0.0
 10
227.1151946042121
 20
33.65091160650962
 30
0.0
 10
227.1152118297009
 20
33.65130813726156
 30
0.0
1001
ACAD
1000
RTTcAl
1070
-26105
1071
-1023410177
1000
$$NoName$$
  0
SPLINE
  5
151D
330
A
100
AcDbEntity
  8
001
370
     9
100
AcDbSpline
210
0.0
220
0.0
230
1.0
 70
     8
 71
     3
 72
     8
 73
     4
 74
     0
 42
0.0000000001
 43
0.0000000001
 40
0.0
 40
0.0
 40
0.0
 40
0.0
 40
1.0
 40
1.0
 40
1.0
 40
1.0
 10
227.1132336545683
 20
33.6502642726409
 30
0.0
 10
227.1129966318425
 20
33.65050887458171
 30
0.0
 10
227.1128657181277
 20
33.65089920415769
 30
0.0
 10
227.1128657181277
 20
33.65130813726156
 30
0.0
1001
ACAD
1000
RTTcAl
1070
-26105
1071
-1023410177
1000
$$NoName$$
  0
SPLINE
  5
151E
330
A
100
AcDbEntity
  8
001
370
     9
100
AcDbSpline
210
0.0
220
0.0
230
1.0
 70
     8
 71
     3
 72
     8
 73
     4
 74
     0
 42
0.0000000001
 43
0.0000000001
 40
0.0
 40
0.0
 40
0.0
 40
0.0
 40
1.0
 40
1.0
 40
1.0
 40
1.0
 10
227.1346862783071
 20
33.69219696902146
 30
0.0
 10
227.1259405531387
 20
33.69702286196082
 30
0.0
 10
227.1153220728292
 20
33.69702286196082
 30
0.0
 10
227.1065756586413
 20
33.69219696902146
 30
0.0
1001
ACAD
1000
RTTcAl
1070
-26105
1071
-1023410177
1000
$$NoName$$
  0
SPLINE
  5
151F
330
A
100
AcDbEntity
  8
001
370
     9
100
AcDbSpline
210
0.0
220
0.0
230
1.0
 70
     8
 71
     3
 72
     8
 73
     4
 74
     0
 42
0.0000000001
 43
0.0000000001
 40
0.0
 40
0.0
 40
0.0
 40
0.0
 40
1.0
 40
1.0
 40
1.0
 40
1.0
 10
227.1048510427036
 20
33.66799343472291
 30
0.0
 10
227.1047132387933
 20
33.66799343472291
 30
0.0
 10
227.1045878372349
 20
33.66788904826085
 30
0.0
 10
227.1045878372349
 20
33.66774711023322
 30
0.0
1001
ACAD
1000
RTTcAl
1070
-26105
1071
-1023410177
1000
$$NoName$$
  0
SPLINE
  5
1520
330
A
100
AcDbEntity
  8
001
370
     9
100
AcDbSpline
210
0.0
220
0.0
230
1.0
 70
     8
 71
     3
 72
     8
 73
     4
 74
     0
 42
0.0000000001
 43
0.0000000001
 40
0.0
 40
0.0
 40
0.0
 40
0.0
 40
1.0
 40
1.0
 40
1.0
 40
1.0
 10
227.1045878372349
 20
33.66437435952818
 30
0.0
 10
227.1045878372349
 20
33.66423621110809
 30
0.0
 10
227.1047132387933
 20
33.66411804425499
 30
0.0
 10
227.1048503536841
 20
33.66411804425499
 30
0.0
1001
ACAD
1000
RTTcAl
1070
-26105
1071
-1023410177
1000
$$NoName$$
  0
SPLINE
  5
1521
330
A
100
AcDbEntity
  8
001
370
     9
100
AcDbSpline
210
0.0
220
0.0
230
1.0
 70
    11
 71
     3
 72
    17
 73
    13
 74
     0
 42
0.0000000001
 43
0.0000000001
 40
0.0
 40
0.0
 40
0.0
 40
0.0
 40
1.0
 40
1.0
 40
1.0
 40
2.0
 40
2.0
 40
2.0
 40
3.0
 40
3.0
 40
3.0
 40
4.0
 40
4.0
 40
4.0
 40
4.0
 10
226.9371125714921
 20
33.88456121568316
 30
0.0
 10
226.9371125714921
 20
33.9327726027276
 30
0.0
 10
226.8980182911543
 20
33.97187446228044
 30
0.0
 10
226.8498086266587
 20
33.97187446228044
 30
0.0
 10
226.8015858707917
 20
33.97187446228044
 30
0.0
 10
226.7624874563366
 20
33.9327726027276
 30
0.0
 10
226.7624874563366
 20
33.88456121568316
 30
0.0
 10
226.7624874563366
 20
33.83634087138455
 30
0.0
 10
226.8015858707917
 20
33.79724521300767
 30
0.0
 10
226.8498086266587
 20
33.79724521300767
 30
0.0
 10
226.8980182911543
 20
33.79724521300767
 30
0.0
 10
226.9371125714921
 20
33.83634087138455
 30
0.0
 10
226.9371125714921
 20
33.88456121568316
 30
0.0
1001
ACAD
1000
RTTcAl
1070
-26105
1071
-1023410177
1000
$$NoName$$
  0
SPLINE
  5
1522
330
A
100
AcDbEntity
  8
001
370
     9
100
AcDbSpline
210
0.0
220
0.0
230
1.0
 70
     8
 71
     3
 72
     8
 73
     4
 74
     0
 42
0.0000000001
 43
0.0000000001
 40
0.0
 40
0.0
 40
0.0
 40
0.0
 40
1.0
 40
1.0
 40
1.0
 40
1.0
 10
226.8816530432747
 20
33.80964894297543
 30
0.0
 10
226.9094115739497
 20
33.82146287220702
 30
0.0
 10
226.928363401226
 20
33.84764492614797
 30
0.0
 10
226.9309055388616
 20
33.87770753820347
 30
0.0
1001
ACAD
1000
RTTcAl
1070
-26105
1071
-1023410177
1000
$$NoName$$
  0
SPLINE
  5
1523
330
A
100
AcDbEntity
  8
001
370
     9
100
AcDbSpline
210
0.0
220
0.0
230
1.0
 70
     8
 71
     3
 72
     8
 73
     4
 74
     0
 42
0.0000000001
 43
0.0000000001
 40
0.0
 40
0.0
 40
0.0
 40
0.0
 40
1.0
 40
1.0
 40
1.0
 40
1.0
 10
226.9310998423751
 20
33.8777626597676
 30
0.0
 10
226.9314705348938
 20
33.88227987194784
 30
0.0
 10
226.9314705348938
 20
33.88682671196879
 30
0.0
 10
226.9310998423751
 20
33.89134736924678
 30
0.0
1001
ACAD
1000
RTTcAl
1070
-26105
1071
-1023410177
1000
$$NoName$$
  0
SPLINE
  5
1524
330
A
100
AcDbEntity
  8
001
370
     9
100
AcDbSpline
210
0.0
220
0.0
230
1.0
 70
     8
 71
     3
 72
     8
 73
     4
 74
     0
 42
0.0000000001
 43
0.0000000001
 40
0.0
 40
0.0
 40
0.0
 40
0.0
 40
1.0
 40
1.0
 40
1.0
 40
1.0
 10
226.9309131180766
 20
33.89141213708464
 30
0.0
 10
226.9275751628589
 20
33.93095910326781
 30
0.0
 10
226.896205480714
 20
33.96233085247134
 30
0.0
 10
226.85665989257
 20
33.96565537180777
 30
0.0
1001
ACAD
1000
RTTcAl
1070
-26105
1071
-1023410177
1000
$$NoName$$
  0
SPLINE
  5
1525
330
A
100
AcDbEntity
  8
001
370
     9
100
AcDbSpline
210
0.0
220
0.0
230
1.0
 70
     8
 71
     3
 72
     8
 73
     4
 74
     0
 42
0.0000000001
 43
0.0000000001
 40
0.0
 40
0.0
 40
0.0
 40
0.0
 40
1.0
 40
1.0
 40
1.0
 40
1.0
 10
226.8565961582615
 20
33.96584829728222
 30
0.0
 10
226.8520717113759
 20
33.96623414823111
 30
0.0
 10
226.8475317615505
 20
33.96623414823111
 30
0.0
 10
226.8430080036845
 20
33.96584829728222
 30
0.0
1001
ACAD
1000
RTTcAl
1070
-26105
1071
-1023410177
1000
$$NoName$$
  0
SPLINE
  5
1526
330
A
100
AcDbEntity
  8
001
370
     9
100
AcDbSpline
210
0.0
220
0.0
230
1.0
 70
     8
 71
     3
 72
     8
 73
     4
 74
     0
 42
0.0000000001
 43
0.0000000001
 40
0.0
 40
0.0
 40
0.0
 40
0.0
 40
1.0
 40
1.0
 40
1.0
 40
1.0
 10
226.8429494370226
 20
33.9656650180815
 30
0.0
 10
226.8034041933884
 20
33.96233085247134
 30
0.0
 10
226.7720241759502
 20
33.93095910326781
 30
0.0
 10
226.7686982785746
 20
33.89141764924105
 30
0.0
1001
ACAD
1000
RTTcAl
1070
-26105
1071
-1023410177
1000
$$NoName$$
  0
SPLINE
  5
1527
330
A
100
AcDbEntity
  8
001
370
     9
100
AcDbSpline
210
0.0
220
0.0
230
1.0
 70
     8
 71
     3
 72
     8
 73
     4
 74
     0
 42
0.0000000001
 43
0.0000000001
 40
0.0
 40
0.0
 40
0.0
 40
0.0
 40
1.0
 40
1.0
 40
1.0
 40
1.0
 10
226.8804751643512
 20
33.81230304628816
 30
0.0
 10
226.9072094674628
 20
33.82365326536153
 30
0.0
 10
226.9254901896958
 20
33.84882935075715
 30
0.0
 10
226.927996153805
 20
33.8777626597676
 30
0.0
1001
ACAD
1000
RTTcAl
1070
-26105
1071
-1023410177
1000
$$NoName$$
  0
SPLINE
  5
1528
330
A
100
AcDbEntity
  8
001
370
     9
100
AcDbSpline
210
0.0
220
0.0
230
1.0
 70
    11
 71
     3
 72
    17
 73
    13
 74
     0
 42
0.0000000001
 43
0.0000000001
 40
0.0
 40
0.0
 40
0.0
 40
0.0
 40
1.0
 40
1.0
 40
1.0
 40
2.0
 40
2.0
 40
2.0
 40
3.0
 40
3.0
 40
3.0
 40
4.0
 40
4.0
 40
4.0
 40
4.0
 10
226.9122909866557
 20
33.88456121568316
 30
0.0
 10
226.9122909866557
 20
33.91906455874868
 30
0.0
 10
226.8843095581558
 20
33.9470559780321
 30
0.0
 10
226.8498086266587
 20
33.9470559780321
 30
0.0
 10
226.8152884026142
 20
33.9470559780321
 30
0.0
 10
226.7873055960752
 20
33.91906455874868
 30
0.0
 10
226.7873055960752
 20
33.88456121568316
 30
0.0
 10
226.7873055960752
 20
33.85004409222661
 30
0.0
 10
226.8152884026142
 20
33.82206714235377
 30
0.0
 10
226.8498086266587
 20
33.82206714235377
 30
0.0
 10
226.8843095581558
 20
33.82206714235377
 30
0.0
 10
226.9122909866557
 20
33.85004409222661
 30
0.0
 10
226.9122909866557
 20
33.88456121568316
 30
0.0
1001
ACAD
1000
RTTcAl
1070
-26105
1071
-1023410177
1000
$$NoName$$
  0
SPLINE
  5
1529
330
A
100
AcDbEntity
  8
001
370
     9
100
AcDbSpline
210
0.0
220
0.0
230
1.0
 70
     8
 71
     3
 72
     8
 73
     4
 74
     0
 42
0.0000000001
 43
0.0000000001
 40
0.0
 40
0.0
 40
0.0
 40
0.0
 40
1.0
 40
1.0
 40
1.0
 40
1.0
 10
226.928183567123
 20
33.89141213708464
 30
0.0
 10
226.9248442338662
 20
33.92944257123476
 30
0.0
 10
226.8946906712299
 20
33.95961473739897
 30
0.0
 10
226.8566592035504
 20
33.96293718967674
 30
0.0
1001
ACAD
1000
RTTcAl
1070
-26105
1071
-1023410177
1000
$$NoName$$
  0
SPLINE
  5
152A
330
A
100
AcDbEntity
  8
001
370
     9
100
AcDbSpline
210
0.0
220
0.0
230
1.0
 70
    11
 71
     3
 72
    17
 73
    13
 74
     0
 42
0.0000000001
 43
0.0000000001
 40
0.0
 40
0.0
 40
0.0
 40
0.0
 40
1.0
 40
1.0
 40
1.0
 40
2.0
 40
2.0
 40
2.0
 40
3.0
 40
3.0
 40
3.0
 40
4.0
 40
4.0
 40
4.0
 40
4.0
 10
226.872893882225
 20
33.88456121568316
 30
0.0
 10
226.872893882225
 20
33.89731358954402
 30
0.0
 10
226.8625630675782
 20
33.90765646203297
 30
0.0
 10
226.8498093156783
 20
33.90765646203297
 30
0.0
 10
226.8370441949557
 20
33.90765646203297
 30
0.0
 10
226.826705456584
 20
33.89731358954402
 30
0.0
 10
226.826705456584
 20
33.88456121568316
 30
0.0
 10
226.826705456584
 20
33.87180677476364
 30
0.0
 10
226.8370441949557
 20
33.86146596933335
 30
0.0
 10
226.8498093156783
 20
33.86146596933335
 30
0.0
 10
226.8625630675782
 20
33.86146596933335
 30
0.0
 10
226.872893882225
 20
33.87180677476364
 30
0.0
 10
226.872893882225
 20
33.88456121568316
 30
0.0
1001
ACAD
1000
RTTcAl
1070
-26105
1071
-1023410177
1000
$$NoName$$
  0
SPLINE
  5
152B
330
A
100
AcDbEntity
  8
001
370
     9
100
AcDbSpline
210
0.0
220
0.0
230
1.0
 70
    11
 71
     3
 72
    17
 73
    13
 74
     0
 42
0.0000000001
 43
0.0000000001
 40
0.0
 40
0.0
 40
0.0
 40
0.0
 40
1.0
 40
1.0
 40
1.0
 40
2.0
 40
2.0
 40
2.0
 40
3.0
 40
3.0
 40
3.0
 40
4.0
 40
4.0
 40
4.0
 40
4.0
 10
226.8736325111843
 20
33.88456121568316
 30
0.0
 10
226.8736325111843
 20
33.89772148911856
 30
0.0
 10
226.8629702781332
 20
33.90837993256214
 30
0.0
 10
226.8498086266587
 20
33.90837993256214
 30
0.0
 10
226.8366397404789
 20
33.90837993256214
 30
0.0
 10
226.8259730288007
 20
33.89772148911856
 30
0.0
 10
226.8259730288007
 20
33.88456121568316
 30
0.0
 10
226.8259730288007
 20
33.87139956420865
 30
0.0
 10
226.8366397404789
 20
33.86074594390194
 30
0.0
 10
226.8498086266587
 20
33.86074594390194
 30
0.0
 10
226.8629702781332
 20
33.86074594390194
 30
0.0
 10
226.8736325111843
 20
33.87139956420865
 30
0.0
 10
226.8736325111843
 20
33.88456121568316
 30
0.0
1001
ACAD
1000
RTTcAl
1070
-26105
1071
-1023410177
1000
$$NoName$$
  0
SPLINE
  5
152C
330
A
100
AcDbEntity
  8
001
370
     9
100
AcDbSpline
210
0.0
220
0.0
230
1.0
 70
    11
 71
     3
 72
    17
 73
    13
 74
     0
 42
0.0000000001
 43
0.0000000001
 40
0.0
 40
0.0
 40
0.0
 40
0.0
 40
1.0
 40
1.0
 40
1.0
 40
2.0
 40
2.0
 40
2.0
 40
3.0
 40
3.0
 40
3.0
 40
4.0
 40
4.0
 40
4.0
 40
4.0
 10
226.9346152201273
 20
33.88456121568316
 30
0.0
 10
226.9346152201273
 20
33.93139387460486
 30
0.0
 10
226.8966343953849
 20
33.9693671201322
 30
0.0
 10
226.8498086266587
 20
33.9693671201322
 30
0.0
 10
226.8029518520527
 20
33.9693671201322
 30
0.0
 10
226.7649858412307
 20
33.93139387460486
 30
0.0
 10
226.7649858412307
 20
33.88456121568316
 30
0.0
 10
226.7649858412307
 20
33.8377251116637
 30
0.0
 10
226.8029518520527
 20
33.79975737829277
 30
0.0
 10
226.8498086266587
 20
33.79975737829277
 30
0.0
 10
226.8966343953849
 20
33.79975737829277
 30
0.0
 10
226.9346152201273
 20
33.8377251116637
 30
0.0
 10
226.9346152201273
 20
33.88456121568316
 30
0.0
1001
ACAD
1000
RTTcAl
1070
-26105
1071
-1023410177
1000
$$NoName$$
  0
SPLINE
  5
152D
330
A
100
AcDbEntity
  8
001
370
     9
100
AcDbSpline
210
0.0
220
0.0
230
1.0
 70
    11
 71
     3
 72
    17
 73
    13
 74
     0
 42
0.0000000001
 43
0.0000000001
 40
0.0
 40
0.0
 40
0.0
 40
0.0
 40
1.0
 40
1.0
 40
1.0
 40
2.0
 40
2.0
 40
2.0
 40
3.0
 40
3.0
 40
3.0
 40
4.0
 40
4.0
 40
4.0
 40
4.0
 10
226.9043097286799
 20
33.93594347070403
 30
0.0
 10
226.9043097286799
 20
33.93767084271987
 30
0.0
 10
226.9029034397751
 20
33.93906886339005
 30
0.0
 10
226.9011895036405
 20
33.93906886339005
 30
0.0
 10
226.8994728114277
 20
33.93906886339005
 30
0.0
 10
226.8980765133064
 20
33.93767084271987
 30
0.0
 10
226.8980765133064
 20
33.93594347070403
 30
0.0
 10
226.8980765133064
 20
33.9342257449619
 30
0.0
 10
226.8994728114277
 20
33.93284012664366
 30
0.0
 10
226.9011895036405
 20
33.93284012664366
 30
0.0
 10
226.9029034397751
 20
33.93284012664366
 30
0.0
 10
226.9043097286799
 20
33.9342257449619
 30
0.0
 10
226.9043097286799
 20
33.93594347070403
 30
0.0
1001
ACAD
1000
RTTcAl
1070
-26105
1071
-1023410177
1000
$$NoName$$
  0
SPLINE
  5
152E
330
A
100
AcDbEntity
  8
001
370
     9
100
AcDbSpline
210
0.0
220
0.0
230
1.0
 70
    11
 71
     3
 72
    17
 73
    13
 74
     0
 42
0.0000000001
 43
0.0000000001
 40
0.0
 40
0.0
 40
0.0
 40
0.0
 40
1.0
 40
1.0
 40
1.0
 40
2.0
 40
2.0
 40
2.0
 40
3.0
 40
3.0
 40
3.0
 40
4.0
 40
4.0
 40
4.0
 40
4.0
 10
226.9065642006527
 20
33.93594347070403
 30
0.0
 10
226.9065642006527
 20
33.9389172790887
 30
0.0
 10
226.9041640010447
 20
33.94132540242151
 30
0.0
 10
226.9011888146209
 20
33.94132540242151
 30
0.0
 10
226.898218451334
 20
33.94132540242151
 30
0.0
 10
226.8958099834915
 20
33.9389172790887
 30
0.0
 10
226.8958099834915
 20
33.93594347070403
 30
0.0
 10
226.8958099834915
 20
33.93298068663218
 30
0.0
 10
226.898218451334
 20
33.93058358761219
 30
0.0
 10
226.9011888146209
 20
33.93058358761219
 30
0.0
 10
226.9041640010447
 20
33.93058358761219
 30
0.0
 10
226.9065642006527
 20
33.93298068663218
 30
0.0
 10
226.9065642006527
 20
33.93594347070403
 30
0.0
1001
ACAD
1000
RTTcAl
1070
-26105
1071
-1023410177
1000
$$NoName$$
  0
SPLINE
  5
152F
330
A
100
AcDbEntity
  8
001
370
     9
100
AcDbSpline
210
0.0
220
0.0
230
1.0
 70
    11
 71
     3
 72
    17
 73
    13
 74
     0
 42
0.0000000001
 43
0.0000000001
 40
0.0
 40
0.0
 40
0.0
 40
0.0
 40
1.0
 40
1.0
 40
1.0
 40
2.0
 40
2.0
 40
2.0
 40
3.0
 40
3.0
 40
3.0
 40
4.0
 40
4.0
 40
4.0
 40
4.0
 10
226.9065642006527
 20
33.83316724732992
 30
0.0
 10
226.9065642006527
 20
33.83614174473414
 30
0.0
 10
226.9041640010447
 20
33.83855124610605
 30
0.0
 10
226.9011888146209
 20
33.83855124610605
 30
0.0
 10
226.898218451334
 20
33.83855124610605
 30
0.0
 10
226.8958099834915
 20
33.83614174473414
 30
0.0
 10
226.8958099834915
 20
33.83316724732992
 30
0.0
 10
226.8958099834915
 20
33.83020584129718
 30
0.0
 10
226.898218451334
 20
33.82778876071019
 30
0.0
 10
226.9011888146209
 20
33.82778876071019
 30
0.0
 10
226.9041640010447
 20
33.82778876071019
 30
0.0
 10
226.9065642006527
 20
33.83020584129718
 30
0.0
 10
226.9065642006527
 20
33.83316724732992
 30
0.0
1001
ACAD
1000
RTTcAl
1070
-26105
1071
-1023410177
1000
$$NoName$$
  0
SPLINE
  5
1530
330
A
100
AcDbEntity
  8
001
370
     5
100
AcDbSpline
210
0.0
220
0.0
230
1.0
 70
     8
 71
     3
 72
     8
 73
     4
 74
     0
 42
0.0000000001
 43
0.0000000001
 40
0.0
 40
0.0
 40
0.0
 40
0.0
 40
1.0
 40
1.0
 40
1.0
 40
1.0
 10
227.0341355880846
 20
33.6174786553175
 30
0.0
 10
227.0341355880846
 20
33.61746349688736
 30
0.0
 10
227.0341280088695
 20
33.61745247257454
 30
0.0
 10
227.0341280088695
 20
33.61742870140001
 30
0.0
1001
ACAD
1000
RTTcAl
1070
-26105
1071
-1023410177
1000
$$NoName$$
  0
SPLINE
  5
1531
330
A
100
AcDbEntity
  8
001
370
     5
100
AcDbSpline
210
0.0
220
0.0
230
1.0
 70
    11
 71
     3
 72
    17
 73
    13
 74
     0
 42
0.0000000001
 43
0.0000000001
 40
0.0
 40
0.0
 40
0.0
 40
0.0
 40
1.0
 40
1.0
 40
1.0
 40
2.0
 40
2.0
 40
2.0
 40
3.0
 40
3.0
 40
3.0
 40
4.0
 40
4.0
 40
4.0
 40
4.0
 10
226.953875383653
 20
33.71931161092549
 30
0.0
 10
226.953875383653
 20
33.71928749524118
 30
0.0
 10
226.9538529905176
 20
33.71925924543957
 30
0.0
 10
226.9538274967942
 20
33.71925924543957
 30
0.0
 10
226.9538006250316
 20
33.71925924543957
 30
0.0
 10
226.9537778873864
 20
33.71928749524118
 30
0.0
 10
226.9537778873864
 20
33.71931161092549
 30
0.0
 10
226.9537778873864
 20
33.71933744915867
 30
0.0
 10
226.9538006250316
 20
33.71935915327454
 30
0.0
 10
226.9538274967942
 20
33.71935915327454
 30
0.0
 10
226.9538529905176
 20
33.71935915327454
 30
0.0
 10
226.953875383653
 20
33.71933744915867
 30
0.0
 10
226.953875383653
 20
33.71931161092549
 30
0.0
1001
ACAD
1000
RTTcAl
1070
-25862
1071
-1037953260
1000
$$NoName$$
  0
SPLINE
  5
1532
330
A
100
AcDbEntity
  8
001
370
     9
100
AcDbSpline
210
0.0
220
0.0
230
1.0
 70
    11
 71
     3
 72
    17
 73
    13
 74
     0
 42
0.0000000001
 43
0.0000000001
 40
0.0
 40
0.0
 40
0.0
 40
0.0
 40
1.0
 40
1.0
 40
1.0
 40
2.0
 40
2.0
 40
2.0
 40
3.0
 40
3.0
 40
3.0
 40
4.0
 40
4.0
 40
4.0
 40
4.0
 10
226.8492942735635
 20
33.71931161092549
 30
0.0
 10
226.8492942735635
 20
33.71928749524118
 30
0.0
 10
226.8492732584671
 20
33.71925924543957
 30
0.0
 10
226.8492450086655
 20
33.71925924543957
 30
0.0
 10
226.8492191704323
 20
33.71925924543957
 30
0.0
 10
226.8491991888653
 20
33.71928749524118
 30
0.0
 10
226.8491991888653
 20
33.71931161092549
 30
0.0
 10
226.8491991888653
 20
33.71933744915867
 30
0.0
 10
226.8492191704323
 20
33.71935915327454
 30
0.0
 10
226.8492450086655
 20
33.71935915327454
 30
0.0
 10
226.8492732584671
 20
33.71935915327454
 30
0.0
 10
226.8492942735635
 20
33.71933744915867
 30
0.0
 10
226.8492942735635
 20
33.71931161092549
 30
0.0
1001
ACAD
1000
RTTcAl
1070
-25862
1071
-1037953260
1000
$$NoName$$
  0
SPLINE
  5
1533
330
A
100
AcDbEntity
  8
001
370
     9
100
AcDbSpline
210
0.0
220
0.0
230
1.0
 70
    11
 71
     3
 72
    17
 73
    13
 74
     0
 42
0.0000000001
 43
0.0000000001
 40
0.0
 40
0.0
 40
0.0
 40
0.0
 40
1.0
 40
1.0
 40
1.0
 40
2.0
 40
2.0
 40
2.0
 40
3.0
 40
3.0
 40
3.0
 40
4.0
 40
4.0
 40
4.0
 40
4.0
 10
226.9172178209594
 20
33.65003482913023
 30
0.0
 10
226.9172178209594
 20
33.65000485677973
 30
0.0
 10
226.9171919827262
 20
33.64998074109542
 30
0.0
 10
226.9171671780223
 20
33.64998074109542
 30
0.0
 10
226.9171372056719
 20
33.64998074109542
 30
0.0
 10
226.9171168795951
 20
33.65000485677973
 30
0.0
 10
226.9171168795951
 20
33.65003482913023
 30
0.0
 10
226.9171168795951
 20
33.65006721304915
 30
0.0
 10
226.9171372056719
 20
33.65008168245973
 30
0.0
 10
226.9171671780223
 20
33.65008168245973
 30
0.0
 10
226.9171919827262
 20
33.65008168245973
 30
0.0
 10
226.9172178209594
 20
33.65006721304915
 30
0.0
 10
226.9172178209594
 20
33.65003482913023
 30
0.0
1001
ACAD
1000
RTTcAl
1070
-26105
1071
-1023410177
1000
$$NoName$$
  0
SPLINE
  5
1534
330
A
100
AcDbEntity
  8
001
370
     9
100
AcDbSpline
210
0.0
220
0.0
230
1.0
 70
    11
 71
     3
 72
    17
 73
    13
 74
     0
 42
0.0000000001
 43
0.0000000001
 40
0.0
 40
0.0
 40
0.0
 40
0.0
 40
1.0
 40
1.0
 40
1.0
 40
2.0
 40
2.0
 40
2.0
 40
3.0
 40
3.0
 40
3.0
 40
4.0
 40
4.0
 40
4.0
 40
4.0
 10
226.9357138618024
 20
33.59949662306005
 30
0.0
 10
226.9357138618024
 20
33.59947285188553
 30
0.0
 10
226.9356876790594
 20
33.59944908071099
 30
0.0
 10
226.9356625298458
 20
33.59944908071099
 30
0.0
 10
226.9356387586712
 20
33.59944908071099
 30
0.0
 10
226.9356194661237
 20
33.59947285188553
 30
0.0
 10
226.9356194661237
 20
33.59949662306005
 30
0.0
 10
226.9356194661237
 20
33.59952659541055
 30
0.0
 10
226.9356387586712
 20
33.5995514001144
 30
0.0
 10
226.9356625298458
 20
33.5995514001144
 30
0.0
 10
226.9356876790594
 20
33.5995514001144
 30
0.0
 10
226.9357138618024
 20
33.59952659541055
 30
0.0
 10
226.9357138618024
 20
33.59949662306005
 30
0.0
1001
ACAD
1000
RTTcAl
1070
-25862
1071
-1037953260
1000
$$NoName$$
  0
SPLINE
  5
1535
330
A
100
AcDbEntity
  8
001
370
     9
100
AcDbSpline
210
0.0
220
0.0
230
1.0
 70
    11
 71
     3
 72
    17
 73
    13
 74
     0
 42
0.0000000001
 43
0.0000000001
 40
0.0
 40
0.0
 40
0.0
 40
0.0
 40
1.0
 40
1.0
 40
1.0
 40
2.0
 40
2.0
 40
2.0
 40
3.0
 40
3.0
 40
3.0
 40
4.0
 40
4.0
 40
4.0
 40
4.0
 10
226.9012449697144
 20
33.93594347070403
 30
0.0
 10
226.9012449697144
 20
33.93592417815658
 30
0.0
 10
226.9012187869714
 20
33.93589248325721
 30
0.0
 10
226.9011895036405
 20
33.93589248325721
 30
0.0
 10
226.9011598757998
 20
33.93589248325721
 30
0.0
 10
226.9011402387425
 20
33.93592417815658
 30
0.0
 10
226.9011402387425
 20
33.93594347070403
 30
0.0
 10
226.9011402387425
 20
33.9359765436425
 30
0.0
 10
226.9011598757998
 20
33.93599514717039
 30
0.0
 10
226.9011895036405
 20
33.93599514717039
 30
0.0
 10
226.9012187869714
 20
33.93599514717039
 30
0.0
 10
226.9012449697144
 20
33.9359765436425
 30
0.0
 10
226.9012449697144
 20
33.93594347070403
 30
0.0
1001
ACAD
1000
RTTcAl
1070
-26105
1071
-1023410177
1000
$$NoName$$
  0
SPLINE
  5
1536
330
A
100
AcDbEntity
  8
001
370
     9
100
AcDbSpline
210
0.0
220
0.0
230
1.0
 70
    11
 71
     3
 72
    17
 73
    13
 74
     0
 42
0.0000000001
 43
0.0000000001
 40
0.0
 40
0.0
 40
0.0
 40
0.0
 40
1.0
 40
1.0
 40
1.0
 40
2.0
 40
2.0
 40
2.0
 40
3.0
 40
3.0
 40
3.0
 40
4.0
 40
4.0
 40
4.0
 40
4.0
 10
226.9012449697144
 20
33.93594347070403
 30
0.0
 10
226.9012449697144
 20
33.93592417815658
 30
0.0
 10
226.9012187869714
 20
33.93589248325721
 30
0.0
 10
226.9011895036405
 20
33.93589248325721
 30
0.0
 10
226.9011598757998
 20
33.93589248325721
 30
0.0
 10
226.9011402387425
 20
33.93592417815658
 30
0.0
 10
226.9011402387425
 20
33.93594347070403
 30
0.0
 10
226.9011402387425
 20
33.9359765436425
 30
0.0
 10
226.9011598757998
 20
33.93599514717039
 30
0.0
 10
226.9011895036405
 20
33.93599514717039
 30
0.0
 10
226.9012187869714
 20
33.93599514717039
 30
0.0
 10
226.9012449697144
 20
33.9359765436425
 30
0.0
 10
226.9012449697144
 20
33.93594347070403
 30
0.0
1001
ACAD
1000
RTTcAl
1070
-26105
1071
-1023410177
1000
$$NoName$$
  0
SPLINE
  5
1537
330
A
100
AcDbEntity
  8
001
370
     9
100
AcDbSpline
210
0.0
220
0.0
230
1.0
 70
     8
 71
     3
 72
    11
 73
     7
 74
     0
 42
0.0000000001
 43
0.0000000001
 40
0.0
 40
0.0
 40
0.0
 40
0.0
 40
1.0
 40
1.0
 40
1.0
 40
2.0
 40
2.0
 40
2.0
 40
2.0
 10
226.8261490732962
 20
33.68129116755886
 30
0.0
 10
226.8261490732962
 20
33.66851950115055
 30
0.0
 10
226.8364898787265
 20
33.65818179630824
 30
0.0
 10
226.8492446641558
 20
33.65818179630824
 30
0.0
 10
226.8619966935069
 20
33.65818179630824
 30
0.0
 10
226.8723385324665
 20
33.66851950115055
 30
0.0
 10
226.8723385324665
 20
33.68129116755886
 30
0.0
1001
ACAD
1000
RTTcAl
1070
-26105
1071
-1023410177
1000
$$NoName$$
  0
SPLINE
  5
1538
330
A
100
AcDbEntity
  8
001
370
    25
100
AcDbSpline
210
0.0
220
0.0
230
1.0
 70
    11
 71
     3
 72
    17
 73
    13
 74
     0
 42
0.0000000001
 43
0.0000000001
 40
0.0
 40
0.0
 40
0.0
 40
0.0
 40
1.0
 40
1.0
 40
1.0
 40
2.0
 40
2.0
 40
2.0
 40
3.0
 40
3.0
 40
3.0
 40
4.0
 40
4.0
 40
4.0
 40
4.0
 10
226.9384354890311
 20
33.88456121568316
 30
0.0
 10
226.9384354890311
 20
33.9335070975696
 30
0.0
 10
226.8987448622715
 20
33.97319048962399
 30
0.0
 10
226.8498086266587
 20
33.97319048962399
 30
0.0
 10
226.8008489643813
 20
33.97319048962399
 30
0.0
 10
226.7611621272291
 20
33.9335070975696
 30
0.0
 10
226.7611621272291
 20
33.88456121568316
 30
0.0
 10
226.7611621272291
 20
33.83561533379672
 30
0.0
 10
226.8008489643813
 20
33.79593056370323
 30
0.0
 10
226.8498086266587
 20
33.79593056370323
 30
0.0
 10
226.8987448622715
 20
33.79593056370323
 30
0.0
 10
226.9384354890311
 20
33.83561533379672
 30
0.0
 10
226.9384354890311
 20
33.88456121568316
 30
0.0
1001
ACAD
1000
RTTcAl
1070
-26105
1071
-1023410177
1000
$$NoName$$
  0
TEXT
  5
1539
330
A
100
AcDbEntity
  8
001
  6
Continuous
100
AcDbText
 10
226.9828908251513
 20
33.8575427165763
 30
0.0
 40
0.0232799810762421
  1
75.7
 50
90.0
 41
0.6
 72
     1
 11
226.9828908251513
 21
33.87849469954491
 31
0.0
100
AcDbText
  0
LINE
  5
153A
330
A
100
AcDbEntity
  8
001
100
AcDbLine
 10
226.9525739914677
 20
33.83316724732993
 30
0.0
 11
226.9525739914677
 21
33.93594347070403
 31
0.0
  0
LINE
  5
153B
330
A
100
AcDbEntity
  8
001
100
AcDbLine
 10
226.9525739914677
 20
33.93594347070403
 30
0.0
 11
226.9541905900668
 21
33.92677360742824
 31
0.0
  0
LINE
  5
153C
330
A
100
AcDbEntity
  8
001
100
AcDbLine
 10
226.9525739914677
 20
33.93594347070403
 30
0.0
 11
226.9509565865849
 21
33.92677360742824
 31
0.0
  0
LINE
  5
153D
330
A
100
AcDbEntity
  8
001
100
AcDbLine
 10
226.9525739914677
 20
33.83316724732993
 30
0.0
 11
226.9509565865849
 21
33.84233711060572
 31
0.0
  0
LINE
  5
153E
330
A
100
AcDbEntity
  8
001
100
AcDbLine
 10
226.9525739914677
 20
33.83316724732993
 30
0.0
 11
226.9541905900668
 21
33.84233711060572
 31
0.0
  0
LINE
  5
153F
330
A
100
AcDbEntity
  8
001
100
AcDbLine
 10
226.7812697848032
 20
33.73027228060982
 30
0.0
 11
226.9170479776399
 21
33.73027228060982
 31
0.0
  0
LINE
  5
1540
330
A
100
AcDbEntity
  8
001
100
AcDbLine
 10
226.7812697848032
 20
33.73027228060982
 30
0.0
 11
226.7911196950261
 21
33.72853586965479
 31
0.0
  0
LINE
  5
1541
330
A
100
AcDbEntity
  8
001
100
AcDbLine
 10
226.7812697848032
 20
33.73027228060982
 30
0.0
 11
226.7911196950261
 21
33.73200869156486
 31
0.0
  0
LINE
  5
1542
330
A
100
AcDbEntity
  8
001
100
AcDbLine
 10
226.9170479776399
 20
33.73027228060982
 30
0.0
 11
226.907198067417
 21
33.73200869156486
 31
0.0
  0
LINE
  5
1543
330
A
100
AcDbEntity
  8
001
100
AcDbLine
 10
226.9170479776399
 20
33.73027228060982
 30
0.0
 11
226.907198067417
 21
33.72853586965479
 31
0.0
  0
TEXT
  5
1544
330
A
100
AcDbEntity
  8
001
  6
Continuous
100
AcDbText
 10
226.8259045412077
 20
33.73652336004793
 30
0.0
 40
0.0250053502430098
  1
100.0
 41
0.6
 72
     1
 11
226.8496596239385
 21
33.73652336004793
 31
0.0
100
AcDbText
  0
TEXT
  5
1545
330
A
100
AcDbEntity
  8
001
  6
Continuous
100
AcDbText
 10
226.825257473133
 20
33.54022943905526
 30
0.0
 40
0.0250053502430098
  1
130.6
 41
0.6
 72
     1
 11
226.8515130908882
 21
33.54022943905526
 31
0.0
100
AcDbText
  0
LINE
  5
1546
330
A
100
AcDbEntity
  8
001
100
AcDbLine
 10
226.7606970390318
 20
33.53387305831053
 30
0.0
 11
226.7705469492547
 21
33.53560946926556
 31
0.0
  0
LINE
  5
1547
330
A
100
AcDbEntity
  8
001
100
AcDbLine
 10
226.7606970390318
 20
33.53387305831053
 30
0.0
 11
226.7705469492547
 21
33.5321366473555
 31
0.0
  0
LINE
  5
1548
330
A
100
AcDbEntity
  8
001
100
AcDbLine
 10
226.7606970390318
 20
33.53387305831053
 30
0.0
 11
226.9377953898677
 21
33.53387305831053
 31
0.0
  0
LINE
  5
1549
330
A
100
AcDbEntity
  8
001
100
AcDbLine
 10
226.9377953898677
 20
33.53387305831053
 30
0.0
 11
226.9279454796448
 21
33.5321366473555
 31
0.0
  0
LINE
  5
154A
330
A
100
AcDbEntity
  8
001
100
AcDbLine
 10
226.9377953898677
 20
33.53387305831053
 30
0.0
 11
226.9279454796448
 21
33.53560946926556
 31
0.0
  0
LINE
  5
154B
330
A
100
AcDbEntity
  8
001
100
AcDbLine
 10
227.2179830511761
 20
33.58062265499316
 30
0.0
 11
227.2195996497752
 21
33.58979251826895
 31
0.0
  0
LINE
  5
154C
330
A
100
AcDbEntity
  8
001
100
AcDbLine
 10
227.2179830511761
 20
33.58062265499316
 30
0.0
 11
227.2163656462933
 21
33.58979251826895
 31
0.0
  0
LINE
  5
154D
330
A
100
AcDbEntity
  8
001
100
AcDbLine
 10
227.2179830511761
 20
33.71931161092549
 30
0.0
 11
227.2163656462933
 21
33.7101417476497
 31
0.0
  0
LINE
  5
154E
330
A
100
AcDbEntity
  8
001
100
AcDbLine
 10
227.2179830511761
 20
33.71931161092549
 30
0.0
 11
227.2195996497752
 21
33.7101417476497
 31
0.0
  0
LINE
  5
154F
330
A
100
AcDbEntity
  8
001
100
AcDbLine
 10
227.2179830511761
 20
33.58062265499316
 30
0.0
 11
227.2179830511761
 21
33.71931161092549
 31
0.0
  0
TEXT
  5
1550
330
A
100
AcDbEntity
  8
001
  6
Continuous
100
AcDbText
 10
227.2482998848597
 20
33.63018220694243
 30
0.0
 40
0.0232799810762421
  1
102.0
 50
90.0
 41
0.6
 72
     1
 11
227.2482998848597
 21
33.65346218801867
 31
0.0
100
AcDbText
  0
TEXT
  5
1551
330
A
100
AcDbEntity
  8
001
  6
Continuous
100
AcDbText
 10
226.9805278325991
 20
33.67029603701542
 30
0.0
 40
0.0232799810762421
  1
51.0
 50
90.0
 41
0.6
 72
     1
 11
226.9805278325991
 21
33.6877560228226
 31
0.0
100
AcDbText
  0
LINE
  5
1552
330
A
100
AcDbEntity
  8
001
100
AcDbLine
 10
226.9502109989155
 20
33.65003482913023
 30
0.0
 11
226.9502109989155
 21
33.71931161092549
 31
0.0
  0
LINE
  5
1553
330
A
100
AcDbEntity
  8
001
100
AcDbLine
 10
226.9502109989155
 20
33.71931161092549
 30
0.0
 11
226.9518275975146
 21
33.7101417476497
 31
0.0
  0
LINE
  5
1554
330
A
100
AcDbEntity
  8
001
100
AcDbLine
 10
226.9502109989155
 20
33.71931161092549
 30
0.0
 11
226.9485935940328
 21
33.7101417476497
 31
0.0
  0
LINE
  5
1555
330
A
100
AcDbEntity
  8
001
100
AcDbLine
 10
226.9502109989155
 20
33.65003482913023
 30
0.0
 11
226.9485935940328
 21
33.65920469240601
 31
0.0
  0
LINE
  5
1556
330
A
100
AcDbEntity
  8
001
100
AcDbLine
 10
226.9502109989155
 20
33.65003482913023
 30
0.0
 11
226.9518275975146
 21
33.65920469240601
 31
0.0
  0
TEXT
  5
1557
330
A
100
AcDbEntity
  8
001
  6
Continuous
100
AcDbText
 10
227.0118875421607
 20
33.60786795333552
 30
0.0
 40
0.0232799810762421
  1
37.3
 50
90.0
 41
0.6
 72
     1
 11
227.0118875421607
 21
33.62881993630414
 31
0.0
100
AcDbText
  0
LINE
  5
1558
330
A
100
AcDbEntity
  8
001
100
AcDbLine
 10
226.9502113434253
 20
33.65003482913023
 30
0.0
 11
226.9485939385425
 21
33.64086496585444
 31
0.0
  0
LINE
  5
1559
330
A
100
AcDbEntity
  8
001
100
AcDbLine
 10
226.9502113434253
 20
33.65003482913023
 30
0.0
 11
226.9518279420244
 21
33.64086496585444
 31
0.0
  0
LINE
  5
155A
330
A
100
AcDbEntity
  8
001
100
AcDbLine
 10
226.9502113434253
 20
33.59935468503243
 30
0.0
 11
226.9502113434253
 21
33.65003482913023
 31
0.0
  0
LINE
  5
155B
330
A
100
AcDbEntity
  8
001
100
AcDbLine
 10
226.9502113434253
 20
33.59935468503243
 30
0.0
 11
226.9518279420244
 21
33.60852454830821
 31
0.0
  0
LINE
  5
155C
330
A
100
AcDbEntity
  8
001
100
AcDbLine
 10
226.9502113434253
 20
33.59935468503243
 30
0.0
 11
226.9485939385425
 21
33.60852454830821
 31
0.0
  0
LINE
  5
155D
330
A
100
AcDbEntity
  8
001
100
AcDbLine
 10
226.950220989699
 20
33.58089998536259
 30
0.0
 11
226.950220989699
 21
33.59949662306005
 31
0.0
  0
LINE
  5
155E
330
A
100
AcDbEntity
  8
001
100
AcDbLine
 10
226.950220989699
 20
33.59949662306005
 30
0.0
 11
226.9518375882981
 21
33.59032675978427
 31
0.0
  0
LINE
  5
155F
330
A
100
AcDbEntity
  8
001
100
AcDbLine
 10
226.950220989699
 20
33.59949662306005
 30
0.0
 11
226.9486035848163
 21
33.59032675978427
 31
0.0
  0
LINE
  5
1560
330
A
100
AcDbEntity
  8
001
100
AcDbLine
 10
226.950220989699
 20
33.58089998536259
 30
0.0
 11
226.9486035848163
 21
33.59006984863837
 31
0.0
  0
LINE
  5
1561
330
A
100
AcDbEntity
  8
001
100
AcDbLine
 10
226.950220989699
 20
33.58089998536259
 30
0.0
 11
226.9518375882981
 21
33.59006984863837
 31
0.0
  0
TEXT
  5
1562
330
A
100
AcDbEntity
  8
001
  6
Continuous
100
AcDbText
 10
226.9805378233826
 20
33.57633574754818
 30
0.0
 40
0.0232799810762421
  1
13.7
 50
90.0
 41
0.6
 72
     1
 11
226.9805378233826
 21
33.59495973240917
 31
0.0
100
AcDbText
  0
LINE
  5
1563
330
A
100
AcDbEntity
  8
001
370
     9
100
AcDbLine
 10
226.7606970390318
 20
33.59926786856893
 30
0.0
 11
226.7606970390318
 21
33.53059082390461
 31
0.0
1001
ACAD
1000
RTTcAl
1070
-26105
1071
-1023410177
1000
$$NoName$$
  0
LINE
  5
1564
330
A
100
AcDbEntity
  8
001
370
     9
100
AcDbLine
 10
226.7606970390318
 20
33.59926786856893
 30
0.0
 11
226.7606970390318
 21
33.53059082390461
 31
0.0
1001
ACAD
1000
RTTcAl
1070
-26105
1071
-1023410177
1000
$$NoName$$
  0
SPLINE
  5
1565
330
A
100
AcDbEntity
  8
001
370
    25
100
AcDbSpline
210
0.0
220
0.0
230
1.0
 70
     8
 71
     3
 72
     8
 73
     4
 74
     0
 42
0.0000000001
 43
0.0000000001
 40
0.0
 40
0.0
 40
0.0
 40
0.0
 40
1.0
 40
1.0
 40
1.0
 40
1.0
 10
226.7616244593482
 20
33.6174786553175
 30
0.0
 10
226.7628491916012
 20
33.62752490488949
 30
0.0
 10
226.7658216219468
 20
33.63726557429034
 30
0.0
 10
226.7704032574551
 20
33.64629069688687
 30
0.0
1001
ACAD
1000
RTTcAl
1070
-26105
1071
-1023410177
1000
$$NoName$$
  0
SPLINE
  5
1566
330
A
100
AcDbEntity
  8
001
370
    25
100
AcDbSpline
210
0.0
220
0.0
230
1.0
 70
    24
 71
     3
 72
     8
 73
     4
 74
     0
 42
0.0000000001
 43
0.0000000001
 40
1.0
 40
1.0
 40
1.0
 40
1.0
 40
2.0
 40
2.0
 40
2.0
 40
2.0
 10
226.7704032574551
 20
33.64629069688687
 30
0.0
 10
226.7704032574551
 20
33.64629069688687
 30
0.0
 10
226.7709530950572
 20
33.64686361664402
 30
0.0
 10
226.7709530950572
 20
33.64686361664402
 30
0.0
1001
ACAD
1000
RTTcAl
1070
-26105
1071
-1023410177
1000
$$NoName$$
  0
SPLINE
  5
1567
330
A
100
AcDbEntity
  8
001
370
    25
100
AcDbSpline
210
0.0
220
0.0
230
1.0
 70
     8
 71
     3
 72
     8
 73
     4
 74
     0
 42
0.0000000001
 43
0.0000000001
 40
2.0
 40
2.0
 40
2.0
 40
2.0
 40
3.0
 40
3.0
 40
3.0
 40
3.0
 10
226.7709530950572
 20
33.64686361664402
 30
0.0
 10
226.7739878816722
 20
33.64854447984013
 30
0.0
 10
226.7773148125771
 20
33.64962451798725
 30
0.0
 10
226.7807478524929
 20
33.65003517364
 30
0.0
1001
ACAD
1000
RTTcAl
1070
-26105
1071
-1023410177
1000
$$NoName$$
  0
SPLINE
  5
1568
330
A
100
AcDbEntity
  8
001
370
    25
100
AcDbSpline
210
0.0
220
0.0
230
1.0
 70
    24
 71
     3
 72
     8
 73
     4
 74
     0
 42
0.0000000001
 43
0.0000000001
 40
3.0
 40
3.0
 40
3.0
 40
3.0
 40
4.0
 40
4.0
 40
4.0
 40
4.0
 10
226.7807478524929
 20
33.65003517364
 30
0.0
 10
226.7807478524929
 20
33.65003517364
 30
0.0
 10
226.7813249063673
 20
33.65003517364
 30
0.0
 10
226.7813249063673
 20
33.65003517364
 30
0.0
1001
ACAD
1000
RTTcAl
1070
-26105
1071
-1023410177
1000
$$NoName$$
  0
SPLINE
  5
1569
330
A
100
AcDbEntity
  8
001
370
    25
100
AcDbSpline
210
0.0
220
0.0
230
1.0
 70
    24
 71
     3
 72
     8
 73
     4
 74
     0
 42
0.0000000001
 43
0.0000000001
 40
4.0
 40
4.0
 40
4.0
 40
4.0
 40
5.0
 40
5.0
 40
5.0
 40
5.0
 10
226.7813249063673
 20
33.65003517364
 30
0.0
 10
226.7813249063673
 20
33.65003517364
 30
0.0
 10
226.7813249063673
 20
33.6513901305882
 30
0.0
 10
226.7813249063673
 20
33.6513901305882
 30
0.0
1001
ACAD
1000
RTTcAl
1070
-26105
1071
-1023410177
1000
$$NoName$$
  0
SPLINE
  5
156A
330
A
100
AcDbEntity
  8
001
370
    25
100
AcDbSpline
210
0.0
220
0.0
230
1.0
 70
     8
 71
     3
 72
    11
 73
     7
 74
     0
 42
0.0000000001
 43
0.0000000001
 40
5.0
 40
5.0
 40
5.0
 40
5.0
 40
6.0
 40
6.0
 40
6.0
 40
7.0
 40
7.0
 40
7.0
 40
7.0
 10
226.7813249063673
 20
33.6513901305882
 30
0.0
 10
226.7813249063673
 20
33.68890069948665
 30
0.0
 10
226.811733061728
 20
33.71931505602324
 30
0.0
 10
226.8492446641558
 20
33.71931505602324
 30
0.0
 10
226.8867548885444
 20
33.71931505602324
 30
0.0
 10
226.9171675225321
 20
33.68890069948665
 30
0.0
 10
226.9171675225321
 20
33.6513901305882
 30
0.0
1001
ACAD
1000
RTTcAl
1070
-26105
1071
-1023410177
1000
$$NoName$$
  0
SPLINE
  5
156B
330
A
100
AcDbEntity
  8
001
370
    25
100
AcDbSpline
210
0.0
220
0.0
230
1.0
 70
    24
 71
     3
 72
     8
 73
     4
 74
     0
 42
0.0000000001
 43
0.0000000001
 40
7.0
 40
7.0
 40
7.0
 40
7.0
 40
8.0
 40
8.0
 40
8.0
 40
8.0
 10
226.9171675225321
 20
33.6513901305882
 30
0.0
 10
226.9171675225321
 20
33.6513901305882
 30
0.0
 10
226.9171675225321
 20
33.65003482913023
 30
0.0
 10
226.9171675225321
 20
33.65003482913023
 30
0.0
1001
ACAD
1000
RTTcAl
1070
-26105
1071
-1023410177
1000
$$NoName$$
  0
SPLINE
  5
156C
330
A
100
AcDbEntity
  8
001
370
    25
100
AcDbSpline
210
0.0
220
0.0
230
1.0
 70
    24
 71
     3
 72
     8
 73
     4
 74
     0
 42
0.0000000001
 43
0.0000000001
 40
8.0
 40
8.0
 40
8.0
 40
8.0
 40
9.0
 40
9.0
 40
9.0
 40
9.0
 10
226.9171675225321
 20
33.65003482913023
 30
0.0
 10
226.9171675225321
 20
33.65003482913023
 30
0.0
 10
226.9177338966035
 20
33.65003482913023
 30
0.0
 10
226.9177338966035
 20
33.65003482913023
 30
0.0
1001
ACAD
1000
RTTcAl
1070
-26105
1071
-1023410177
1000
$$NoName$$
  0
SPLINE
  5
156D
330
A
100
AcDbEntity
  8
001
370
    25
100
AcDbSpline
210
0.0
220
0.0
230
1.0
 70
     8
 71
     3
 72
     8
 73
     4
 74
     0
 42
0.0000000001
 43
0.0000000001
 40
9.0
 40
9.0
 40
9.0
 40
9.0
 40
10.0
 40
10.0
 40
10.0
 40
10.0
 10
226.9177338966035
 20
33.65003482913023
 30
0.0
 10
226.9211765827931
 20
33.64962451798725
 30
0.0
 10
226.9245038582077
 20
33.64854447984013
 30
0.0
 10
226.9275283095294
 20
33.64686361664402
 30
0.0
1001
ACAD
1000
RTTcAl
1070
-26105
1071
-1023410177
1000
$$NoName$$
  0
SPLINE
  5
156E
330
A
100
AcDbEntity
  8
001
370
    25
100
AcDbSpline
210
0.0
220
0.0
230
1.0
 70
    24
 71
     3
 72
     8
 73
     4
 74
     0
 42
0.0000000001
 43
0.0000000001
 40
10.0
 40
10.0
 40
10.0
 40
10.0
 40
11.0
 40
11.0
 40
11.0
 40
11.0
 10
226.9275283095294
 20
33.64686361664402
 30
0.0
 10
226.9275283095294
 20
33.64686361664402
 30
0.0
 10
226.9280791806609
 20
33.64629069688687
 30
0.0
 10
226.9280791806609
 20
33.64629069688687
 30
0.0
1001
ACAD
1000
RTTcAl
1070
-26105
1071
-1023410177
1000
$$NoName$$
  0
SPLINE
  5
156F
330
A
100
AcDbEntity
  8
001
370
    25
100
AcDbSpline
210
0.0
220
0.0
230
1.0
 70
     8
 71
     3
 72
     8
 73
     4
 74
     0
 42
0.0000000001
 43
0.0000000001
 40
11.0
 40
11.0
 40
11.0
 40
11.0
 40
12.0
 40
12.0
 40
12.0
 40
12.0
 10
226.9280791806609
 20
33.64629069688687
 30
0.0
 10
226.9326680508745
 20
33.63726557429034
 30
0.0
 10
226.935639103181
 20
33.62752490488949
 30
0.0
 10
226.9368593568068
 20
33.6174786553175
 30
0.0
1001
ACAD
1000
RTTcAl
1070
-26105
1071
-1023410177
1000
$$NoName$$
  0
SPLINE
  5
1570
330
A
100
AcDbEntity
  8
001
370
    25
100
AcDbSpline
210
0.0
220
0.0
230
1.0
 70
    24
 71
     3
 72
     8
 73
     4
 74
     0
 42
0.0000000001
 43
0.0000000001
 40
12.0
 40
12.0
 40
12.0
 40
12.0
 40
13.0
 40
13.0
 40
13.0
 40
13.0
 10
226.9368593568068
 20
33.6174786553175
 30
0.0
 10
226.9368593568068
 20
33.6174786553175
 30
0.0
 10
226.936863835434
 20
33.61742870140001
 30
0.0
 10
226.936863835434
 20
33.61742870140001
 30
0.0
1001
ACAD
1000
RTTcAl
1070
-26105
1071
-1023410177
1000
$$NoName$$
  0
SPLINE
  5
1571
330
A
100
AcDbEntity
  8
001
370
    25
100
AcDbSpline
210
0.0
220
0.0
230
1.0
 70
    24
 71
     3
 72
     8
 73
     4
 74
     0
 42
0.0000000001
 43
0.0000000001
 40
13.0
 40
13.0
 40
13.0
 40
13.0
 40
14.0
 40
14.0
 40
14.0
 40
14.0
 10
226.936863835434
 20
33.61742870140001
 30
0.0
 10
226.936863835434
 20
33.61742870140001
 30
0.0
 10
226.9379590320112
 20
33.59949662306005
 30
0.0
 10
226.9379590320112
 20
33.59949662306005
 30
0.0
1001
ACAD
1000
RTTcAl
1070
-26105
1071
-1023410177
1000
$$NoName$$
  0
SPLINE
  5
1572
330
A
100
AcDbEntity
  8
001
370
    25
100
AcDbSpline
210
0.0
220
0.0
230
1.0
 70
    24
 71
     3
 72
     8
 73
     4
 74
     0
 42
0.0000000001
 43
0.0000000001
 40
14.0
 40
14.0
 40
14.0
 40
14.0
 40
15.0
 40
15.0
 40
15.0
 40
15.0
 10
226.9379590320112
 20
33.59949662306005
 30
0.0
 10
226.9379590320112
 20
33.59949662306005
 30
0.0
 10
226.9356632188653
 20
33.59949662306005
 30
0.0
 10
226.9356632188653
 20
33.59949662306005
 30
0.0
1001
ACAD
1000
RTTcAl
1070
-26105
1071
-1023410177
1000
$$NoName$$
  0
SPLINE
  5
1573
330
A
100
AcDbEntity
  8
001
370
    25
100
AcDbSpline
210
0.0
220
0.0
230
1.0
 70
    24
 71
     3
 72
     8
 73
     4
 74
     0
 42
0.0000000001
 43
0.0000000001
 40
15.0
 40
15.0
 40
15.0
 40
15.0
 40
16.0
 40
16.0
 40
16.0
 40
16.0
 10
226.9356632188653
 20
33.59949662306005
 30
0.0
 10
226.9356632188653
 20
33.59949662306005
 30
0.0
 10
226.9356632188653
 20
33.59733172362895
 30
0.0
 10
226.9356632188653
 20
33.59733172362895
 30
0.0
1001
ACAD
1000
RTTcAl
1070
-26105
1071
-1023410177
1000
$$NoName$$
  0
SPLINE
  5
1574
330
A
100
AcDbEntity
  8
001
370
    25
100
AcDbSpline
210
0.0
220
0.0
230
1.0
 70
    24
 71
     3
 72
     8
 73
     4
 74
     0
 42
0.0000000001
 43
0.0000000001
 40
16.0
 40
16.0
 40
16.0
 40
16.0
 40
17.0
 40
17.0
 40
17.0
 40
17.0
 10
226.9356632188653
 20
33.59733172362895
 30
0.0
 10
226.9356632188653
 20
33.59733172362895
 30
0.0
 10
226.9372734575574
 20
33.59733172362895
 30
0.0
 10
226.9372734575574
 20
33.59733172362895
 30
0.0
1001
ACAD
1000
RTTcAl
1070
-26105
1071
-1023410177
1000
$$NoName$$
  0
SPLINE
  5
1575
330
A
100
AcDbEntity
  8
001
370
    25
100
AcDbSpline
210
0.0
220
0.0
230
1.0
 70
     8
 71
     3
 72
     8
 73
     4
 74
     0
 42
0.0000000001
 43
0.0000000001
 40
17.0
 40
17.0
 40
17.0
 40
17.0
 40
18.0
 40
18.0
 40
18.0
 40
18.0
 10
226.9372734575574
 20
33.59733172362895
 30
0.0
 10
226.9376348483122
 20
33.59728383677012
 30
0.0
 10
226.9379111451524
 20
33.59695827503199
 30
0.0
 10
226.9378777277041
 20
33.59658758251323
 30
0.0
1001
ACAD
1000
RTTcAl
1070
-26105
1071
-1023410177
1000
$$NoName$$
  0
SPLINE
  5
1576
330
A
100
AcDbEntity
  8
001
370
    25
100
AcDbSpline
210
0.0
220
0.0
230
1.0
 70
    24
 71
     3
 72
     8
 73
     4
 74
     0
 42
0.0000000001
 43
0.0000000001
 40
18.0
 40
18.0
 40
18.0
 40
18.0
 40
19.0
 40
19.0
 40
19.0
 40
19.0
 10
226.9378777277041
 20
33.59658758251323
 30
0.0
 10
226.9378777277041
 20
33.59658758251323
 30
0.0
 10
226.9366812452528
 20
33.58523805245941
 30
0.0
 10
226.9366812452528
 20
33.58523805245941
 30
0.0
1001
ACAD
1000
RTTcAl
1070
-26105
1071
-1023410177
1000
$$NoName$$
  0
SPLINE
  5
1577
330
A
100
AcDbEntity
  8
001
370
    25
100
AcDbSpline
210
0.0
220
0.0
230
1.0
 70
     8
 71
     3
 72
     8
 73
     4
 74
     0
 42
0.0000000001
 43
0.0000000001
 40
19.0
 40
19.0
 40
19.0
 40
19.0
 40
20.0
 40
20.0
 40
20.0
 40
20.0
 10
226.9366812452528
 20
33.58523805245941
 30
0.0
 10
226.936607175651
 20
33.58454420977096
 30
0.0
 10
226.9360246096201
 20
33.58401090863802
 30
0.0
 10
226.9353311114414
 20
33.58401090863802
 30
0.0
1001
ACAD
1000
RTTcAl
1070
-26105
1071
-1023410177
1000
$$NoName$$
  0
SPLINE
  5
1578
330
A
100
AcDbEntity
  8
001
370
    25
100
AcDbSpline
210
0.0
220
0.0
230
1.0
 70
    24
 71
     3
 72
     8
 73
     4
 74
     0
 42
0.0000000001
 43
0.0000000001
 40
20.0
 40
20.0
 40
20.0
 40
20.0
 40
21.0
 40
21.0
 40
21.0
 40
21.0
 10
226.9353311114414
 20
33.58401090863802
 30
0.0
 10
226.9353311114414
 20
33.58401090863802
 30
0.0
 10
226.930557583988
 20
33.58401090863802
 30
0.0
 10
226.930557583988
 20
33.58401090863802
 30
0.0
1001
ACAD
1000
RTTcAl
1070
-26105
1071
-1023410177
1000
$$NoName$$
  0
SPLINE
  5
1579
330
A
100
AcDbEntity
  8
001
370
    25
100
AcDbSpline
210
0.0
220
0.0
230
1.0
 70
    24
 71
     3
 72
     8
 73
     4
 74
     0
 42
0.0000000001
 43
0.0000000001
 40
21.0
 40
21.0
 40
21.0
 40
21.0
 40
22.0
 40
22.0
 40
22.0
 40
22.0
 10
226.930557583988
 20
33.58401090863802
 30
0.0
 10
226.930557583988
 20
33.58401090863802
 30
0.0
 10
226.930353289691
 20
33.5806223104833
 30
0.0
 10
226.930353289691
 20
33.5806223104833
 30
0.0
1001
ACAD
1000
RTTcAl
1070
-26105
1071
-1023410177
1000
$$NoName$$
  0
SPLINE
  5
157A
330
A
100
AcDbEntity
  8
001
370
    25
100
AcDbSpline
210
0.0
220
0.0
230
1.0
 70
    24
 71
     3
 72
     8
 73
     4
 74
     0
 42
0.0000000001
 43
0.0000000001
 40
22.0
 40
22.0
 40
22.0
 40
22.0
 40
23.0
 40
23.0
 40
23.0
 40
23.0
 10
226.930353289691
 20
33.5806223104833
 30
0.0
 10
226.930353289691
 20
33.5806223104833
 30
0.0
 10
226.8560917959497
 20
33.5806223104833
 30
0.0
 10
226.8560917959497
 20
33.5806223104833
 30
0.0
1001
ACAD
1000
RTTcAl
1070
-26105
1071
-1023410177
1000
$$NoName$$
  0
SPLINE
  5
157B
330
A
100
AcDbEntity
  8
001
370
    25
100
AcDbSpline
210
0.0
220
0.0
230
1.0
 70
    24
 71
     3
 72
     8
 73
     4
 74
     0
 42
0.0000000001
 43
0.0000000001
 40
23.0
 40
23.0
 40
23.0
 40
23.0
 40
24.0
 40
24.0
 40
24.0
 40
24.0
 10
226.8560917959497
 20
33.5806223104833
 30
0.0
 10
226.8560917959497
 20
33.5806223104833
 30
0.0
 10
226.8560383969344
 20
33.58401090863802
 30
0.0
 10
226.8560383969344
 20
33.58401090863802
 30
0.0
1001
ACAD
1000
RTTcAl
1070
-26105
1071
-1023410177
1000
$$NoName$$
  0
SPLINE
  5
157C
330
A
100
AcDbEntity
  8
001
370
    25
100
AcDbSpline
210
0.0
220
0.0
230
1.0
 70
    24
 71
     3
 72
     8
 73
     4
 74
     0
 42
0.0000000001
 43
0.0000000001
 40
24.0
 40
24.0
 40
24.0
 40
24.0
 40
25.0
 40
25.0
 40
25.0
 40
25.0
 10
226.8560383969344
 20
33.58401090863802
 30
0.0
 10
226.8560383969344
 20
33.58401090863802
 30
0.0
 10
226.8424591996117
 20
33.58401090863802
 30
0.0
 10
226.8424591996117
 20
33.58401090863802
 30
0.0
1001
ACAD
1000
RTTcAl
1070
-26105
1071
-1023410177
1000
$$NoName$$
  0
SPLINE
  5
157D
330
A
100
AcDbEntity
  8
001
370
    25
100
AcDbSpline
210
0.0
220
0.0
230
1.0
 70
    24
 71
     3
 72
     8
 73
     4
 74
     0
 42
0.0000000001
 43
0.0000000001
 40
25.0
 40
25.0
 40
25.0
 40
25.0
 40
26.0
 40
26.0
 40
26.0
 40
26.0
 10
226.8424591996117
 20
33.58401090863802
 30
0.0
 10
226.8424591996117
 20
33.58401090863802
 30
0.0
 10
226.8423937427543
 20
33.5806223104833
 30
0.0
 10
226.8423937427543
 20
33.5806223104833
 30
0.0
1001
ACAD
1000
RTTcAl
1070
-26105
1071
-1023410177
1000
$$NoName$$
  0
SPLINE
  5
157E
330
A
100
AcDbEntity
  8
001
370
    25
100
AcDbSpline
210
0.0
220
0.0
230
1.0
 70
    24
 71
     3
 72
     8
 73
     4
 74
     0
 42
0.0000000001
 43
0.0000000001
 40
26.0
 40
26.0
 40
26.0
 40
26.0
 40
27.0
 40
27.0
 40
27.0
 40
27.0
 10
226.8423937427543
 20
33.5806223104833
 30
0.0
 10
226.8423937427543
 20
33.5806223104833
 30
0.0
 10
226.7681374166596
 20
33.5806223104833
 30
0.0
 10
226.7681374166596
 20
33.5806223104833
 30
0.0
1001
ACAD
1000
RTTcAl
1070
-26105
1071
-1023410177
1000
$$NoName$$
  0
SPLINE
  5
157F
330
A
100
AcDbEntity
  8
001
370
    25
100
AcDbSpline
210
0.0
220
0.0
230
1.0
 70
    24
 71
     3
 72
     8
 73
     4
 74
     0
 42
0.0000000001
 43
0.0000000001
 40
27.0
 40
27.0
 40
27.0
 40
27.0
 40
28.0
 40
28.0
 40
28.0
 40
28.0
 10
226.7681374166596
 20
33.5806223104833
 30
0.0
 10
226.7681374166596
 20
33.5806223104833
 30
0.0
 10
226.7679327778528
 20
33.5840512162818
 30
0.0
 10
226.7679327778528
 20
33.5840512162818
 30
0.0
1001
ACAD
1000
RTTcAl
1070
-26105
1071
-1023410177
1000
$$NoName$$
  0
SPLINE
  5
1580
330
A
100
AcDbEntity
  8
001
370
    25
100
AcDbSpline
210
0.0
220
0.0
230
1.0
 70
    24
 71
     3
 72
     8
 73
     4
 74
     0
 42
0.0000000001
 43
0.0000000001
 40
28.0
 40
28.0
 40
28.0
 40
28.0
 40
29.0
 40
29.0
 40
29.0
 40
29.0
 10
226.7679327778528
 20
33.5840512162818
 30
0.0
 10
226.7679327778528
 20
33.5840512162818
 30
0.0
 10
226.7631623509874
 20
33.58401090863802
 30
0.0
 10
226.7631623509874
 20
33.58401090863802
 30
0.0
1001
ACAD
1000
RTTcAl
1070
-26105
1071
-1023410177
1000
$$NoName$$
  0
SPLINE
  5
1581
330
A
100
AcDbEntity
  8
001
370
    25
100
AcDbSpline
210
0.0
220
0.0
230
1.0
 70
     8
 71
     3
 72
     8
 73
     4
 74
     0
 42
0.0000000001
 43
0.0000000001
 40
29.0
 40
29.0
 40
29.0
 40
29.0
 40
30.0
 40
30.0
 40
30.0
 40
30.0
 10
226.7631623509874
 20
33.58401090863802
 30
0.0
 10
226.7624647186914
 20
33.58401090863802
 30
0.0
 10
226.7618804301116
 20
33.58454420977096
 30
0.0
 10
226.7618053269806
 20
33.58523805245941
 30
0.0
1001
ACAD
1000
RTTcAl
1070
-26105
1071
-1023410177
1000
$$NoName$$
  0
SPLINE
  5
1582
330
A
100
AcDbEntity
  8
001
370
    25
100
AcDbSpline
210
0.0
220
0.0
230
1.0
 70
    24
 71
     3
 72
     8
 73
     4
 74
     0
 42
0.0000000001
 43
0.0000000001
 40
30.0
 40
30.0
 40
30.0
 40
30.0
 40
31.0
 40
31.0
 40
31.0
 40
31.0
 10
226.7618053269806
 20
33.58523805245941
 30
0.0
 10
226.7618053269806
 20
33.58523805245941
 30
0.0
 10
226.7606126341367
 20
33.59658758251323
 30
0.0
 10
226.7606126341367
 20
33.59658758251323
 30
0.0
1001
ACAD
1000
RTTcAl
1070
-26105
1071
-1023410177
1000
$$NoName$$
  0
SPLINE
  5
1583
330
A
100
AcDbEntity
  8
001
370
    25
100
AcDbSpline
210
0.0
220
0.0
230
1.0
 70
     8
 71
     3
 72
    11
 73
     7
 74
     0
 42
0.0000000001
 43
0.0000000001
 40
31.0
 40
31.0
 40
31.0
 40
31.0
 40
32.0
 40
32.0
 40
32.0
 40
33.0
 40
33.0
 40
33.0
 40
33.0
 10
226.7606126341367
 20
33.59658758251323
 30
0.0
 10
226.7606126341367
 20
33.59660170741404
 30
0.0
 10
226.7606078109998
 20
33.59662513407879
 30
0.0
 10
226.7606078109998
 20
33.59665097231198
 30
0.0
 10
226.7606078109998
 20
33.5970264879676
 30
0.0
 10
226.7609147692101
 20
33.59733172362895
 30
0.0
 10
226.7612878732973
 20
33.59733172362895
 30
0.0
1001
ACAD
1000
RTTcAl
1070
-26105
1071
-1023410177
1000
$$NoName$$
  0
SPLINE
  5
1584
330
A
100
AcDbEntity
  8
001
370
    25
100
AcDbSpline
210
0.0
220
0.0
230
1.0
 70
    24
 71
     3
 72
     8
 73
     4
 74
     0
 42
0.0000000001
 43
0.0000000001
 40
33.0
 40
33.0
 40
33.0
 40
33.0
 40
34.0
 40
34.0
 40
34.0
 40
34.0
 10
226.7612878732973
 20
33.59733172362895
 30
0.0
 10
226.7612878732973
 20
33.59733172362895
 30
0.0
 10
226.762823353368
 20
33.59733172362895
 30
0.0
 10
226.762823353368
 20
33.59733172362895
 30
0.0
1001
ACAD
1000
RTTcAl
1070
-26105
1071
-1023410177
1000
$$NoName$$
  0
SPLINE
  5
1585
330
A
100
AcDbEntity
  8
001
370
    25
100
AcDbSpline
210
0.0
220
0.0
230
1.0
 70
    24
 71
     3
 72
     8
 73
     4
 74
     0
 42
0.0000000001
 43
0.0000000001
 40
34.0
 40
34.0
 40
34.0
 40
34.0
 40
35.0
 40
35.0
 40
35.0
 40
35.0
 10
226.762823353368
 20
33.59733172362895
 30
0.0
 10
226.762823353368
 20
33.59733172362895
 30
0.0
 10
226.762823353368
 20
33.59949731207961
 30
0.0
 10
226.762823353368
 20
33.59949731207961
 30
0.0
1001
ACAD
1000
RTTcAl
1070
-26105
1071
-1023410177
1000
$$NoName$$
  0
SPLINE
  5
1586
330
A
100
AcDbEntity
  8
001
370
    25
100
AcDbSpline
210
0.0
220
0.0
230
1.0
 70
    24
 71
     3
 72
     8
 73
     4
 74
     0
 42
0.0000000001
 43
0.0000000001
 40
35.0
 40
35.0
 40
35.0
 40
35.0
 40
36.0
 40
36.0
 40
36.0
 40
36.0
 10
226.762823353368
 20
33.59949731207961
 30
0.0
 10
226.762823353368
 20
33.59949731207961
 30
0.0
 10
226.7605351194372
 20
33.59949731207961
 30
0.0
 10
226.7605351194372
 20
33.59949731207961
 30
0.0
1001
ACAD
1000
RTTcAl
1070
-26105
1071
-1023410177
1000
$$NoName$$
  0
SPLINE
  5
1587
330
A
100
AcDbEntity
  8
001
370
    25
100
AcDbSpline
210
0.0
220
0.0
230
1.0
 70
    24
 71
     3
 72
     8
 73
     4
 74
     0
 42
0.0000000001
 43
0.0000000001
 40
36.0
 40
36.0
 40
36.0
 40
36.0
 40
37.0
 40
37.0
 40
37.0
 40
37.0
 10
226.7605351194372
 20
33.59949731207961
 30
0.0
 10
226.7605351194372
 20
33.59949731207961
 30
0.0
 10
226.7616244593482
 20
33.61742870140001
 30
0.0
 10
226.7616244593482
 20
33.61742870140001
 30
0.0
1001
ACAD
1000
RTTcAl
1070
-26105
1071
-1023410177
1000
$$NoName$$
  0
SPLINE
  5
1588
330
A
100
AcDbEntity
  8
001
370
    25
100
AcDbSpline
210
0.0
220
0.0
230
1.0
 70
    24
 71
     3
 72
     8
 73
     4
 74
     0
 42
0.0000000001
 43
0.0000000001
 40
37.0
 40
37.0
 40
37.0
 40
37.0
 40
38.0
 40
38.0
 40
38.0
 40
38.0
 10
226.7616244593482
 20
33.61742870140001
 30
0.0
 10
226.7616244593482
 20
33.61742870140001
 30
0.0
 10
226.7616244593482
 20
33.6174786553175
 30
0.0
 10
226.7616244593482
 20
33.6174786553175
 30
0.0
1001
ACAD
1000
RTTcAl
1070
-26105
1071
-1023410177
1000
$$NoName$$
  0
LINE
  5
1589
330
A
100
AcDbEntity
  8
001
370
     9
100
AcDbLine
 10
226.8723378434469
 20
33.68129116755886
 30
0.0
 11
226.8723378434469
 21
33.7000462797532
 31
0.0
1001
ACAD
1000
RTTcAl
1070
-26105
1071
-1023410177
1000
$$NoName$$
  0
LINE
  5
158A
330
A
100
AcDbEntity
  8
001
370
     9
100
AcDbLine
 10
226.8261490732962
 20
33.68129116755886
 30
0.0
 11
226.8261490732962
 21
33.7000462797532
 31
0.0
1001
ACAD
1000
RTTcAl
1070
-26105
1071
-1023410177
1000
$$NoName$$
  0
SPLINE
  5
158B
330
A
100
AcDbEntity
  8
001
370
     9
100
AcDbSpline
210
0.0
220
0.0
230
1.0
 70
     8
 71
     3
 72
     8
 73
     4
 74
     0
 42
0.0000000001
 43
0.0000000001
 40
0.0
 40
0.0
 40
0.0
 40
0.0
 40
1.0
 40
1.0
 40
1.0
 40
1.0
 10
226.8723378434469
 20
33.70004524622387
 30
0.0
 10
226.8723378434469
 20
33.7051460579643
 30
0.0
 10
226.8694770342687
 20
33.70982105562186
 30
0.0
 10
226.8649319167966
 20
33.71213650582498
 30
0.0
1001
ACAD
1000
RTTcAl
1070
-26105
1071
-1023410177
1000
$$NoName$$
  0
SPLINE
  5
158C
330
A
100
AcDbEntity
  8
001
370
     9
100
AcDbSpline
210
0.0
220
0.0
230
1.0
 70
     8
 71
     3
 72
     8
 73
     4
 74
     0
 42
0.0000000001
 43
0.0000000001
 40
1.0
 40
1.0
 40
1.0
 40
1.0
 40
2.0
 40
2.0
 40
2.0
 40
2.0
 10
226.8649319167966
 20
33.71213650582498
 30
0.0
 10
226.8550806597577
 20
33.71718081796219
 30
0.0
 10
226.8434066014951
 20
33.71718081796219
 30
0.0
 10
226.8335518993584
 20
33.71213650582498
 30
0.0
1001
ACAD
1000
RTTcAl
1070
-26105
1071
-1023410177
1000
$$NoName$$
  0
SPLINE
  5
158D
330
A
100
AcDbEntity
  8
001
370
     9
100
AcDbSpline
210
0.0
220
0.0
230
1.0
 70
     8
 71
     3
 72
     8
 73
     4
 74
     0
 42
0.0000000001
 43
0.0000000001
 40
2.0
 40
2.0
 40
2.0
 40
2.0
 40
3.0
 40
3.0
 40
3.0
 40
3.0
 10
226.8335518993584
 20
33.71213650582498
 30
0.0
 10
226.8290109160037
 20
33.70982105562186
 30
0.0
 10
226.8261483842766
 20
33.7051460579643
 30
0.0
 10
226.8261483842766
 20
33.70004524622387
 30
0.0
1001
ACAD
1000
RTTcAl
1070
-26105
1071
-1023410177
1000
$$NoName$$
  0
SPLINE
  5
158E
330
A
100
AcDbEntity
  8
001
370
     9
100
AcDbSpline
210
0.0
220
0.0
230
1.0
 70
     8
 71
     3
 72
     8
 73
     4
 74
     0
 42
0.0000000001
 43
0.0000000001
 40
0.0
 40
0.0
 40
0.0
 40
0.0
 40
1.0
 40
1.0
 40
1.0
 40
1.0
 10
226.8723378434469
 20
33.69768397622056
 30
0.0
 10
226.8723378434469
 20
33.7027747971775
 30
0.0
 10
226.8694770342687
 20
33.70744945032527
 30
0.0
 10
226.8649319167966
 20
33.70977420229235
 30
0.0
1001
ACAD
1000
RTTcAl
1070
-26105
1071
-1023410177
1000
$$NoName$$
  0
SPLINE
  5
158F
330
A
100
AcDbEntity
  8
001
370
     9
100
AcDbSpline
210
0.0
220
0.0
230
1.0
 70
     8
 71
     3
 72
     8
 73
     4
 74
     0
 42
0.0000000001
 43
0.0000000001
 40
1.0
 40
1.0
 40
1.0
 40
1.0
 40
2.0
 40
2.0
 40
2.0
 40
2.0
 10
226.8649319167966
 20
33.70977420229235
 30
0.0
 10
226.8550806597577
 20
33.71481300227314
 30
0.0
 10
226.8434066014951
 20
33.71481300227314
 30
0.0
 10
226.8335518993584
 20
33.70977420229235
 30
0.0
1001
ACAD
1000
RTTcAl
1070
-26105
1071
-1023410177
1000
$$NoName$$
  0
SPLINE
  5
1590
330
A
100
AcDbEntity
  8
001
370
     9
100
AcDbSpline
210
0.0
220
0.0
230
1.0
 70
     8
 71
     3
 72
     8
 73
     4
 74
     0
 42
0.0000000001
 43
0.0000000001
 40
2.0
 40
2.0
 40
2.0
 40
2.0
 40
3.0
 40
3.0
 40
3.0
 40
3.0
 10
226.8335518993584
 20
33.70977420229235
 30
0.0
 10
226.8290109160037
 20
33.70744945032527
 30
0.0
 10
226.8261483842766
 20
33.7027747971775
 30
0.0
 10
226.8261483842766
 20
33.69768397622056
 30
0.0
1001
ACAD
1000
RTTcAl
1070
-26105
1071
-1023410177
1000
$$NoName$$
  0
LINE
  5
1591
330
A
100
AcDbEntity
  8
001
370
     9
100
AcDbLine
 10
226.9025430825496
 20
33.93594347070403
 30
0.0
 11
226.9568646949776
 21
33.93594347070403
 31
0.0
1001
ACAD
1000
RTTcAl
1070
-26105
1071
-1023410177
1000
$$NoName$$
  0
LINE
  5
1592
330
A
100
AcDbEntity
  8
001
370
     9
100
AcDbLine
 10
226.9317240940889
 20
33.58089998536259
 30
0.0
 11
226.9545120377186
 21
33.58089998536259
 31
0.0
1001
ACAD
1000
RTTcAl
1070
-26105
1071
-1023410177
1000
$$NoName$$
  0
LINE
  5
1593
330
A
100
AcDbEntity
  8
001
370
     9
100
AcDbLine
 10
226.9370178313037
 20
33.59949662306005
 30
0.0
 11
226.9545116932089
 21
33.59949662306005
 31
0.0
1001
ACAD
1000
RTTcAl
1070
-26105
1071
-1023410177
1000
$$NoName$$
  0
LINE
  5
1594
330
A
100
AcDbEntity
  8
001
370
     9
100
AcDbLine
 10
226.9185193788924
 20
33.65003482913023
 30
0.0
 11
226.9545020469351
 21
33.65003482913023
 31
0.0
1001
ACAD
1000
RTTcAl
1070
-26105
1071
-1023410177
1000
$$NoName$$
  0
LINE
  5
1595
330
A
100
AcDbEntity
  8
001
370
     9
100
AcDbLine
 10
226.8505989320844
 20
33.71931161092549
 30
0.0
 11
226.9545017024253
 21
33.71931161092549
 31
0.0
1001
ACAD
1000
RTTcAl
1070
-26105
1071
-1023410177
1000
$$NoName$$
  0
LINE
  5
1596
330
A
100
AcDbEntity
  8
001
  6
AI-Linetype-1
370
     9
100
AcDbLine
 10
226.8498086266587
 20
33.97309747198452
 30
0.0
 11
226.8498086266587
 21
33.7958768201782
 31
0.0
1001
ACAD
1000
RTTcAl
1070
-26105
1071
-1023410177
1000
$$NoName$$
  0
LINE
  5
1597
330
A
100
AcDbEntity
  8
001
  6
AI-Linetype-2
370
     9
100
AcDbLine
 10
226.8492446641558
 20
33.72546937865806
 30
0.0
 11
226.8492446641558
 21
33.57362187183912
 31
0.0
1001
ACAD
1000
RTTcAl
1070
-25862
1071
-1037953260
1000
$$NoName$$
  0
LINE
  5
1598
330
A
100
AcDbEntity
  8
001
  6
AI-Linetype-3
370
     9
100
AcDbLine
 10
226.9378670479011
 20
33.88456121568316
 30
0.0
 11
226.7619031677568
 21
33.88456121568316
 31
0.0
1001
ACAD
1000
RTTcAl
1070
-26105
1071
-1023410177
1000
$$NoName$$
  0
LINE
  5
1599
330
A
100
AcDbEntity
  8
001
370
     9
100
AcDbLine
 10
226.9353307669316
 20
33.5840112531478
 30
0.0
 11
226.7631609729483
 21
33.5840112531478
 31
0.0
1001
ACAD
1000
RTTcAl
1070
-26105
1071
-1023410177
1000
$$NoName$$
  0
LINE
  5
159A
330
A
100
AcDbEntity
  8
001
370
     9
100
AcDbLine
 10
226.9371983544262
 20
33.59733172362895
 30
0.0
 11
226.7612871842777
 21
33.59733172362895
 31
0.0
1001
ACAD
1000
RTTcAl
1070
-26105
1071
-1023410177
1000
$$NoName$$
  0
LINE
  5
159B
330
A
100
AcDbEntity
  8
001
370
     9
100
AcDbLine
 10
226.8526391189766
 20
33.5840112531478
 30
0.0
 11
226.8458409075709
 21
33.5840112531478
 31
0.0
1001
ACAD
1000
RTTcAl
1070
-25862
1071
-1037953260
1000
$$NoName$$
  0
LINE
  5
159C
330
A
100
AcDbEntity
  8
001
370
     9
100
AcDbLine
 10
226.8526391189766
 20
33.5840112531478
 30
0.0
 11
226.8526391189766
 21
33.5840112531478
 31
0.0
1001
ACAD
1000
RTTcAl
1070
-25862
1071
-1037953260
1000
$$NoName$$
  0
LINE
  5
159D
330
A
100
AcDbEntity
  8
001
370
     9
100
AcDbLine
 10
226.8458460752175
 20
33.5840112531478
 30
0.0
 11
226.8458460752175
 21
33.5840112531478
 31
0.0
1001
ACAD
1000
RTTcAl
1070
-25862
1071
-1037953260
1000
$$NoName$$
  0
LINE
  5
159E
330
A
100
AcDbEntity
  8
001
370
     9
100
AcDbLine
 10
226.8458460752175
 20
33.5840112531478
 30
0.0
 11
226.8424595441214
 21
33.5840112531478
 31
0.0
1001
ACAD
1000
RTTcAl
1070
-25862
1071
-1037953260
1000
$$NoName$$
  0
LINE
  5
159F
330
A
100
AcDbEntity
  8
001
370
     9
100
AcDbLine
 10
226.7807481970027
 20
33.65003517364
 30
0.0
 11
226.9177345856231
 21
33.65003482913023
 31
0.0
1001
ACAD
1000
RTTcAl
1070
-26105
1071
-1023410177
1000
$$NoName$$
  0
LINE
  5
15A0
330
A
100
AcDbEntity
  8
001
370
     9
100
AcDbLine
 10
226.8492446641558
 20
33.59733172362895
 30
0.0
 11
226.935662185336
 21
33.59733172362895
 31
0.0
1001
ACAD
1000
RTTcAl
1070
-26105
1071
-1023410177
1000
$$NoName$$
  0
LINE
  5
15A1
330
A
100
AcDbEntity
  8
001
370
     9
100
AcDbLine
 10
226.7605347749274
 20
33.59949731207961
 30
0.0
 11
226.9379524863254
 21
33.59949662306005
 31
0.0
1001
ACAD
1000
RTTcAl
1070
-26105
1071
-1023410177
1000
$$NoName$$
  0
LINE
  5
15A2
330
A
100
AcDbEntity
  8
001
370
     9
100
AcDbLine
 10
226.762823353368
 20
33.59733172362895
 30
0.0
 11
226.8492446641558
 21
33.59733172362895
 31
0.0
1001
ACAD
1000
RTTcAl
1070
-26105
1071
-1023410177
1000
$$NoName$$
  0
LINE
  5
15A3
330
A
100
AcDbEntity
  8
001
370
     9
100
AcDbLine
 10
226.8492446641558
 20
33.60356872860996
 30
0.0
 11
226.8472068888319
 21
33.59950558031423
 31
0.0
1001
ACAD
1000
RTTcAl
1070
-26105
1071
-1023410177
1000
$$NoName$$
  0
LINE
  5
15A4
330
A
100
AcDbEntity
  8
001
370
     9
100
AcDbLine
 10
226.8512779608525
 20
33.59949731207961
 30
0.0
 11
226.8492439751362
 21
33.60356872860996
 31
0.0
1001
ACAD
1000
RTTcAl
1070
-26105
1071
-1023410177
1000
$$NoName$$
  0
LINE
  5
15A5
330
A
100
AcDbEntity
  8
001
370
     9
100
AcDbLine
 10
226.8594362968531
 20
33.59733172362895
 30
0.0
 11
226.8594362968531
 21
33.59949627855028
 31
0.0
1001
ACAD
1000
RTTcAl
1070
-26105
1071
-1023410177
1000
$$NoName$$
  0
LINE
  5
15A6
330
A
100
AcDbEntity
  8
001
370
     9
100
AcDbLine
 10
226.8390557875366
 20
33.59949731207961
 30
0.0
 11
226.8390509643997
 21
33.59733172362895
 31
0.0
1001
ACAD
1000
RTTcAl
1070
-26105
1071
-1023410177
1000
$$NoName$$
  0
LINE
  5
15A7
330
A
100
AcDbEntity
  8
001
370
     9
100
AcDbLine
 10
226.8472061998124
 20
33.59949731207961
 30
0.0
 11
226.8512779608525
 21
33.59949731207961
 31
0.0
1001
ACAD
1000
RTTcAl
1070
-26105
1071
-1023410177
1000
$$NoName$$
  0
SPLINE
  5
15A8
330
A
100
AcDbEntity
  8
001
370
     9
100
AcDbSpline
210
0.0
220
0.0
230
1.0
 70
    24
 71
     3
 72
     8
 73
     4
 74
     0
 42
0.0000000001
 43
0.0000000001
 40
0.0
 40
0.0
 40
0.0
 40
0.0
 40
1.0
 40
1.0
 40
1.0
 40
1.0
 10
226.9136311296836
 20
33.65006721304915
 30
0.0
 10
226.9136311296836
 20
33.65006721304915
 30
0.0
 10
226.9136311296836
 20
33.6513901305882
 30
0.0
 10
226.9136311296836
 20
33.6513901305882
 30
0.0
1001
ACAD
1000
RTTcAl
1070
-26105
1071
-1023410177
1000
$$NoName$$
  0
SPLINE
  5
15A9
330
A
100
AcDbEntity
  8
001
370
     9
100
AcDbSpline
210
0.0
220
0.0
230
1.0
 70
     8
 71
     3
 72
    11
 73
     7
 74
     0
 42
0.0000000001
 43
0.0000000001
 40
1.0
 40
1.0
 40
1.0
 40
1.0
 40
2.0
 40
2.0
 40
2.0
 40
3.0
 40
3.0
 40
3.0
 40
3.0
 10
226.9136311296836
 20
33.6513901305882
 30
0.0
 10
226.9136311296836
 20
33.68689048494488
 30
0.0
 10
226.8847453630222
 20
33.71576763886187
 30
0.0
 10
226.8492446641558
 20
33.71576763886187
 30
0.0
 10
226.8137456878382
 20
33.71576763886187
 30
0.0
 10
226.7848712899994
 20
33.68689117396443
 30
0.0
 10
226.7848712899994
 20
33.6513901305882
 30
0.0
1001
ACAD
1000
RTTcAl
1070
-26105
1071
-1023410177
1000
$$NoName$$
  0
SPLINE
  5
15AA
330
A
100
AcDbEntity
  8
001
370
     9
100
AcDbSpline
210
0.0
220
0.0
230
1.0
 70
    24
 71
     3
 72
     8
 73
     4
 74
     0
 42
0.0000000001
 43
0.0000000001
 40
3.0
 40
3.0
 40
3.0
 40
3.0
 40
4.0
 40
4.0
 40
4.0
 40
4.0
 10
226.7848712899994
 20
33.6513901305882
 30
0.0
 10
226.7848712899994
 20
33.6513901305882
 30
0.0
 10
226.7848712899994
 20
33.6502542818574
 30
0.0
 10
226.7848712899994
 20
33.6502542818574
 30
0.0
1001
ACAD
1000
RTTcAl
1070
-26105
1071
-1023410177
1000
$$NoName$$
  0
SPLINE
  5
15AB
330
A
100
AcDbEntity
  8
001
370
    25
100
AcDbSpline
210
0.0
220
0.0
230
1.0
 70
     8
 71
     3
 72
     8
 73
     4
 74
     0
 42
0.0000000001
 43
0.0000000001
 40
0.0
 40
0.0
 40
0.0
 40
0.0
 40
1.0
 40
1.0
 40
1.0
 40
1.0
 10
227.0341156065176
 20
33.6174786553175
 30
0.0
 10
227.0353455064172
 20
33.62752490488949
 30
0.0
 10
227.0383234489192
 20
33.63726557429034
 30
0.0
 10
227.0428957826636
 20
33.64629069688687
 30
0.0
1001
ACAD
1000
RTTcAl
1070
-26105
1071
-1023410177
1000
$$NoName$$
  0
SPLINE
  5
15AC
330
A
100
AcDbEntity
  8
001
370
    25
100
AcDbSpline
210
0.0
220
0.0
230
1.0
 70
    24
 71
     3
 72
     8
 73
     4
 74
     0
 42
0.0000000001
 43
0.0000000001
 40
1.0
 40
1.0
 40
1.0
 40
1.0
 40
2.0
 40
2.0
 40
2.0
 40
2.0
 10
227.0428957826636
 20
33.64629069688687
 30
0.0
 10
227.0428957826636
 20
33.64629069688687
 30
0.0
 10
227.0434580226177
 20
33.64686361664402
 30
0.0
 10
227.0434580226177
 20
33.64686361664402
 30
0.0
1001
ACAD
1000
RTTcAl
1070
-26105
1071
-1023410177
1000
$$NoName$$
  0
SPLINE
  5
15AD
330
A
100
AcDbEntity
  8
001
370
    25
100
AcDbSpline
210
0.0
220
0.0
230
1.0
 70
     8
 71
     3
 72
     8
 73
     4
 74
     0
 42
0.0000000001
 43
0.0000000001
 40
2.0
 40
2.0
 40
2.0
 40
2.0
 40
3.0
 40
3.0
 40
3.0
 40
3.0
 10
227.0434580226177
 20
33.64686361664402
 30
0.0
 10
227.0464828184492
 20
33.64854447984013
 30
0.0
 10
227.0498032036683
 20
33.64962451798725
 30
0.0
 10
227.0532503684849
 20
33.65003482913023
 30
0.0
1001
ACAD
1000
RTTcAl
1070
-26105
1071
-1023410177
1000
$$NoName$$
  0
SPLINE
  5
15AE
330
A
100
AcDbEntity
  8
001
370
    25
100
AcDbSpline
210
0.0
220
0.0
230
1.0
 70
    24
 71
     3
 72
     8
 73
     4
 74
     0
 42
0.0000000001
 43
0.0000000001
 40
3.0
 40
3.0
 40
3.0
 40
3.0
 40
4.0
 40
4.0
 40
4.0
 40
4.0
 10
227.0532503684849
 20
33.65003482913023
 30
0.0
 10
227.0532503684849
 20
33.65003482913023
 30
0.0
 10
227.0538194986345
 20
33.65003482913023
 30
0.0
 10
227.0538194986345
 20
33.65003482913023
 30
0.0
1001
ACAD
1000
RTTcAl
1070
-26105
1071
-1023410177
1000
$$NoName$$
  0
SPLINE
  5
15AF
330
A
100
AcDbEntity
  8
001
370
    25
100
AcDbSpline
210
0.0
220
0.0
230
1.0
 70
    24
 71
     3
 72
     8
 73
     4
 74
     0
 42
0.0000000001
 43
0.0000000001
 40
4.0
 40
4.0
 40
4.0
 40
4.0
 40
5.0
 40
5.0
 40
5.0
 40
5.0
 10
227.0538194986345
 20
33.65003482913023
 30
0.0
 10
227.0538194986345
 20
33.65003482913023
 30
0.0
 10
227.0538194986345
 20
33.6513901305882
 30
0.0
 10
227.0538194986345
 20
33.6513901305882
 30
0.0
1001
ACAD
1000
RTTcAl
1070
-26105
1071
-1023410177
1000
$$NoName$$
  0
SPLINE
  5
15B0
330
A
100
AcDbEntity
  8
001
370
    25
100
AcDbSpline
210
0.0
220
0.0
230
1.0
 70
     8
 71
     3
 72
    11
 73
     7
 74
     0
 42
0.0000000001
 43
0.0000000001
 40
5.0
 40
5.0
 40
5.0
 40
5.0
 40
6.0
 40
6.0
 40
6.0
 40
7.0
 40
7.0
 40
7.0
 40
7.0
 10
227.0538194986345
 20
33.6513901305882
 30
0.0
 10
227.0538194986345
 20
33.68890069948665
 30
0.0
 10
227.084229376544
 20
33.71931505602324
 30
0.0
 10
227.1217382228936
 20
33.71931505602324
 30
0.0
 10
227.15925189238
 20
33.71931505602324
 30
0.0
 10
227.1896659044068
 20
33.68890069948665
 30
0.0
 10
227.1896659044068
 20
33.6513901305882
 30
0.0
1001
ACAD
1000
RTTcAl
1070
-26105
1071
-1023410177
1000
$$NoName$$
  0
SPLINE
  5
15B1
330
A
100
AcDbEntity
  8
001
370
    25
100
AcDbSpline
210
0.0
220
0.0
230
1.0
 70
    24
 71
     3
 72
     8
 73
     4
 74
     0
 42
0.0000000001
 43
0.0000000001
 40
7.0
 40
7.0
 40
7.0
 40
7.0
 40
8.0
 40
8.0
 40
8.0
 40
8.0
 10
227.1896659044068
 20
33.6513901305882
 30
0.0
 10
227.1896659044068
 20
33.6513901305882
 30
0.0
 10
227.1896659044068
 20
33.65003482913023
 30
0.0
 10
227.1896659044068
 20
33.65003482913023
 30
0.0
1001
ACAD
1000
RTTcAl
1070
-26105
1071
-1023410177
1000
$$NoName$$
  0
SPLINE
  5
15B2
330
A
100
AcDbEntity
  8
001
370
    25
100
AcDbSpline
210
0.0
220
0.0
230
1.0
 70
    24
 71
     3
 72
     8
 73
     4
 74
     0
 42
0.0000000001
 43
0.0000000001
 40
8.0
 40
8.0
 40
8.0
 40
8.0
 40
9.0
 40
9.0
 40
9.0
 40
9.0
 10
227.1896659044068
 20
33.65003482913023
 30
0.0
 10
227.1896659044068
 20
33.65003482913023
 30
0.0
 10
227.1902322784782
 20
33.65003482913023
 30
0.0
 10
227.1902322784782
 20
33.65003482913023
 30
0.0
1001
ACAD
1000
RTTcAl
1070
-26105
1071
-1023410177
1000
$$NoName$$
  0
SPLINE
  5
15B3
330
A
100
AcDbEntity
  8
001
370
    25
100
AcDbSpline
210
0.0
220
0.0
230
1.0
 70
     8
 71
     3
 72
     8
 73
     4
 74
     0
 42
0.0000000001
 43
0.0000000001
 40
9.0
 40
9.0
 40
9.0
 40
9.0
 40
10.0
 40
10.0
 40
10.0
 40
10.0
 10
227.1902322784782
 20
33.65003482913023
 30
0.0
 10
227.1936718640798
 20
33.64962451798725
 30
0.0
 10
227.1969984504749
 20
33.64854447984013
 30
0.0
 10
227.2000328925801
 20
33.64686361664402
 30
0.0
1001
ACAD
1000
RTTcAl
1070
-26105
1071
-1023410177
1000
$$NoName$$
  0
SPLINE
  5
15B4
330
A
100
AcDbEntity
  8
001
370
    25
100
AcDbSpline
210
0.0
220
0.0
230
1.0
 70
    24
 71
     3
 72
     8
 73
     4
 74
     0
 42
0.0000000001
 43
0.0000000001
 40
10.0
 40
10.0
 40
10.0
 40
10.0
 40
11.0
 40
11.0
 40
11.0
 40
11.0
 10
227.2000328925801
 20
33.64686361664402
 30
0.0
 10
227.2000328925801
 20
33.64686361664402
 30
0.0
 10
227.2005765290063
 20
33.64629069688687
 30
0.0
 10
227.2005765290063
 20
33.64629069688687
 30
0.0
1001
ACAD
1000
RTTcAl
1070
-26105
1071
-1023410177
1000
$$NoName$$
  0
SPLINE
  5
15B5
330
A
100
AcDbEntity
  8
001
370
    25
100
AcDbSpline
210
0.0
220
0.0
230
1.0
 70
     8
 71
     3
 72
     8
 73
     4
 74
     0
 42
0.0000000001
 43
0.0000000001
 40
11.0
 40
11.0
 40
11.0
 40
11.0
 40
12.0
 40
12.0
 40
12.0
 40
12.0
 10
227.2005765290063
 20
33.64629069688687
 30
0.0
 10
227.2051557529461
 20
33.63726557429034
 30
0.0
 10
227.2081268052526
 20
33.62752490488949
 30
0.0
 10
227.2093587722109
 20
33.6174786553175
 30
0.0
1001
ACAD
1000
RTTcAl
1070
-26105
1071
-1023410177
1000
$$NoName$$
  0
SPLINE
  5
15B6
330
A
100
AcDbEntity
  8
001
370
    25
100
AcDbSpline
210
0.0
220
0.0
230
1.0
 70
    24
 71
     3
 72
     8
 73
     4
 74
     0
 42
0.0000000001
 43
0.0000000001
 40
12.0
 40
12.0
 40
12.0
 40
12.0
 40
13.0
 40
13.0
 40
13.0
 40
13.0
 10
227.2093587722109
 20
33.6174786553175
 30
0.0
 10
227.2093587722109
 20
33.6174786553175
 30
0.0
 10
227.2093587722109
 20
33.61742870140001
 30
0.0
 10
227.2093587722109
 20
33.61742870140001
 30
0.0
1001
ACAD
1000
RTTcAl
1070
-26105
1071
-1023410177
1000
$$NoName$$
  0
SPLINE
  5
15B7
330
A
100
AcDbEntity
  8
001
370
    25
100
AcDbSpline
210
0.0
220
0.0
230
1.0
 70
    24
 71
     3
 72
     8
 73
     4
 74
     0
 42
0.0000000001
 43
0.0000000001
 40
13.0
 40
13.0
 40
13.0
 40
13.0
 40
14.0
 40
14.0
 40
14.0
 40
14.0
 10
227.2093587722109
 20
33.61742870140001
 30
0.0
 10
227.2093587722109
 20
33.61742870140001
 30
0.0
 10
227.2104522462393
 20
33.59949662306005
 30
0.0
 10
227.2104522462393
 20
33.59949662306005
 30
0.0
1001
ACAD
1000
RTTcAl
1070
-26105
1071
-1023410177
1000
$$NoName$$
  0
SPLINE
  5
15B8
330
A
100
AcDbEntity
  8
001
370
    25
100
AcDbSpline
210
0.0
220
0.0
230
1.0
 70
    24
 71
     3
 72
     8
 73
     4
 74
     0
 42
0.0000000001
 43
0.0000000001
 40
14.0
 40
14.0
 40
14.0
 40
14.0
 40
15.0
 40
15.0
 40
15.0
 40
15.0
 10
227.2104522462393
 20
33.59949662306005
 30
0.0
 10
227.2104522462393
 20
33.59949662306005
 30
0.0
 10
227.2081619452498
 20
33.59949662306005
 30
0.0
 10
227.2081619452498
 20
33.59949662306005
 30
0.0
1001
ACAD
1000
RTTcAl
1070
-26105
1071
-1023410177
1000
$$NoName$$
  0
SPLINE
  5
15B9
330
A
100
AcDbEntity
  8
001
370
    25
100
AcDbSpline
210
0.0
220
0.0
230
1.0
 70
    24
 71
     3
 72
     8
 73
     4
 74
     0
 42
0.0000000001
 43
0.0000000001
 40
15.0
 40
15.0
 40
15.0
 40
15.0
 40
16.0
 40
16.0
 40
16.0
 40
16.0
 10
227.2081619452498
 20
33.59949662306005
 30
0.0
 10
227.2081619452498
 20
33.59949662306005
 30
0.0
 10
227.2081619452498
 20
33.59733172362895
 30
0.0
 10
227.2081619452498
 20
33.59733172362895
 30
0.0
1001
ACAD
1000
RTTcAl
1070
-26105
1071
-1023410177
1000
$$NoName$$
  0
SPLINE
  5
15BA
330
A
100
AcDbEntity
  8
001
370
    25
100
AcDbSpline
210
0.0
220
0.0
230
1.0
 70
    24
 71
     3
 72
     8
 73
     4
 74
     0
 42
0.0000000001
 43
0.0000000001
 40
16.0
 40
16.0
 40
16.0
 40
16.0
 40
17.0
 40
17.0
 40
17.0
 40
17.0
 10
227.2081619452498
 20
33.59733172362895
 30
0.0
 10
227.2081619452498
 20
33.59733172362895
 30
0.0
 10
227.2097687388441
 20
33.59733172362895
 30
0.0
 10
227.2097687388441
 20
33.59733172362895
 30
0.0
1001
ACAD
1000
RTTcAl
1070
-26105
1071
-1023410177
1000
$$NoName$$
  0
SPLINE
  5
15BB
330
A
100
AcDbEntity
  8
001
370
    25
100
AcDbSpline
210
0.0
220
0.0
230
1.0
 70
     8
 71
     3
 72
     8
 73
     4
 74
     0
 42
0.0000000001
 43
0.0000000001
 40
17.0
 40
17.0
 40
17.0
 40
17.0
 40
18.0
 40
18.0
 40
18.0
 40
18.0
 10
227.2097687388441
 20
33.59733172362895
 30
0.0
 10
227.210134608226
 20
33.59728383677012
 30
0.0
 10
227.2104102160466
 20
33.59695793052221
 30
0.0
 10
227.2103778321277
 20
33.59658654898391
 30
0.0
1001
ACAD
1000
RTTcAl
1070
-26105
1071
-1023410177
1000
$$NoName$$
  0
SPLINE
  5
15BC
330
A
100
AcDbEntity
  8
001
370
    25
100
AcDbSpline
210
0.0
220
0.0
230
1.0
 70
    24
 71
     3
 72
     8
 73
     4
 74
     0
 42
0.0000000001
 43
0.0000000001
 40
18.0
 40
18.0
 40
18.0
 40
18.0
 40
19.0
 40
19.0
 40
19.0
 40
19.0
 10
227.2103778321277
 20
33.59658654898391
 30
0.0
 10
227.2103778321277
 20
33.59658654898391
 30
0.0
 10
227.2091782490884
 20
33.58523805245941
 30
0.0
 10
227.2091782490884
 20
33.58523805245941
 30
0.0
1001
ACAD
1000
RTTcAl
1070
-26105
1071
-1023410177
1000
$$NoName$$
  0
SPLINE
  5
15BD
330
A
100
AcDbEntity
  8
001
370
    25
100
AcDbSpline
210
0.0
220
0.0
230
1.0
 70
     8
 71
     3
 72
     8
 73
     4
 74
     0
 42
0.0000000001
 43
0.0000000001
 40
19.0
 40
19.0
 40
19.0
 40
19.0
 40
20.0
 40
20.0
 40
20.0
 40
20.0
 10
227.2091782490884
 20
33.58523805245941
 30
0.0
 10
227.2091086581137
 20
33.58454420977096
 30
0.0
 10
227.208525747573
 20
33.58401090863802
 30
0.0
 10
227.2078305268455
 20
33.58401090863802
 30
0.0
1001
ACAD
1000
RTTcAl
1070
-26105
1071
-1023410177
1000
$$NoName$$
  0
SPLINE
  5
15BE
330
A
100
AcDbEntity
  8
001
370
    25
100
AcDbSpline
210
0.0
220
0.0
230
1.0
 70
    24
 71
     3
 72
     8
 73
     4
 74
     0
 42
0.0000000001
 43
0.0000000001
 40
20.0
 40
20.0
 40
20.0
 40
20.0
 40
21.0
 40
21.0
 40
21.0
 40
21.0
 10
227.2078305268455
 20
33.58401090863802
 30
0.0
 10
227.2078305268455
 20
33.58401090863802
 30
0.0
 10
227.2030501091965
 20
33.58401090863802
 30
0.0
 10
227.2030501091965
 20
33.58401090863802
 30
0.0
1001
ACAD
1000
RTTcAl
1070
-26105
1071
-1023410177
1000
$$NoName$$
  0
SPLINE
  5
15BF
330
A
100
AcDbEntity
  8
001
370
    25
100
AcDbSpline
210
0.0
220
0.0
230
1.0
 70
    24
 71
     3
 72
     8
 73
     4
 74
     0
 42
0.0000000001
 43
0.0000000001
 40
21.0
 40
21.0
 40
21.0
 40
21.0
 40
22.0
 40
22.0
 40
22.0
 40
22.0
 10
227.2030501091965
 20
33.58401090863802
 30
0.0
 10
227.2030501091965
 20
33.58401090863802
 30
0.0
 10
227.2028440923506
 20
33.5806223104833
 30
0.0
 10
227.2028440923506
 20
33.5806223104833
 30
0.0
1001
ACAD
1000
RTTcAl
1070
-26105
1071
-1023410177
1000
$$NoName$$
  0
SPLINE
  5
15C0
330
A
100
AcDbEntity
  8
001
370
    25
100
AcDbSpline
210
0.0
220
0.0
230
1.0
 70
    24
 71
     3
 72
     8
 73
     4
 74
     0
 42
0.0000000001
 43
0.0000000001
 40
22.0
 40
22.0
 40
22.0
 40
22.0
 40
23.0
 40
23.0
 40
23.0
 40
23.0
 10
227.2028440923506
 20
33.5806223104833
 30
0.0
 10
227.2028440923506
 20
33.5806223104833
 30
0.0
 10
227.12858156508
 20
33.5806223104833
 30
0.0
 10
227.12858156508
 20
33.5806223104833
 30
0.0
1001
ACAD
1000
RTTcAl
1070
-26105
1071
-1023410177
1000
$$NoName$$
  0
SPLINE
  5
15C1
330
A
100
AcDbEntity
  8
001
370
    25
100
AcDbSpline
210
0.0
220
0.0
230
1.0
 70
    24
 71
     3
 72
     8
 73
     4
 74
     0
 42
0.0000000001
 43
0.0000000001
 40
23.0
 40
23.0
 40
23.0
 40
23.0
 40
24.0
 40
24.0
 40
24.0
 40
24.0
 10
227.12858156508
 20
33.5806223104833
 30
0.0
 10
227.12858156508
 20
33.5806223104833
 30
0.0
 10
227.1285374678287
 20
33.58401090863802
 30
0.0
 10
227.1285374678287
 20
33.58401090863802
 30
0.0
1001
ACAD
1000
RTTcAl
1070
-26105
1071
-1023410177
1000
$$NoName$$
  0
SPLINE
  5
15C2
330
A
100
AcDbEntity
  8
001
370
    25
100
AcDbSpline
210
0.0
220
0.0
230
1.0
 70
    24
 71
     3
 72
     8
 73
     4
 74
     0
 42
0.0000000001
 43
0.0000000001
 40
24.0
 40
24.0
 40
24.0
 40
24.0
 40
25.0
 40
25.0
 40
25.0
 40
25.0
 10
227.1285374678287
 20
33.58401090863802
 30
0.0
 10
227.1285374678287
 20
33.58401090863802
 30
0.0
 10
227.1149541363886
 20
33.58401090863802
 30
0.0
 10
227.1149541363886
 20
33.58401090863802
 30
0.0
1001
ACAD
1000
RTTcAl
1070
-26105
1071
-1023410177
1000
$$NoName$$
  0
SPLINE
  5
15C3
330
A
100
AcDbEntity
  8
001
370
    25
100
AcDbSpline
210
0.0
220
0.0
230
1.0
 70
    24
 71
     3
 72
     8
 73
     4
 74
     0
 42
0.0000000001
 43
0.0000000001
 40
25.0
 40
25.0
 40
25.0
 40
25.0
 40
26.0
 40
26.0
 40
26.0
 40
26.0
 10
227.1149541363886
 20
33.58401090863802
 30
0.0
 10
227.1149541363886
 20
33.58401090863802
 30
0.0
 10
227.1148852344335
 20
33.5806223104833
 30
0.0
 10
227.1148852344335
 20
33.5806223104833
 30
0.0
1001
ACAD
1000
RTTcAl
1070
-26105
1071
-1023410177
1000
$$NoName$$
  0
SPLINE
  5
15C4
330
A
100
AcDbEntity
  8
001
370
    25
100
AcDbSpline
210
0.0
220
0.0
230
1.0
 70
    24
 71
     3
 72
     8
 73
     4
 74
     0
 42
0.0000000001
 43
0.0000000001
 40
26.0
 40
26.0
 40
26.0
 40
26.0
 40
27.0
 40
27.0
 40
27.0
 40
27.0
 10
227.1148852344335
 20
33.5806223104833
 30
0.0
 10
227.1148852344335
 20
33.5806223104833
 30
0.0
 10
227.0406371765735
 20
33.5806223104833
 30
0.0
 10
227.0406371765735
 20
33.5806223104833
 30
0.0
1001
ACAD
1000
RTTcAl
1070
-26105
1071
-1023410177
1000
$$NoName$$
  0
SPLINE
  5
15C5
330
A
100
AcDbEntity
  8
001
370
    25
100
AcDbSpline
210
0.0
220
0.0
230
1.0
 70
    24
 71
     3
 72
     8
 73
     4
 74
     0
 42
0.0000000001
 43
0.0000000001
 40
27.0
 40
27.0
 40
27.0
 40
27.0
 40
28.0
 40
28.0
 40
28.0
 40
28.0
 10
227.0406371765735
 20
33.5806223104833
 30
0.0
 10
227.0406371765735
 20
33.5806223104833
 30
0.0
 10
227.040424269532
 20
33.58405087177202
 30
0.0
 10
227.040424269532
 20
33.58405087177202
 30
0.0
1001
ACAD
1000
RTTcAl
1070
-26105
1071
-1023410177
1000
$$NoName$$
  0
SPLINE
  5
15C6
330
A
100
AcDbEntity
  8
001
370
    25
100
AcDbSpline
210
0.0
220
0.0
230
1.0
 70
    24
 71
     3
 72
     8
 73
     4
 74
     0
 42
0.0000000001
 43
0.0000000001
 40
28.0
 40
28.0
 40
28.0
 40
28.0
 40
29.0
 40
29.0
 40
29.0
 40
29.0
 10
227.040424269532
 20
33.58405087177202
 30
0.0
 10
227.040424269532
 20
33.58405087177202
 30
0.0
 10
227.0356493640395
 20
33.58401090863802
 30
0.0
 10
227.0356493640395
 20
33.58401090863802
 30
0.0
1001
ACAD
1000
RTTcAl
1070
-26105
1071
-1023410177
1000
$$NoName$$
  0
SPLINE
  5
15C7
330
A
100
AcDbEntity
  8
001
370
    25
100
AcDbSpline
210
0.0
220
0.0
230
1.0
 70
     8
 71
     3
 72
     8
 73
     4
 74
     0
 42
0.0000000001
 43
0.0000000001
 40
29.0
 40
29.0
 40
29.0
 40
29.0
 40
30.0
 40
30.0
 40
30.0
 40
30.0
 10
227.0356493640395
 20
33.58401090863802
 30
0.0
 10
227.0349610335074
 20
33.58401090863802
 30
0.0
 10
227.0343843241427
 20
33.58454420977096
 30
0.0
 10
227.0342975076792
 20
33.58523805245941
 30
0.0
1001
ACAD
1000
RTTcAl
1070
-26105
1071
-1023410177
1000
$$NoName$$
  0
SPLINE
  5
15C8
330
A
100
AcDbEntity
  8
001
370
    25
100
AcDbSpline
210
0.0
220
0.0
230
1.0
 70
    24
 71
     3
 72
     8
 73
     4
 74
     0
 42
0.0000000001
 43
0.0000000001
 40
30.0
 40
30.0
 40
30.0
 40
30.0
 40
31.0
 40
31.0
 40
31.0
 40
31.0
 10
227.0342975076792
 20
33.58523805245941
 30
0.0
 10
227.0342975076792
 20
33.58523805245941
 30
0.0
 10
227.0331089489528
 20
33.59658758251323
 30
0.0
 10
227.0331089489528
 20
33.59658758251323
 30
0.0
1001
ACAD
1000
RTTcAl
1070
-26105
1071
-1023410177
1000
$$NoName$$
  0
SPLINE
  5
15C9
330
A
100
AcDbEntity
  8
001
370
    25
100
AcDbSpline
210
0.0
220
0.0
230
1.0
 70
    24
 71
     3
 72
     8
 73
     4
 74
     0
 42
0.0000000001
 43
0.0000000001
 40
31.0
 40
31.0
 40
31.0
 40
31.0
 40
32.0
 40
32.0
 40
32.0
 40
32.0
 10
227.0331089489528
 20
33.59658758251323
 30
0.0
 10
227.0331089489528
 20
33.59658758251323
 30
0.0
 10
227.0331089489528
 20
33.59665097231198
 30
0.0
 10
227.0331089489528
 20
33.59665097231198
 30
0.0
1001
ACAD
1000
RTTcAl
1070
-26105
1071
-1023410177
1000
$$NoName$$
  0
SPLINE
  5
15CA
330
A
100
AcDbEntity
  8
001
370
    25
100
AcDbSpline
210
0.0
220
0.0
230
1.0
 70
     8
 71
     3
 72
     8
 73
     4
 74
     0
 42
0.0000000001
 43
0.0000000001
 40
32.0
 40
32.0
 40
32.0
 40
32.0
 40
33.0
 40
33.0
 40
33.0
 40
33.0
 10
227.0331089489528
 20
33.59665097231198
 30
0.0
 10
227.0331089489528
 20
33.5970264879676
 30
0.0
 10
227.0334176297119
 20
33.59733172362895
 30
0.0
 10
227.0337883222306
 20
33.59733172362895
 30
0.0
1001
ACAD
1000
RTTcAl
1070
-26105
1071
-1023410177
1000
$$NoName$$
  0
SPLINE
  5
15CB
330
A
100
AcDbEntity
  8
001
370
    25
100
AcDbSpline
210
0.0
220
0.0
230
1.0
 70
    24
 71
     3
 72
     8
 73
     4
 74
     0
 42
0.0000000001
 43
0.0000000001
 40
33.0
 40
33.0
 40
33.0
 40
33.0
 40
34.0
 40
34.0
 40
34.0
 40
34.0
 10
227.0337883222306
 20
33.59733172362895
 30
0.0
 10
227.0337883222306
 20
33.59733172362895
 30
0.0
 10
227.0353138115179
 20
33.59733172362895
 30
0.0
 10
227.0353138115179
 20
33.59733172362895
 30
0.0
1001
ACAD
1000
RTTcAl
1070
-26105
1071
-1023410177
1000
$$NoName$$
  0
SPLINE
  5
15CC
330
A
100
AcDbEntity
  8
001
370
    25
100
AcDbSpline
210
0.0
220
0.0
230
1.0
 70
    24
 71
     3
 72
     8
 73
     4
 74
     0
 42
0.0000000001
 43
0.0000000001
 40
34.0
 40
34.0
 40
34.0
 40
34.0
 40
35.0
 40
35.0
 40
35.0
 40
35.0
 10
227.0353138115179
 20
33.59733172362895
 30
0.0
 10
227.0353138115179
 20
33.59733172362895
 30
0.0
 10
227.0353138115179
 20
33.59949662306005
 30
0.0
 10
227.0353138115179
 20
33.59949662306005
 30
0.0
1001
ACAD
1000
RTTcAl
1070
-26105
1071
-1023410177
1000
$$NoName$$
  0
SPLINE
  5
15CD
330
A
100
AcDbEntity
  8
001
370
    25
100
AcDbSpline
210
0.0
220
0.0
230
1.0
 70
    24
 71
     3
 72
     8
 73
     4
 74
     0
 42
0.0000000001
 43
0.0000000001
 40
35.0
 40
35.0
 40
35.0
 40
35.0
 40
36.0
 40
36.0
 40
36.0
 40
36.0
 10
227.0353138115179
 20
33.59949662306005
 30
0.0
 10
227.0353138115179
 20
33.59949662306005
 30
0.0
 10
227.0330241995479
 20
33.59949662306005
 30
0.0
 10
227.0330241995479
 20
33.59949662306005
 30
0.0
1001
ACAD
1000
RTTcAl
1070
-26105
1071
-1023410177
1000
$$NoName$$
  0
SPLINE
  5
15CE
330
A
100
AcDbEntity
  8
001
370
    25
100
AcDbSpline
210
0.0
220
0.0
230
1.0
 70
    24
 71
     3
 72
     8
 73
     4
 74
     0
 42
0.0000000001
 43
0.0000000001
 40
36.0
 40
36.0
 40
36.0
 40
36.0
 40
37.0
 40
37.0
 40
37.0
 40
37.0
 10
227.0330241995479
 20
33.59949662306005
 30
0.0
 10
227.0330241995479
 20
33.59949662306005
 30
0.0
 10
227.0341156065176
 20
33.61742870140001
 30
0.0
 10
227.0341156065176
 20
33.61742870140001
 30
0.0
1001
ACAD
1000
RTTcAl
1070
-26105
1071
-1023410177
1000
$$NoName$$
  0
SPLINE
  5
15CF
330
A
100
AcDbEntity
  8
001
370
    25
100
AcDbSpline
210
0.0
220
0.0
230
1.0
 70
    24
 71
     3
 72
     8
 73
     4
 74
     0
 42
0.0000000001
 43
0.0000000001
 40
37.0
 40
37.0
 40
37.0
 40
37.0
 40
38.0
 40
38.0
 40
38.0
 40
38.0
 10
227.0341156065176
 20
33.61742870140001
 30
0.0
 10
227.0341156065176
 20
33.61742870140001
 30
0.0
 10
227.0341156065176
 20
33.6174786553175
 30
0.0
 10
227.0341156065176
 20
33.6174786553175
 30
0.0
1001
ACAD
1000
RTTcAl
1070
-26105
1071
-1023410177
1000
$$NoName$$
  0
LINE
  5
15D0
330
A
100
AcDbEntity
  8
001
370
     9
100
AcDbLine
 10
227.2078305268455
 20
33.5840112531478
 30
0.0
 11
227.0356493640395
 21
33.5840112531478
 31
0.0
1001
ACAD
1000
RTTcAl
1070
-26105
1071
-1023410177
1000
$$NoName$$
  0
LINE
  5
15D1
330
A
100
AcDbEntity
  8
001
370
     9
100
AcDbLine
 10
227.2096963917912
 20
33.59733172362895
 30
0.0
 11
227.0337883222306
 21
33.59733172362895
 31
0.0
1001
ACAD
1000
RTTcAl
1070
-26105
1071
-1023410177
1000
$$NoName$$
  0
LINE
  5
15D2
330
A
100
AcDbEntity
  8
001
370
     9
100
AcDbLine
 10
227.0532503684849
 20
33.65003482913023
 30
0.0
 11
227.1902322784782
 21
33.65003482913023
 31
0.0
1001
ACAD
1000
RTTcAl
1070
-26105
1071
-1023410177
1000
$$NoName$$
  0
LINE
  5
15D3
330
A
100
AcDbEntity
  8
001
370
     9
100
AcDbLine
 10
227.1217382228936
 20
33.59733172362895
 30
0.0
 11
227.2081619452498
 21
33.59733172362895
 31
0.0
1001
ACAD
1000
RTTcAl
1070
-26105
1071
-1023410177
1000
$$NoName$$
  0
LINE
  5
15D4
330
A
100
AcDbEntity
  8
001
370
     9
100
AcDbLine
 10
227.0330241995479
 20
33.59949662306005
 30
0.0
 11
227.2104481121219
 21
33.59949662306005
 31
0.0
1001
ACAD
1000
RTTcAl
1070
-26105
1071
-1023410177
1000
$$NoName$$
  0
LINE
  5
15D5
330
A
100
AcDbEntity
  8
001
370
     9
100
AcDbLine
 10
227.0353138115179
 20
33.59733172362895
 30
0.0
 11
227.1217382228936
 21
33.59733172362895
 31
0.0
1001
ACAD
1000
RTTcAl
1070
-26105
1071
-1023410177
1000
$$NoName$$
  0
LINE
  5
15D6
330
A
100
AcDbEntity
  8
001
370
     9
100
AcDbLine
 10
227.1217382228936
 20
33.60356872860996
 30
0.0
 11
227.1196994140404
 21
33.59950558031423
 31
0.0
1001
ACAD
1000
RTTcAl
1070
-26105
1071
-1023410177
1000
$$NoName$$
  0
LINE
  5
15D7
330
A
100
AcDbEntity
  8
001
370
     9
100
AcDbLine
 10
227.123773586649
 20
33.59949662306005
 30
0.0
 11
227.1217382228936
 21
33.60356872860996
 31
0.0
1001
ACAD
1000
RTTcAl
1070
-26105
1071
-1023410177
1000
$$NoName$$
  0
LINE
  5
15D8
330
A
100
AcDbEntity
  8
001
370
     9
100
AcDbLine
 10
227.1319364012767
 20
33.59733172362895
 30
0.0
 11
227.1319239989248
 21
33.59949627855028
 31
0.0
1001
ACAD
1000
RTTcAl
1070
-26105
1071
-1023410177
1000
$$NoName$$
  0
LINE
  5
15D9
330
A
100
AcDbEntity
  8
001
370
     9
100
AcDbLine
 10
227.1115503798037
 20
33.59949662306005
 30
0.0
 11
227.1115503798037
 21
33.59733172362895
 31
0.0
1001
ACAD
1000
RTTcAl
1070
-26105
1071
-1023410177
1000
$$NoName$$
  0
LINE
  5
15DA
330
A
100
AcDbEntity
  8
001
370
     9
100
AcDbLine
 10
227.1196987250209
 20
33.59949662306005
 30
0.0
 11
227.1237701415512
 21
33.59949662306005
 31
0.0
1001
ACAD
1000
RTTcAl
1070
-26105
1071
-1023410177
1000
$$NoName$$
  0
SPLINE
  5
15DB
330
A
100
AcDbEntity
  8
001
370
     9
100
AcDbSpline
210
0.0
220
0.0
230
1.0
 70
    24
 71
     3
 72
     8
 73
     4
 74
     0
 42
0.0000000001
 43
0.0000000001
 40
0.0
 40
0.0
 40
0.0
 40
0.0
 40
1.0
 40
1.0
 40
1.0
 40
1.0
 10
227.1861277890094
 20
33.65006721304915
 30
0.0
 10
227.1861277890094
 20
33.65006721304915
 30
0.0
 10
227.1861277890094
 20
33.6513901305882
 30
0.0
 10
227.1861277890094
 20
33.6513901305882
 30
0.0
1001
ACAD
1000
RTTcAl
1070
-26105
1071
-1023410177
1000
$$NoName$$
  0
SPLINE
  5
15DC
330
A
100
AcDbEntity
  8
001
370
     9
100
AcDbSpline
210
0.0
220
0.0
230
1.0
 70
     8
 71
     3
 72
    11
 73
     7
 74
     0
 42
0.0000000001
 43
0.0000000001
 40
1.0
 40
1.0
 40
1.0
 40
1.0
 40
2.0
 40
2.0
 40
2.0
 40
3.0
 40
3.0
 40
3.0
 40
3.0
 10
227.1861277890094
 20
33.6513901305882
 30
0.0
 10
227.1861277890094
 20
33.68689048494488
 30
0.0
 10
227.1572406443089
 20
33.71576763886187
 30
0.0
 10
227.1217368448545
 20
33.71576763886187
 30
0.0
 10
227.0862302893219
 20
33.71576763886187
 30
0.0
 10
227.0573534799146
 20
33.68689048494488
 30
0.0
 10
227.0573534799146
 20
33.6513901305882
 30
0.0
1001
ACAD
1000
RTTcAl
1070
-26105
1071
-1023410177
1000
$$NoName$$
  0
SPLINE
  5
15DD
330
A
100
AcDbEntity
  8
001
370
     9
100
AcDbSpline
210
0.0
220
0.0
230
1.0
 70
    24
 71
     3
 72
     8
 73
     4
 74
     0
 42
0.0000000001
 43
0.0000000001
 40
3.0
 40
3.0
 40
3.0
 40
3.0
 40
4.0
 40
4.0
 40
4.0
 40
4.0
 10
227.0573534799146
 20
33.6513901305882
 30
0.0
 10
227.0573534799146
 20
33.6513901305882
 30
0.0
 10
227.0573534799146
 20
33.6502542818574
 30
0.0
 10
227.0573534799146
 20
33.6502542818574
 30
0.0
1001
ACAD
1000
RTTcAl
1070
-26105
1071
-1023410177
1000
$$NoName$$
  0
LINE
  5
15DE
330
A
100
AcDbEntity
  8
001
370
     9
100
AcDbLine
 10
226.9310998423751
 20
33.89134736924678
 30
0.0
 11
226.9280026994907
 21
33.89134736924678
 31
0.0
1001
ACAD
1000
RTTcAl
1070
-26105
1071
-1023410177
1000
$$NoName$$
  0
LINE
  5
15DF
330
A
100
AcDbEntity
  8
001
370
     9
100
AcDbLine
 10
226.928183567123
 20
33.89141213708464
 30
0.0
 11
226.9279958092952
 21
33.89134736924678
 31
0.0
1001
ACAD
1000
RTTcAl
1070
-26105
1071
-1023410177
1000
$$NoName$$
  0
LINE
  5
15E0
330
A
100
AcDbEntity
  8
001
370
     9
100
AcDbLine
 10
226.927996153805
 20
33.8777626597676
 30
0.0
 11
226.9310929521796
 21
33.8777626597676
 31
0.0
1001
ACAD
1000
RTTcAl
1070
-26105
1071
-1023410177
1000
$$NoName$$
  0
LINE
  5
15E1
330
A
100
AcDbEntity
  8
001
370
     9
100
AcDbLine
 10
226.8430049030965
 20
33.96584829728222
 30
0.0
 11
226.8430049030965
 21
33.96276080067154
 31
0.0
1001
ACAD
1000
RTTcAl
1070
-26105
1071
-1023410177
1000
$$NoName$$
  0
LINE
  5
15E2
330
A
100
AcDbEntity
  8
001
370
     9
100
AcDbLine
 10
226.8566585145309
 20
33.96293718967674
 30
0.0
 11
226.8566585145309
 21
33.96565812788598
 31
0.0
1001
ACAD
1000
RTTcAl
1070
-26105
1071
-1023410177
1000
$$NoName$$
  0
LINE
  5
15E3
330
A
100
AcDbEntity
  8
001
370
     9
100
AcDbLine
 10
226.8565961582615
 20
33.96275942263244
 30
0.0
 11
226.8566605815895
 21
33.96293718967674
 31
0.0
1001
ACAD
1000
RTTcAl
1070
-26105
1071
-1023410177
1000
$$NoName$$
  0
LINE
  5
15E4
330
A
100
AcDbEntity
  8
001
370
     9
100
AcDbLine
 10
226.927996153805
 20
33.8777626597676
 30
0.0
 11
226.9281839116327
 21
33.87770616016437
 31
0.0
1001
ACAD
1000
RTTcAl
1070
-26105
1071
-1023410177
1000
$$NoName$$
  0
SPLINE
  5
15E5
330
A
100
AcDbEntity
  8
001
370
     9
100
AcDbSpline
210
0.0
220
0.0
230
1.0
 70
    24
 71
     3
 72
     8
 73
     4
 74
     0
 42
0.0000000001
 43
0.0000000001
 40
0.0
 40
0.0
 40
0.0
 40
0.0
 40
1.0
 40
1.0
 40
1.0
 40
1.0
 10
226.8430049030965
 20
33.96584829728222
 30
0.0
 10
226.8430049030965
 20
33.96584829728222
 30
0.0
 10
226.8430049030965
 20
33.96584347414536
 30
0.0
 10
226.8430049030965
 20
33.96584347414536
 30
0.0
1001
ACAD
1000
RTTcAl
1070
-26105
1071
-1023410177
1000
$$NoName$$
  0
SPLINE
  5
15E6
330
A
100
AcDbEntity
  8
001
370
     9
100
AcDbSpline
210
0.0
220
0.0
230
1.0
 70
    24
 71
     3
 72
     8
 73
     4
 74
     0
 42
0.0000000001
 43
0.0000000001
 40
1.0
 40
1.0
 40
1.0
 40
1.0
 40
2.0
 40
2.0
 40
2.0
 40
2.0
 10
226.8430049030965
 20
33.96584347414536
 30
0.0
 10
226.8430049030965
 20
33.96584347414536
 30
0.0
 10
226.8430049030965
 20
33.96583520591074
 30
0.0
 10
226.8430049030965
 20
33.96583520591074
 30
0.0
1001
ACAD
1000
RTTcAl
1070
-26105
1071
-1023410177
1000
$$NoName$$
  0
SPLINE
  5
15E7
330
A
100
AcDbEntity
  8
001
370
     9
100
AcDbSpline
210
0.0
220
0.0
230
1.0
 70
    24
 71
     3
 72
     8
 73
     4
 74
     0
 42
0.0000000001
 43
0.0000000001
 40
2.0
 40
2.0
 40
2.0
 40
2.0
 40
3.0
 40
3.0
 40
3.0
 40
3.0
 10
226.8430049030965
 20
33.96583520591074
 30
0.0
 10
226.8430049030965
 20
33.96583520591074
 30
0.0
 10
226.8430049030965
 20
33.96582418159791
 30
0.0
 10
226.8430049030965
 20
33.96582418159791
 30
0.0
1001
ACAD
1000
RTTcAl
1070
-26105
1071
-1023410177
1000
$$NoName$$
  0
SPLINE
  5
15E8
330
A
100
AcDbEntity
  8
001
370
     9
100
AcDbSpline
210
0.0
220
0.0
230
1.0
 70
    24
 71
     3
 72
     8
 73
     4
 74
     0
 42
0.0000000001
 43
0.0000000001
 40
3.0
 40
3.0
 40
3.0
 40
3.0
 40
4.0
 40
4.0
 40
4.0
 40
4.0
 10
226.8430049030965
 20
33.96582418159791
 30
0.0
 10
226.8430049030965
 20
33.96582418159791
 30
0.0
 10
226.8429993909401
 20
33.9658200474806
 30
0.0
 10
226.8429993909401
 20
33.9658200474806
 30
0.0
1001
ACAD
1000
RTTcAl
1070
-26105
1071
-1023410177
1000
$$NoName$$
  0
SPLINE
  5
15E9
330
A
100
AcDbEntity
  8
001
370
     9
100
AcDbSpline
210
0.0
220
0.0
230
1.0
 70
    24
 71
     3
 72
     8
 73
     4
 74
     0
 42
0.0000000001
 43
0.0000000001
 40
4.0
 40
4.0
 40
4.0
 40
4.0
 40
5.0
 40
5.0
 40
5.0
 40
5.0
 10
226.8429993909401
 20
33.9658200474806
 30
0.0
 10
226.8429993909401
 20
33.9658200474806
 30
0.0
 10
226.8429931897641
 20
33.96581177924598
 30
0.0
 10
226.8429931897641
 20
33.96581177924598
 30
0.0
1001
ACAD
1000
RTTcAl
1070
-26105
1071
-1023410177
1000
$$NoName$$
  0
SPLINE
  5
15EA
330
A
100
AcDbEntity
  8
001
370
     9
100
AcDbSpline
210
0.0
220
0.0
230
1.0
 70
    24
 71
     3
 72
     8
 73
     4
 74
     0
 42
0.0000000001
 43
0.0000000001
 40
5.0
 40
5.0
 40
5.0
 40
5.0
 40
6.0
 40
6.0
 40
6.0
 40
6.0
 10
226.8429931897641
 20
33.96581177924598
 30
0.0
 10
226.8429931897641
 20
33.96581177924598
 30
0.0
 10
226.8429831989807
 20
33.96581177924598
 30
0.0
 10
226.8429831989807
 20
33.96581177924598
 30
0.0
1001
ACAD
1000
RTTcAl
1070
-26105
1071
-1023410177
1000
$$NoName$$
  0
SPLINE
  5
15EB
330
A
100
AcDbEntity
  8
001
370
     9
100
AcDbSpline
210
0.0
220
0.0
230
1.0
 70
    24
 71
     3
 72
     8
 73
     4
 74
     0
 42
0.0000000001
 43
0.0000000001
 40
6.0
 40
6.0
 40
6.0
 40
6.0
 40
7.0
 40
7.0
 40
7.0
 40
7.0
 10
226.8429831989807
 20
33.96581177924598
 30
0.0
 10
226.8429831989807
 20
33.96581177924598
 30
0.0
 10
226.8429831989807
 20
33.96578421846392
 30
0.0
 10
226.8429831989807
 20
33.96578421846392
 30
0.0
1001
ACAD
1000
RTTcAl
1070
-26105
1071
-1023410177
1000
$$NoName$$
  0
SPLINE
  5
15EC
330
A
100
AcDbEntity
  8
001
370
     9
100
AcDbSpline
210
0.0
220
0.0
230
1.0
 70
    24
 71
     3
 72
     8
 73
     4
 74
     0
 42
0.0000000001
 43
0.0000000001
 40
7.0
 40
7.0
 40
7.0
 40
7.0
 40
8.0
 40
8.0
 40
8.0
 40
8.0
 10
226.8429831989807
 20
33.96578421846392
 30
0.0
 10
226.8429831989807
 20
33.96578421846392
 30
0.0
 10
226.8429790648633
 20
33.96578421846392
 30
0.0
 10
226.8429790648633
 20
33.96578421846392
 30
0.0
1001
ACAD
1000
RTTcAl
1070
-26105
1071
-1023410177
1000
$$NoName$$
  0
SPLINE
  5
15ED
330
A
100
AcDbEntity
  8
001
370
     9
100
AcDbSpline
210
0.0
220
0.0
230
1.0
 70
    24
 71
     3
 72
     8
 73
     4
 74
     0
 42
0.0000000001
 43
0.0000000001
 40
8.0
 40
8.0
 40
8.0
 40
8.0
 40
9.0
 40
9.0
 40
9.0
 40
9.0
 10
226.8429790648633
 20
33.96578421846392
 30
0.0
 10
226.8429790648633
 20
33.96578421846392
 30
0.0
 10
226.8429790648633
 20
33.96577526120975
 30
0.0
 10
226.8429790648633
 20
33.96577526120975
 30
0.0
1001
ACAD
1000
RTTcAl
1070
-26105
1071
-1023410177
1000
$$NoName$$
  0
SPLINE
  5
15EE
330
A
100
AcDbEntity
  8
001
370
     9
100
AcDbSpline
210
0.0
220
0.0
230
1.0
 70
     8
 71
     3
 72
     8
 73
     4
 74
     0
 42
0.0000000001
 43
0.0000000001
 40
9.0
 40
9.0
 40
9.0
 40
9.0
 40
10.0
 40
10.0
 40
10.0
 40
10.0
 10
226.8429790648633
 20
33.96577526120975
 30
0.0
 10
226.8429790648633
 20
33.9657731941511
 30
0.0
 10
226.8429742417265
 20
33.96576423689693
 30
0.0
 10
226.8429742417265
 20
33.96576423689693
 30
0.0
1001
ACAD
1000
RTTcAl
1070
-26105
1071
-1023410177
1000
$$NoName$$
  0
SPLINE
  5
15EF
330
A
100
AcDbEntity
  8
001
370
     9
100
AcDbSpline
210
0.0
220
0.0
230
1.0
 70
    24
 71
     3
 72
     8
 73
     4
 74
     0
 42
0.0000000001
 43
0.0000000001
 40
10.0
 40
10.0
 40
10.0
 40
10.0
 40
11.0
 40
11.0
 40
11.0
 40
11.0
 10
226.8429742417265
 20
33.96576423689693
 30
0.0
 10
226.8429742417265
 20
33.96576423689693
 30
0.0
 10
226.8429742417265
 20
33.96575390160365
 30
0.0
 10
226.8429742417265
 20
33.96575390160365
 30
0.0
1001
ACAD
1000
RTTcAl
1070
-26105
1071
-1023410177
1000
$$NoName$$
  0
SPLINE
  5
15F0
330
A
100
AcDbEntity
  8
001
370
     9
100
AcDbSpline
210
0.0
220
0.0
230
1.0
 70
    24
 71
     3
 72
     8
 73
     4
 74
     0
 42
0.0000000001
 43
0.0000000001
 40
11.0
 40
11.0
 40
11.0
 40
11.0
 40
12.0
 40
12.0
 40
12.0
 40
12.0
 10
226.8429742417265
 20
33.96575390160365
 30
0.0
 10
226.8429742417265
 20
33.96575390160365
 30
0.0
 10
226.8429680405505
 20
33.96574770042769
 30
0.0
 10
226.8429680405505
 20
33.96574770042769
 30
0.0
1001
ACAD
1000
RTTcAl
1070
-26105
1071
-1023410177
1000
$$NoName$$
  0
SPLINE
  5
15F1
330
A
100
AcDbEntity
  8
001
370
     9
100
AcDbSpline
210
0.0
220
0.0
230
1.0
 70
    24
 71
     3
 72
     8
 73
     4
 74
     0
 42
0.0000000001
 43
0.0000000001
 40
12.0
 40
12.0
 40
12.0
 40
12.0
 40
13.0
 40
13.0
 40
13.0
 40
13.0
 10
226.8429680405505
 20
33.96574770042769
 30
0.0
 10
226.8429680405505
 20
33.96574770042769
 30
0.0
 10
226.8429680405505
 20
33.9657304749389
 30
0.0
 10
226.8429680405505
 20
33.9657304749389
 30
0.0
1001
ACAD
1000
RTTcAl
1070
-26105
1071
-1023410177
1000
$$NoName$$
  0
SPLINE
  5
15F2
330
A
100
AcDbEntity
  8
001
370
     9
100
AcDbSpline
210
0.0
220
0.0
230
1.0
 70
    24
 71
     3
 72
     8
 73
     4
 74
     0
 42
0.0000000001
 43
0.0000000001
 40
13.0
 40
13.0
 40
13.0
 40
13.0
 40
14.0
 40
14.0
 40
14.0
 40
14.0
 10
226.8429680405505
 20
33.9657304749389
 30
0.0
 10
226.8429680405505
 20
33.9657304749389
 30
0.0
 10
226.8429639064332
 20
33.96572358474339
 30
0.0
 10
226.8429639064332
 20
33.96572358474339
 30
0.0
1001
ACAD
1000
RTTcAl
1070
-26105
1071
-1023410177
1000
$$NoName$$
  0
SPLINE
  5
15F3
330
A
100
AcDbEntity
  8
001
370
     9
100
AcDbSpline
210
0.0
220
0.0
230
1.0
 70
    24
 71
     3
 72
     8
 73
     4
 74
     0
 42
0.0000000001
 43
0.0000000001
 40
14.0
 40
14.0
 40
14.0
 40
14.0
 40
15.0
 40
15.0
 40
15.0
 40
15.0
 10
226.8429639064332
 20
33.96572358474339
 30
0.0
 10
226.8429639064332
 20
33.96572358474339
 30
0.0
 10
226.8429639064332
 20
33.96571393846966
 30
0.0
 10
226.8429639064332
 20
33.96571393846966
 30
0.0
1001
ACAD
1000
RTTcAl
1070
-26105
1071
-1023410177
1000
$$NoName$$
  0
SPLINE
  5
15F4
330
A
100
AcDbEntity
  8
001
370
     9
100
AcDbSpline
210
0.0
220
0.0
230
1.0
 70
    24
 71
     3
 72
     8
 73
     4
 74
     0
 42
0.0000000001
 43
0.0000000001
 40
15.0
 40
15.0
 40
15.0
 40
15.0
 40
16.0
 40
16.0
 40
16.0
 40
16.0
 10
226.8429639064332
 20
33.96571393846966
 30
0.0
 10
226.8429639064332
 20
33.96571393846966
 30
0.0
 10
226.8429525376106
 20
33.96570704827414
 30
0.0
 10
226.8429525376106
 20
33.96570704827414
 30
0.0
1001
ACAD
1000
RTTcAl
1070
-26105
1071
-1023410177
1000
$$NoName$$
  0
SPLINE
  5
15F5
330
A
100
AcDbEntity
  8
001
370
     9
100
AcDbSpline
210
0.0
220
0.0
230
1.0
 70
    24
 71
     3
 72
     8
 73
     4
 74
     0
 42
0.0000000001
 43
0.0000000001
 40
16.0
 40
16.0
 40
16.0
 40
16.0
 40
17.0
 40
17.0
 40
17.0
 40
17.0
 10
226.8429525376106
 20
33.96570704827414
 30
0.0
 10
226.8429525376106
 20
33.96570704827414
 30
0.0
 10
226.8429494370226
 20
33.96569257886356
 30
0.0
 10
226.8429494370226
 20
33.96569257886356
 30
0.0
1001
ACAD
1000
RTTcAl
1070
-26105
1071
-1023410177
1000
$$NoName$$
  0
SPLINE
  5
15F6
330
A
100
AcDbEntity
  8
001
370
     9
100
AcDbSpline
210
0.0
220
0.0
230
1.0
 70
     8
 71
     3
 72
     8
 73
     4
 74
     0
 42
0.0000000001
 43
0.0000000001
 40
17.0
 40
17.0
 40
17.0
 40
17.0
 40
18.0
 40
18.0
 40
18.0
 40
18.0
 10
226.8429494370226
 20
33.96569257886356
 30
0.0
 10
226.8429494370226
 20
33.9656905118049
 30
0.0
 10
226.8429422023173
 20
33.96568431062894
 30
0.0
 10
226.8429422023173
 20
33.96568431062894
 30
0.0
1001
ACAD
1000
RTTcAl
1070
-26105
1071
-1023410177
1000
$$NoName$$
  0
SPLINE
  5
15F7
330
A
100
AcDbEntity
  8
001
370
     9
100
AcDbSpline
210
0.0
220
0.0
230
1.0
 70
    24
 71
     3
 72
     8
 73
     4
 74
     0
 42
0.0000000001
 43
0.0000000001
 40
18.0
 40
18.0
 40
18.0
 40
18.0
 40
19.0
 40
19.0
 40
19.0
 40
19.0
 10
226.8429422023173
 20
33.96568431062894
 30
0.0
 10
226.8429422023173
 20
33.96568431062894
 30
0.0
 10
226.8429422023173
 20
33.9656650180815
 30
0.0
 10
226.8429422023173
 20
33.9656650180815
 30
0.0
1001
ACAD
1000
RTTcAl
1070
-26105
1071
-1023410177
1000
$$NoName$$
  0
SPLINE
  5
15F8
330
A
100
AcDbEntity
  8
001
370
     9
100
AcDbSpline
210
0.0
220
0.0
230
1.0
 70
    24
 71
     3
 72
     8
 73
     4
 74
     0
 42
0.0000000001
 43
0.0000000001
 40
0.0
 40
0.0
 40
0.0
 40
0.0
 40
1.0
 40
1.0
 40
1.0
 40
1.0
 10
226.8566585145309
 20
33.9656650180815
 30
0.0
 10
226.8566585145309
 20
33.9656650180815
 30
0.0
 10
226.8566561029624
 20
33.96566984121835
 30
0.0
 10
226.8566561029624
 20
33.96566984121835
 30
0.0
1001
ACAD
1000
RTTcAl
1070
-26105
1071
-1023410177
1000
$$NoName$$
  0
SPLINE
  5
15F9
330
A
100
AcDbEntity
  8
001
370
     9
100
AcDbSpline
210
0.0
220
0.0
230
1.0
 70
    24
 71
     3
 72
     8
 73
     4
 74
     0
 42
0.0000000001
 43
0.0000000001
 40
1.0
 40
1.0
 40
1.0
 40
1.0
 40
2.0
 40
2.0
 40
2.0
 40
2.0
 10
226.8566561029624
 20
33.96566984121835
 30
0.0
 10
226.8566561029624
 20
33.96566984121835
 30
0.0
 10
226.8566561029624
 20
33.96568431062894
 30
0.0
 10
226.8566561029624
 20
33.96568431062894
 30
0.0
1001
ACAD
1000
RTTcAl
1070
-26105
1071
-1023410177
1000
$$NoName$$
  0
SPLINE
  5
15FA
330
A
100
AcDbEntity
  8
001
370
     9
100
AcDbSpline
210
0.0
220
0.0
230
1.0
 70
    24
 71
     3
 72
     8
 73
     4
 74
     0
 42
0.0000000001
 43
0.0000000001
 40
2.0
 40
2.0
 40
2.0
 40
2.0
 40
3.0
 40
3.0
 40
3.0
 40
3.0
 10
226.8566561029624
 20
33.96568431062894
 30
0.0
 10
226.8566561029624
 20
33.96568431062894
 30
0.0
 10
226.8566433561007
 20
33.9656905118049
 30
0.0
 10
226.8566433561007
 20
33.9656905118049
 30
0.0
1001
ACAD
1000
RTTcAl
1070
-26105
1071
-1023410177
1000
$$NoName$$
  0
SPLINE
  5
15FB
330
A
100
AcDbEntity
  8
001
370
     9
100
AcDbSpline
210
0.0
220
0.0
230
1.0
 70
     8
 71
     3
 72
     8
 73
     4
 74
     0
 42
0.0000000001
 43
0.0000000001
 40
3.0
 40
3.0
 40
3.0
 40
3.0
 40
4.0
 40
4.0
 40
4.0
 40
4.0
 10
226.8566433561007
 20
33.9656905118049
 30
0.0
 10
226.8566433561007
 20
33.96569257886356
 30
0.0
 10
226.8566402555128
 20
33.96570704827414
 30
0.0
 10
226.8566402555128
 20
33.96570704827414
 30
0.0
1001
ACAD
1000
RTTcAl
1070
-26105
1071
-1023410177
1000
$$NoName$$
  0
SPLINE
  5
15FC
330
A
100
AcDbEntity
  8
001
370
     9
100
AcDbSpline
210
0.0
220
0.0
230
1.0
 70
    24
 71
     3
 72
     8
 73
     4
 74
     0
 42
0.0000000001
 43
0.0000000001
 40
4.0
 40
4.0
 40
4.0
 40
4.0
 40
5.0
 40
5.0
 40
5.0
 40
5.0
 10
226.8566402555128
 20
33.96570704827414
 30
0.0
 10
226.8566402555128
 20
33.96570704827414
 30
0.0
 10
226.8566402555128
 20
33.96572358474339
 30
0.0
 10
226.8566402555128
 20
33.96572358474339
 30
0.0
1001
ACAD
1000
RTTcAl
1070
-26105
1071
-1023410177
1000
$$NoName$$
  0
SPLINE
  5
15FD
330
A
100
AcDbEntity
  8
001
370
     9
100
AcDbSpline
210
0.0
220
0.0
230
1.0
 70
    24
 71
     3
 72
     8
 73
     4
 74
     0
 42
0.0000000001
 43
0.0000000001
 40
5.0
 40
5.0
 40
5.0
 40
5.0
 40
6.0
 40
6.0
 40
6.0
 40
6.0
 10
226.8566402555128
 20
33.96572358474339
 30
0.0
 10
226.8566402555128
 20
33.96572358474339
 30
0.0
 10
226.8566402555128
 20
33.9657304749389
 30
0.0
 10
226.8566402555128
 20
33.9657304749389
 30
0.0
1001
ACAD
1000
RTTcAl
1070
-26105
1071
-1023410177
1000
$$NoName$$
  0
SPLINE
  5
15FE
330
A
100
AcDbEntity
  8
001
370
     9
100
AcDbSpline
210
0.0
220
0.0
230
1.0
 70
    24
 71
     3
 72
     8
 73
     4
 74
     0
 42
0.0000000001
 43
0.0000000001
 40
6.0
 40
6.0
 40
6.0
 40
6.0
 40
7.0
 40
7.0
 40
7.0
 40
7.0
 10
226.8566402555128
 20
33.9657304749389
 30
0.0
 10
226.8566402555128
 20
33.9657304749389
 30
0.0
 10
226.8566402555128
 20
33.96573805415396
 30
0.0
 10
226.8566402555128
 20
33.96573805415396
 30
0.0
1001
ACAD
1000
RTTcAl
1070
-26105
1071
-1023410177
1000
$$NoName$$
  0
SPLINE
  5
15FF
330
A
100
AcDbEntity
  8
001
370
     9
100
AcDbSpline
210
0.0
220
0.0
230
1.0
 70
    24
 71
     3
 72
     8
 73
     4
 74
     0
 42
0.0000000001
 43
0.0000000001
 40
7.0
 40
7.0
 40
7.0
 40
7.0
 40
8.0
 40
8.0
 40
8.0
 40
8.0
 10
226.8566402555128
 20
33.96573805415396
 30
0.0
 10
226.8566402555128
 20
33.96573805415396
 30
0.0
 10
226.8566357768857
 20
33.96574770042769
 30
0.0
 10
226.8566357768857
 20
33.96574770042769
 30
0.0
1001
ACAD
1000
RTTcAl
1070
-26105
1071
-1023410177
1000
$$NoName$$
  0
SPLINE
  5
1600
330
A
100
AcDbEntity
  8
001
370
     9
100
AcDbSpline
210
0.0
220
0.0
230
1.0
 70
    24
 71
     3
 72
     8
 73
     4
 74
     0
 42
0.0000000001
 43
0.0000000001
 40
8.0
 40
8.0
 40
8.0
 40
8.0
 40
9.0
 40
9.0
 40
9.0
 40
9.0
 10
226.8566357768857
 20
33.96574770042769
 30
0.0
 10
226.8566357768857
 20
33.96574770042769
 30
0.0
 10
226.8566278531608
 20
33.96574770042769
 30
0.0
 10
226.8566278531608
 20
33.96574770042769
 30
0.0
1001
ACAD
1000
RTTcAl
1070
-26105
1071
-1023410177
1000
$$NoName$$
  0
SPLINE
  5
1601
330
A
100
AcDbEntity
  8
001
370
     9
100
AcDbSpline
210
0.0
220
0.0
230
1.0
 70
    24
 71
     3
 72
     8
 73
     4
 74
     0
 42
0.0000000001
 43
0.0000000001
 40
9.0
 40
9.0
 40
9.0
 40
9.0
 40
10.0
 40
10.0
 40
10.0
 40
10.0
 10
226.8566278531608
 20
33.96574770042769
 30
0.0
 10
226.8566278531608
 20
33.96574770042769
 30
0.0
 10
226.8566278531608
 20
33.9657731941511
 30
0.0
 10
226.8566278531608
 20
33.9657731941511
 30
0.0
1001
ACAD
1000
RTTcAl
1070
-26105
1071
-1023410177
1000
$$NoName$$
  0
SPLINE
  5
1602
330
A
100
AcDbEntity
  8
001
370
     9
100
AcDbSpline
210
0.0
220
0.0
230
1.0
 70
    24
 71
     3
 72
     8
 73
     4
 74
     0
 42
0.0000000001
 43
0.0000000001
 40
10.0
 40
10.0
 40
10.0
 40
10.0
 40
11.0
 40
11.0
 40
11.0
 40
11.0
 10
226.8566278531608
 20
33.9657731941511
 30
0.0
 10
226.8566278531608
 20
33.9657731941511
 30
0.0
 10
226.856619929436
 20
33.96577526120975
 30
0.0
 10
226.856619929436
 20
33.96577526120975
 30
0.0
1001
ACAD
1000
RTTcAl
1070
-26105
1071
-1023410177
1000
$$NoName$$
  0
SPLINE
  5
1603
330
A
100
AcDbEntity
  8
001
370
     9
100
AcDbSpline
210
0.0
220
0.0
230
1.0
 70
    24
 71
     3
 72
     8
 73
     4
 74
     0
 42
0.0000000001
 43
0.0000000001
 40
11.0
 40
11.0
 40
11.0
 40
11.0
 40
12.0
 40
12.0
 40
12.0
 40
12.0
 10
226.856619929436
 20
33.96577526120975
 30
0.0
 10
226.856619929436
 20
33.96577526120975
 30
0.0
 10
226.856619929436
 20
33.96578421846392
 30
0.0
 10
226.856619929436
 20
33.96578421846392
 30
0.0
1001
ACAD
1000
RTTcAl
1070
-26105
1071
-1023410177
1000
$$NoName$$
  0
SPLINE
  5
1604
330
A
100
AcDbEntity
  8
001
370
     9
100
AcDbSpline
210
0.0
220
0.0
230
1.0
 70
    24
 71
     3
 72
     8
 73
     4
 74
     0
 42
0.0000000001
 43
0.0000000001
 40
12.0
 40
12.0
 40
12.0
 40
12.0
 40
13.0
 40
13.0
 40
13.0
 40
13.0
 10
226.856619929436
 20
33.96578421846392
 30
0.0
 10
226.856619929436
 20
33.96578421846392
 30
0.0
 10
226.8566144172796
 20
33.96578421846392
 30
0.0
 10
226.8566144172796
 20
33.96578421846392
 30
0.0
1001
ACAD
1000
RTTcAl
1070
-26105
1071
-1023410177
1000
$$NoName$$
  0
SPLINE
  5
1605
330
A
100
AcDbEntity
  8
001
370
     9
100
AcDbSpline
210
0.0
220
0.0
230
1.0
 70
    24
 71
     3
 72
     8
 73
     4
 74
     0
 42
0.0000000001
 43
0.0000000001
 40
13.0
 40
13.0
 40
13.0
 40
13.0
 40
14.0
 40
14.0
 40
14.0
 40
14.0
 10
226.8566144172796
 20
33.96578421846392
 30
0.0
 10
226.8566144172796
 20
33.96578421846392
 30
0.0
 10
226.8566144172796
 20
33.9657973098354
 30
0.0
 10
226.8566144172796
 20
33.9657973098354
 30
0.0
1001
ACAD
1000
RTTcAl
1070
-26105
1071
-1023410177
1000
$$NoName$$
  0
SPLINE
  5
1606
330
A
100
AcDbEntity
  8
001
370
     9
100
AcDbSpline
210
0.0
220
0.0
230
1.0
 70
    24
 71
     3
 72
     8
 73
     4
 74
     0
 42
0.0000000001
 43
0.0000000001
 40
14.0
 40
14.0
 40
14.0
 40
14.0
 40
15.0
 40
15.0
 40
15.0
 40
15.0
 10
226.8566144172796
 20
33.9657973098354
 30
0.0
 10
226.8566144172796
 20
33.9657973098354
 30
0.0
 10
226.8566109721818
 20
33.96581177924598
 30
0.0
 10
226.8566109721818
 20
33.96581177924598
 30
0.0
1001
ACAD
1000
RTTcAl
1070
-26105
1071
-1023410177
1000
$$NoName$$
  0
SPLINE
  5
1607
330
A
100
AcDbEntity
  8
001
370
     9
100
AcDbSpline
210
0.0
220
0.0
230
1.0
 70
    24
 71
     3
 72
     8
 73
     4
 74
     0
 42
0.0000000001
 43
0.0000000001
 40
15.0
 40
15.0
 40
15.0
 40
15.0
 40
16.0
 40
16.0
 40
16.0
 40
16.0
 10
226.8566109721818
 20
33.96581177924598
 30
0.0
 10
226.8566109721818
 20
33.96581177924598
 30
0.0
 10
226.8566020149276
 20
33.96581798042195
 30
0.0
 10
226.8566020149276
 20
33.96581798042195
 30
0.0
1001
ACAD
1000
RTTcAl
1070
-26105
1071
-1023410177
1000
$$NoName$$
  0
SPLINE
  5
1608
330
A
100
AcDbEntity
  8
001
370
     9
100
AcDbSpline
210
0.0
220
0.0
230
1.0
 70
    24
 71
     3
 72
     8
 73
     4
 74
     0
 42
0.0000000001
 43
0.0000000001
 40
16.0
 40
16.0
 40
16.0
 40
16.0
 40
17.0
 40
17.0
 40
17.0
 40
17.0
 10
226.8566020149276
 20
33.96581798042195
 30
0.0
 10
226.8566020149276
 20
33.96581798042195
 30
0.0
 10
226.8566020149276
 20
33.96582418159791
 30
0.0
 10
226.8566020149276
 20
33.96582418159791
 30
0.0
1001
ACAD
1000
RTTcAl
1070
-26105
1071
-1023410177
1000
$$NoName$$
  0
SPLINE
  5
1609
330
A
100
AcDbEntity
  8
001
370
     9
100
AcDbSpline
210
0.0
220
0.0
230
1.0
 70
    24
 71
     3
 72
     8
 73
     4
 74
     0
 42
0.0000000001
 43
0.0000000001
 40
17.0
 40
17.0
 40
17.0
 40
17.0
 40
18.0
 40
18.0
 40
18.0
 40
18.0
 10
226.8566020149276
 20
33.96582418159791
 30
0.0
 10
226.8566020149276
 20
33.96582418159791
 30
0.0
 10
226.8565958137517
 20
33.96583520591074
 30
0.0
 10
226.8565958137517
 20
33.96583520591074
 30
0.0
1001
ACAD
1000
RTTcAl
1070
-26105
1071
-1023410177
1000
$$NoName$$
  0
SPLINE
  5
160A
330
A
100
AcDbEntity
  8
001
370
     9
100
AcDbSpline
210
0.0
220
0.0
230
1.0
 70
    24
 71
     3
 72
     8
 73
     4
 74
     0
 42
0.0000000001
 43
0.0000000001
 40
18.0
 40
18.0
 40
18.0
 40
18.0
 40
19.0
 40
19.0
 40
19.0
 40
19.0
 10
226.8565958137517
 20
33.96583520591074
 30
0.0
 10
226.8565958137517
 20
33.96583520591074
 30
0.0
 10
226.8565947802223
 20
33.96584347414536
 30
0.0
 10
226.8565947802223
 20
33.96584347414536
 30
0.0
1001
ACAD
1000
RTTcAl
1070
-26105
1071
-1023410177
1000
$$NoName$$
  0
SPLINE
  5
160B
330
A
100
AcDbEntity
  8
001
370
     9
100
AcDbSpline
210
0.0
220
0.0
230
1.0
 70
    24
 71
     3
 72
     8
 73
     4
 74
     0
 42
0.0000000001
 43
0.0000000001
 40
19.0
 40
19.0
 40
19.0
 40
19.0
 40
20.0
 40
20.0
 40
20.0
 40
20.0
 10
226.8565947802223
 20
33.96584347414536
 30
0.0
 10
226.8565947802223
 20
33.96584347414536
 30
0.0
 10
226.8565947802223
 20
33.96584829728222
 30
0.0
 10
226.8565947802223
 20
33.96584829728222
 30
0.0
1001
ACAD
1000
RTTcAl
1070
-26105
1071
-1023410177
1000
$$NoName$$
  0
LINE
  5
160C
330
A
100
AcDbEntity
  8
001
370
     9
100
AcDbLine
 10
226.9310998423751
 20
33.89134736924678
 30
0.0
 11
226.9310795162983
 21
33.89136114963782
 31
0.0
1001
ACAD
1000
RTTcAl
1070
-26105
1071
-1023410177
1000
$$NoName$$
  0
LINE
  5
160D
330
A
100
AcDbEntity
  8
001
370
     9
100
AcDbLine
 10
226.9310795162983
 20
33.89136114963782
 30
0.0
 11
226.9310740041419
 21
33.89136114963782
 31
0.0
1001
ACAD
1000
RTTcAl
1070
-26105
1071
-1023410177
1000
$$NoName$$
  0
LINE
  5
160E
330
A
100
AcDbEntity
  8
001
370
     9
100
AcDbLine
 10
226.9310740041419
 20
33.89136114963782
 30
0.0
 11
226.9310598792411
 21
33.89136321669647
 31
0.0
1001
ACAD
1000
RTTcAl
1070
-26105
1071
-1023410177
1000
$$NoName$$
  0
LINE
  5
160F
330
A
100
AcDbEntity
  8
001
370
     9
100
AcDbLine
 10
226.9310598792411
 20
33.89136321669647
 30
0.0
 11
226.9310533335554
 21
33.89136321669647
 31
0.0
1001
ACAD
1000
RTTcAl
1070
-26105
1071
-1023410177
1000
$$NoName$$
  0
LINE
  5
1610
330
A
100
AcDbEntity
  8
001
370
     9
100
AcDbLine
 10
226.9310533335554
 20
33.89136321669647
 30
0.0
 11
226.9310395531643
 21
33.8913742410093
 31
0.0
1001
ACAD
1000
RTTcAl
1070
-26105
1071
-1023410177
1000
$$NoName$$
  0
LINE
  5
1611
330
A
100
AcDbEntity
  8
001
370
     9
100
AcDbLine
 10
226.9310395531643
 20
33.8913742410093
 30
0.0
 11
226.9310250837537
 21
33.8913742410093
 31
0.0
1001
ACAD
1000
RTTcAl
1070
-26105
1071
-1023410177
1000
$$NoName$$
  0
LINE
  5
1612
330
A
100
AcDbEntity
  8
001
370
     9
100
AcDbLine
 10
226.9310250837537
 20
33.8913742410093
 30
0.0
 11
226.9310130259116
 21
33.89138319826347
 31
0.0
1001
ACAD
1000
RTTcAl
1070
-26105
1071
-1023410177
1000
$$NoName$$
  0
LINE
  5
1613
330
A
100
AcDbEntity
  8
001
370
     9
100
AcDbLine
 10
226.9310130259116
 20
33.89138319826347
 30
0.0
 11
226.9310054466965
 21
33.89138319826347
 31
0.0
1001
ACAD
1000
RTTcAl
1070
-26105
1071
-1023410177
1000
$$NoName$$
  0
LINE
  5
1614
330
A
100
AcDbEntity
  8
001
370
     9
100
AcDbLine
 10
226.9310054466965
 20
33.89138319826347
 30
0.0
 11
226.9309916663055
 21
33.89139353355674
 31
0.0
1001
ACAD
1000
RTTcAl
1070
-26105
1071
-1023410177
1000
$$NoName$$
  0
LINE
  5
1615
330
A
100
AcDbEntity
  8
001
370
     9
100
AcDbLine
 10
226.9309916663055
 20
33.89139353355674
 30
0.0
 11
226.9309606604257
 21
33.89139353355674
 31
0.0
1001
ACAD
1000
RTTcAl
1070
-26105
1071
-1023410177
1000
$$NoName$$
  0
LINE
  5
1616
330
A
100
AcDbEntity
  8
001
370
     9
100
AcDbLine
 10
226.9309606604257
 20
33.89139353355674
 30
0.0
 11
226.9309530812106
 21
33.89140042375226
 31
0.0
1001
ACAD
1000
RTTcAl
1070
-26105
1071
-1023410177
1000
$$NoName$$
  0
LINE
  5
1617
330
A
100
AcDbEntity
  8
001
370
     9
100
AcDbLine
 10
226.9309530812106
 20
33.89140042375226
 30
0.0
 11
226.9309382672902
 21
33.89140938100643
 31
0.0
1001
ACAD
1000
RTTcAl
1070
-26105
1071
-1023410177
1000
$$NoName$$
  0
LINE
  5
1618
330
A
100
AcDbEntity
  8
001
370
     9
100
AcDbLine
 10
226.9309382672902
 20
33.89140938100643
 30
0.0
 11
226.9309272429774
 21
33.89140938100643
 31
0.0
1001
ACAD
1000
RTTcAl
1070
-26105
1071
-1023410177
1000
$$NoName$$
  0
LINE
  5
1619
330
A
100
AcDbEntity
  8
001
370
     9
100
AcDbLine
 10
226.9309272429774
 20
33.89140938100643
 30
0.0
 11
226.9309189747428
 21
33.89141902728015
 31
0.0
1001
ACAD
1000
RTTcAl
1070
-26105
1071
-1023410177
1000
$$NoName$$
  0
LINE
  5
161A
330
A
100
AcDbEntity
  8
001
370
     9
100
AcDbLine
 10
226.9309189747428
 20
33.89141902728015
 30
0.0
 11
226.9309131180766
 21
33.89141902728015
 31
0.0
1001
ACAD
1000
RTTcAl
1070
-26105
1071
-1023410177
1000
$$NoName$$
  0
LINE
  5
161B
330
A
100
AcDbEntity
  8
001
370
     9
100
AcDbLine
 10
226.9309131180766
 20
33.87771029428168
 30
0.0
 11
226.9309189747428
 21
33.87771029428168
 31
0.0
1001
ACAD
1000
RTTcAl
1070
-26105
1071
-1023410177
1000
$$NoName$$
  0
LINE
  5
161C
330
A
100
AcDbEntity
  8
001
370
     9
100
AcDbLine
 10
226.9309189747428
 20
33.87771029428168
 30
0.0
 11
226.9309268984676
 21
33.87772269663361
 31
0.0
1001
ACAD
1000
RTTcAl
1070
-26105
1071
-1023410177
1000
$$NoName$$
  0
LINE
  5
161D
330
A
100
AcDbEntity
  8
001
370
     9
100
AcDbLine
 10
226.9309268984676
 20
33.87772269663361
 30
0.0
 11
226.9309530812106
 21
33.87772269663361
 31
0.0
1001
ACAD
1000
RTTcAl
1070
-26105
1071
-1023410177
1000
$$NoName$$
  0
LINE
  5
161E
330
A
100
AcDbEntity
  8
001
370
     9
100
AcDbLine
 10
226.9309530812106
 20
33.87772269663361
 30
0.0
 11
226.9309606604257
 21
33.87773096486823
 31
0.0
1001
ACAD
1000
RTTcAl
1070
-26105
1071
-1023410177
1000
$$NoName$$
  0
LINE
  5
161F
330
A
100
AcDbEntity
  8
001
370
     9
100
AcDbLine
 10
226.9309606604257
 20
33.87773096486823
 30
0.0
 11
226.930981675522
 21
33.87773096486823
 31
0.0
1001
ACAD
1000
RTTcAl
1070
-26105
1071
-1023410177
1000
$$NoName$$
  0
LINE
  5
1620
330
A
100
AcDbEntity
  8
001
370
     9
100
AcDbLine
 10
226.930981675522
 20
33.87773096486823
 30
0.0
 11
226.9309916663055
 21
33.87773372094644
 31
0.0
1001
ACAD
1000
RTTcAl
1070
-26105
1071
-1023410177
1000
$$NoName$$
  0
LINE
  5
1621
330
A
100
AcDbEntity
  8
001
370
     9
100
AcDbLine
 10
226.9309916663055
 20
33.87773372094644
 30
0.0
 11
226.9310075137552
 21
33.87773372094644
 31
0.0
1001
ACAD
1000
RTTcAl
1070
-26105
1071
-1023410177
1000
$$NoName$$
  0
LINE
  5
1622
330
A
100
AcDbEntity
  8
001
370
     9
100
AcDbLine
 10
226.9310075137552
 20
33.87773372094644
 30
0.0
 11
226.9310130259116
 21
33.87774474525926
 31
0.0
1001
ACAD
1000
RTTcAl
1070
-26105
1071
-1023410177
1000
$$NoName$$
  0
LINE
  5
1623
330
A
100
AcDbEntity
  8
001
370
     9
100
AcDbLine
 10
226.9310130259116
 20
33.87774474525926
 30
0.0
 11
226.9310250837537
 21
33.87774474525926
 31
0.0
1001
ACAD
1000
RTTcAl
1070
-26105
1071
-1023410177
1000
$$NoName$$
  0
LINE
  5
1624
330
A
100
AcDbEntity
  8
001
370
     9
100
AcDbLine
 10
226.9310250837537
 20
33.87774474525926
 30
0.0
 11
226.9310395531643
 21
33.87775370251343
 31
0.0
1001
ACAD
1000
RTTcAl
1070
-26105
1071
-1023410177
1000
$$NoName$$
  0
LINE
  5
1625
330
A
100
AcDbEntity
  8
001
370
     9
100
AcDbLine
 10
226.9310395531643
 20
33.87775370251343
 30
0.0
 11
226.9310533335554
 21
33.87775370251343
 31
0.0
1001
ACAD
1000
RTTcAl
1070
-26105
1071
-1023410177
1000
$$NoName$$
  0
LINE
  5
1626
330
A
100
AcDbEntity
  8
001
370
     9
100
AcDbLine
 10
226.9310533335554
 20
33.87775370251343
 30
0.0
 11
226.9310533335554
 21
33.87775852565029
 31
0.0
1001
ACAD
1000
RTTcAl
1070
-26105
1071
-1023410177
1000
$$NoName$$
  0
LINE
  5
1627
330
A
100
AcDbEntity
  8
001
370
     9
100
AcDbLine
 10
226.9310533335554
 20
33.87775852565029
 30
0.0
 11
226.9310598792411
 21
33.87775852565029
 31
0.0
1001
ACAD
1000
RTTcAl
1070
-26105
1071
-1023410177
1000
$$NoName$$
  0
LINE
  5
1628
330
A
100
AcDbEntity
  8
001
370
     9
100
AcDbLine
 10
226.9310598792411
 20
33.87775852565029
 30
0.0
 11
226.9310740041419
 21
33.87776954996311
 31
0.0
1001
ACAD
1000
RTTcAl
1070
-26105
1071
-1023410177
1000
$$NoName$$
  0
LINE
  5
1629
330
A
100
AcDbEntity
  8
001
370
     9
100
AcDbLine
 10
226.9310740041419
 20
33.87776954996311
 30
0.0
 11
226.9310998423751
 21
33.87776954996311
 31
0.0
1001
ACAD
1000
RTTcAl
1070
-26105
1071
-1023410177
1000
$$NoName$$
  0
SPLINE
  5
162A
330
A
100
AcDbEntity
  8
001
370
     9
100
AcDbSpline
210
0.0
220
0.0
230
1.0
 70
     8
 71
     3
 72
     8
 73
     4
 74
     0
 42
0.0000000001
 43
0.0000000001
 40
0.0
 40
0.0
 40
0.0
 40
0.0
 40
1.0
 40
1.0
 40
1.0
 40
1.0
 10
226.7685036305513
 20
33.8777626597676
 30
0.0
 10
226.7681250143077
 20
33.88227987194784
 30
0.0
 10
226.7681250143077
 20
33.88682257785148
 30
0.0
 10
226.7685036305513
 20
33.89134736924678
 30
0.0
1001
ACAD
1000
RTTcAl
1070
-26105
1071
-1023410177
1000
$$NoName$$
  0
SPLINE
  5
162B
330
A
100
AcDbEntity
  8
001
370
     9
100
AcDbSpline
210
0.0
220
0.0
230
1.0
 70
    24
 71
     3
 72
     8
 73
     4
 74
     0
 42
0.0000000001
 43
0.0000000001
 40
1.0
 40
1.0
 40
1.0
 40
1.0
 40
2.0
 40
2.0
 40
2.0
 40
2.0
 10
226.7685036305513
 20
33.89134736924678
 30
0.0
 10
226.7685036305513
 20
33.89134736924678
 30
0.0
 10
226.7714181832546
 20
33.89141213708464
 30
0.0
 10
226.7714181832546
 20
33.89141213708464
 30
0.0
1001
ACAD
1000
RTTcAl
1070
-26105
1071
-1023410177
1000
$$NoName$$
  0
SPLINE
  5
162C
330
A
100
AcDbEntity
  8
001
370
     9
100
AcDbSpline
210
0.0
220
0.0
230
1.0
 70
     8
 71
     3
 72
     8
 73
     4
 74
     0
 42
0.0000000001
 43
0.0000000001
 40
2.0
 40
2.0
 40
2.0
 40
2.0
 40
3.0
 40
3.0
 40
3.0
 40
3.0
 10
226.7714181832546
 20
33.89141213708464
 30
0.0
 10
226.7747451141594
 20
33.92944257123476
 30
0.0
 10
226.8049083230695
 20
33.95961267034031
 30
0.0
 10
226.8429422023173
 20
33.96293718967674
 30
0.0
1001
ACAD
1000
RTTcAl
1070
-26105
1071
-1023410177
1000
$$NoName$$
  0
LINE
  5
162D
330
A
100
AcDbEntity
  8
001
370
     9
100
AcDbLine
 10
226.9170479776399
 20
33.65150795293153
 30
0.0
 11
226.9170479776399
 21
33.73707522398508
 31
0.0
1001
ACAD
1000
RTTcAl
1070
-26105
1071
-1023410177
1000
$$NoName$$
  0
LINE
  5
162E
330
A
100
AcDbEntity
  8
001
370
     9
100
AcDbLine
 10
226.9377953898677
 20
33.59926786856893
 30
0.0
 11
226.9377953898677
 21
33.53059082390461
 31
0.0
1001
ACAD
1000
RTTcAl
1070
-26105
1071
-1023410177
1000
$$NoName$$
  0
LINE
  5
162F
330
A
100
AcDbEntity
  8
001
370
     9
100
AcDbLine
 10
226.9377953898677
 20
33.59926786856893
 30
0.0
 11
226.9377953898677
 21
33.53059082390461
 31
0.0
1001
ACAD
1000
RTTcAl
1070
-26105
1071
-1023410177
1000
$$NoName$$
  0
LINE
  5
1630
330
A
100
AcDbEntity
  8
001
370
     9
100
AcDbLine
 10
227.1231121278794
 20
33.71931161092549
 30
0.0
 11
227.2222737546859
 21
33.71931161092549
 31
0.0
1001
ACAD
1000
RTTcAl
1070
-26105
1071
-1023410177
1000
$$NoName$$
  0
LINE
  5
1631
330
A
100
AcDbEntity
  8
001
370
     9
100
AcDbLine
 10
227.1339524724847
 20
33.65312611534844
 30
0.0
 11
227.10923596313
 21
33.65312611534844
 31
0.0
1001
ACAD
1000
RTTcAl
1070
-26105
1071
-1023410177
1000
$$NoName$$
  0
LINE
  5
1632
330
A
100
AcDbEntity
  8
001
370
     9
100
AcDbLine
 10
227.1245177277647
 20
33.65312611534844
 30
0.0
 11
227.1339524724847
 21
33.65312611534844
 31
0.0
1001
ACAD
1000
RTTcAl
1070
-26105
1071
-1023410177
1000
$$NoName$$
  0
LINE
  5
1633
330
A
100
AcDbEntity
  8
001
370
     9
100
AcDbLine
 10
227.1245177277647
 20
33.65312611534844
 30
0.0
 11
227.1339524724847
 21
33.65312611534844
 31
0.0
1001
ACAD
1000
RTTcAl
1070
-26105
1071
-1023410177
1000
$$NoName$$
  0
LINE
  5
1634
330
A
100
AcDbEntity
  8
001
370
     9
100
AcDbLine
 10
227.1087336678768
 20
33.65312611534844
 30
0.0
 11
227.1210175084426
 21
33.65312611534844
 31
0.0
1001
ACAD
1000
RTTcAl
1070
-26105
1071
-1023410177
1000
$$NoName$$
  0
LINE
  5
1635
330
A
100
AcDbEntity
  8
001
370
     9
100
AcDbLine
 10
227.132535159267
 20
33.65312611534844
 30
0.0
 11
227.120240983408
 21
33.65312611534844
 31
0.0
1001
ACAD
1000
RTTcAl
1070
-26105
1071
-1023410177
1000
$$NoName$$
  0
LINE
  5
1636
330
A
100
AcDbEntity
  8
001
370
     9
100
AcDbLine
 10
227.1206351025915
 20
33.66425481463598
 30
0.0
 11
227.10898998315
 21
33.66425481463598
 31
0.0
1001
ACAD
1000
RTTcAl
1070
-26105
1071
-1023410177
1000
$$NoName$$
  0
LINE
  5
1637
330
A
100
AcDbEntity
  8
001
370
     9
100
AcDbLine
 10
227.1326660729818
 20
33.66425481463598
 30
0.0
 11
227.132401489474
 21
33.66451388598738
 31
0.0
1001
ACAD
1000
RTTcAl
1070
-26105
1071
-1023410177
1000
$$NoName$$
  0
LINE
  5
1638
330
A
100
AcDbEntity
  8
001
370
     9
100
AcDbLine
 10
227.1206351025915
 20
33.66425481463598
 30
0.0
 11
227.1326708961187
 21
33.66425481463598
 31
0.0
1001
ACAD
1000
RTTcAl
1070
-26105
1071
-1023410177
1000
$$NoName$$
  0
LINE
  5
1639
330
A
100
AcDbEntity
  8
001
370
     9
100
AcDbLine
 10
227.1329272113919
 20
33.653510932768
 30
0.0
 11
227.1329272113919
 21
33.66237895890677
 31
0.0
1001
ACAD
1000
RTTcAl
1070
-26105
1071
-1023410177
1000
$$NoName$$
  0
LINE
  5
163A
330
A
100
AcDbEntity
  8
001
370
     9
100
AcDbLine
 10
227.1329272113919
 20
33.653510932768
 30
0.0
 11
227.1206351025915
 21
33.653510932768
 31
0.0
1001
ACAD
1000
RTTcAl
1070
-26105
1071
-1023410177
1000
$$NoName$$
  0
LINE
  5
163B
330
A
100
AcDbEntity
  8
001
370
     9
100
AcDbLine
 10
227.132535159267
 20
33.65312611534844
 30
0.0
 11
227.1329272113919
 21
33.65351058825822
 31
0.0
1001
ACAD
1000
RTTcAl
1070
-26105
1071
-1023410177
1000
$$NoName$$
  0
LINE
  5
163C
330
A
100
AcDbEntity
  8
001
370
     9
100
AcDbLine
 10
227.1083457498693
 20
33.653510932768
 30
0.0
 11
227.1206309684742
 21
33.653510932768
 31
0.0
1001
ACAD
1000
RTTcAl
1070
-26105
1071
-1023410177
1000
$$NoName$$
  0
LINE
  5
163D
330
A
100
AcDbEntity
  8
001
370
     9
100
AcDbLine
 10
227.1087336678768
 20
33.65312611534844
 30
0.0
 11
227.1083457498693
 21
33.65351058825822
 31
0.0
1001
ACAD
1000
RTTcAl
1070
-26105
1071
-1023410177
1000
$$NoName$$
  0
LINE
  5
163E
330
A
100
AcDbEntity
  8
001
370
     9
100
AcDbLine
 10
227.140033759047
 20
33.67058621529555
 30
0.0
 11
227.1206351025915
 21
33.67058621529555
 31
0.0
1001
ACAD
1000
RTTcAl
1070
-26105
1071
-1023410177
1000
$$NoName$$
  0
LINE
  5
163F
330
A
100
AcDbEntity
  8
001
370
     9
100
AcDbLine
 10
227.1397698645587
 20
33.67084804272516
 30
0.0
 11
227.140033759047
 21
33.67058621529555
 31
0.0
1001
ACAD
1000
RTTcAl
1070
-26105
1071
-1023410177
1000
$$NoName$$
  0
LINE
  5
1640
330
A
100
AcDbEntity
  8
001
370
     9
100
AcDbLine
 10
227.101236446136
 20
33.67058621529555
 30
0.0
 11
227.1206309684742
 21
33.67058621529555
 31
0.0
1001
ACAD
1000
RTTcAl
1070
-26105
1071
-1023410177
1000
$$NoName$$
  0
LINE
  5
1641
330
A
100
AcDbEntity
  8
001
370
     9
100
AcDbLine
 10
227.1014851821941
 20
33.67084804272516
 30
0.0
 11
227.1012267998622
 21
33.67058621529555
 31
0.0
1001
ACAD
1000
RTTcAl
1070
-26105
1071
-1023410177
1000
$$NoName$$
  0
LINE
  5
1642
330
A
100
AcDbEntity
  8
001
370
     9
100
AcDbLine
 10
227.1393936598836
 20
33.6893454616072
 30
0.0
 11
227.1206309684742
 21
33.6893454616072
 31
0.0
1001
ACAD
1000
RTTcAl
1070
-26105
1071
-1023410177
1000
$$NoName$$
  0
LINE
  5
1643
330
A
100
AcDbEntity
  8
001
370
     9
100
AcDbLine
 10
227.1391332104931
 20
33.6896059109977
 30
0.0
 11
227.1393936598836
 21
33.6893454616072
 31
0.0
1001
ACAD
1000
RTTcAl
1070
-26105
1071
-1023410177
1000
$$NoName$$
  0
LINE
  5
1644
330
A
100
AcDbEntity
  8
001
370
     9
100
AcDbLine
 10
227.1018820574558
 20
33.6893454616072
 30
0.0
 11
227.1206351025915
 21
33.6893454616072
 31
0.0
1001
ACAD
1000
RTTcAl
1070
-26105
1071
-1023410177
1000
$$NoName$$
  0
LINE
  5
1645
330
A
100
AcDbEntity
  8
001
370
     9
100
AcDbLine
 10
227.1021342386117
 20
33.6896059109977
 30
0.0
 11
227.1018772343189
 21
33.6893454616072
 31
0.0
1001
ACAD
1000
RTTcAl
1070
-26105
1071
-1023410177
1000
$$NoName$$
  0
LINE
  5
1646
330
A
100
AcDbEntity
  8
001
370
     9
100
AcDbLine
 10
227.1391332104931
 20
33.69219696902146
 30
0.0
 11
227.1393936598836
 21
33.69193720865051
 31
0.0
1001
ACAD
1000
RTTcAl
1070
-26105
1071
-1023410177
1000
$$NoName$$
  0
LINE
  5
1647
330
A
100
AcDbEntity
  8
001
370
     9
100
AcDbLine
 10
227.1393936598836
 20
33.69192962943545
 30
0.0
 11
227.1206309684742
 21
33.69192962943545
 31
0.0
1001
ACAD
1000
RTTcAl
1070
-26105
1071
-1023410177
1000
$$NoName$$
  0
LINE
  5
1648
330
A
100
AcDbEntity
  8
001
370
     9
100
AcDbLine
 10
227.1018820574558
 20
33.691930318455
 30
0.0
 11
227.1206351025915
 21
33.69192962943545
 31
0.0
1001
ACAD
1000
RTTcAl
1070
-26105
1071
-1023410177
1000
$$NoName$$
  0
LINE
  5
1649
330
A
100
AcDbEntity
  8
001
370
     9
100
AcDbLine
 10
227.1021342386117
 20
33.69219696902146
 30
0.0
 11
227.1018772343189
 21
33.69193720865051
 31
0.0
1001
ACAD
1000
RTTcAl
1070
-26105
1071
-1023410177
1000
$$NoName$$
  0
LINE
  5
164A
330
A
100
AcDbEntity
  8
001
370
     9
100
AcDbLine
 10
227.1206351025915
 20
33.69219696902146
 30
0.0
 11
227.1021342386117
 21
33.69219696902146
 31
0.0
1001
ACAD
1000
RTTcAl
1070
-26105
1071
-1023410177
1000
$$NoName$$
  0
LINE
  5
164B
330
A
100
AcDbEntity
  8
001
370
     9
100
AcDbLine
 10
227.1076925593344
 20
33.66411873327454
 30
0.0
 11
227.1076925593344
 21
33.6689046630799
 31
0.0
1001
ACAD
1000
RTTcAl
1070
-26105
1071
-1023410177
1000
$$NoName$$
  0
LINE
  5
164C
330
A
100
AcDbEntity
  8
001
370
     9
100
AcDbLine
 10
227.0947624184292
 20
33.6685174340919
 30
0.0
 11
227.0945026580583
 21
33.6685174340919
 31
0.0
1001
ACAD
1000
RTTcAl
1070
-26105
1071
-1023410177
1000
$$NoName$$
  0
LINE
  5
164D
330
A
100
AcDbEntity
  8
001
370
     9
100
AcDbLine
 10
227.0947624184292
 20
33.66192144992451
 30
0.0
 11
227.0947624184292
 21
33.66890500758967
 31
0.0
1001
ACAD
1000
RTTcAl
1070
-26105
1071
-1023410177
1000
$$NoName$$
  0
LINE
  5
164E
330
A
100
AcDbEntity
  8
001
370
     9
100
AcDbLine
 10
227.1057584814531
 20
33.66411873327454
 30
0.0
 11
227.1048469085863
 21
33.66411873327454
 31
0.0
1001
ACAD
1000
RTTcAl
1070
-26105
1071
-1023410177
1000
$$NoName$$
  0
LINE
  5
164F
330
A
100
AcDbEntity
  8
001
370
     9
100
AcDbLine
 10
227.1076925593344
 20
33.66411873327454
 30
0.0
 11
227.1057584814531
 21
33.66411873327454
 31
0.0
1001
ACAD
1000
RTTcAl
1070
-26105
1071
-1023410177
1000
$$NoName$$
  0
LINE
  5
1650
330
A
100
AcDbEntity
  8
001
370
     9
100
AcDbLine
 10
227.1076925593344
 20
33.66799343472291
 30
0.0
 11
227.1048469085863
 21
33.66799343472291
 31
0.0
1001
ACAD
1000
RTTcAl
1070
-26105
1071
-1023410177
1000
$$NoName$$
  0
LINE
  5
1651
330
A
100
AcDbEntity
  8
001
370
     9
100
AcDbLine
 10
227.1076925593344
 20
33.6689046630799
 30
0.0
 11
227.1057584814531
 21
33.6689046630799
 31
0.0
1001
ACAD
1000
RTTcAl
1070
-26105
1071
-1023410177
1000
$$NoName$$
  0
LINE
  5
1652
330
A
100
AcDbEntity
  8
001
370
     9
100
AcDbLine
 10
227.1045878372349
 20
33.66437435952818
 30
0.0
 11
227.1045878372349
 21
33.66774676572345
 31
0.0
1001
ACAD
1000
RTTcAl
1070
-26105
1071
-1023410177
1000
$$NoName$$
  0
LINE
  5
1653
330
A
100
AcDbEntity
  8
001
370
     9
100
AcDbLine
 10
227.1079633440181
 20
33.65662013349456
 30
0.0
 11
227.0945088592342
 21
33.65662013349456
 31
0.0
1001
ACAD
1000
RTTcAl
1070
-26105
1071
-1023410177
1000
$$NoName$$
  0
LINE
  5
1654
330
A
100
AcDbEntity
  8
001
370
     9
100
AcDbLine
 10
227.1079633440181
 20
33.66192144992451
 30
0.0
 11
227.0947624184292
 21
33.66192144992451
 31
0.0
1001
ACAD
1000
RTTcAl
1070
-26105
1071
-1023410177
1000
$$NoName$$
  0
LINE
  5
1655
330
A
100
AcDbEntity
  8
001
370
     9
100
AcDbLine
 10
227.1076925593344
 20
33.6689046630799
 30
0.0
 11
227.0947624184292
 21
33.6689046630799
 31
0.0
1001
ACAD
1000
RTTcAl
1070
-26105
1071
-1023410177
1000
$$NoName$$
  0
LINE
  5
1656
330
A
100
AcDbEntity
  8
001
370
     9
100
AcDbLine
 10
227.1086034431816
 20
33.66262735045511
 30
0.0
 11
227.1086034431816
 21
33.66393166446628
 31
0.0
1001
ACAD
1000
RTTcAl
1070
-26105
1071
-1023410177
1000
$$NoName$$
  0
LINE
  5
1657
330
A
100
AcDbEntity
  8
001
370
     9
100
AcDbLine
 10
227.1076925593344
 20
33.66399436524547
 30
0.0
 11
227.1087336678768
 21
33.66399436524547
 31
0.0
1001
ACAD
1000
RTTcAl
1070
-26105
1071
-1023410177
1000
$$NoName$$
  0
LINE
  5
1658
330
A
100
AcDbEntity
  8
001
370
     9
100
AcDbLine
 10
227.1086034431816
 20
33.66399436524547
 30
0.0
 11
227.1086034431816
 21
33.66392925289785
 31
0.0
1001
ACAD
1000
RTTcAl
1070
-26105
1071
-1023410177
1000
$$NoName$$
  0
LINE
  5
1659
330
A
100
AcDbEntity
  8
001
370
     9
100
AcDbLine
 10
227.10923596313
 20
33.66450837383097
 30
0.0
 11
227.1087336678768
 21
33.66399436524547
 31
0.0
1001
ACAD
1000
RTTcAl
1070
-26105
1071
-1023410177
1000
$$NoName$$
  0
LINE
  5
165A
330
A
100
AcDbEntity
  8
001
370
     9
100
AcDbLine
 10
227.1083457498693
 20
33.6623713796917
 30
0.0
 11
227.1086034431816
 21
33.66262735045511
 31
0.0
1001
ACAD
1000
RTTcAl
1070
-26105
1071
-1023410177
1000
$$NoName$$
  0
LINE
  5
165B
330
A
100
AcDbEntity
  8
001
370
     9
100
AcDbLine
 10
227.1084801086819
 20
33.66865110388491
 30
0.0
 11
227.1084801086819
 21
33.66917062462681
 31
0.0
1001
ACAD
1000
RTTcAl
1070
-26105
1071
-1023410177
1000
$$NoName$$
  0
LINE
  5
165C
330
A
100
AcDbEntity
  8
001
370
     9
100
AcDbLine
 10
227.1084801086819
 20
33.66865110388491
 30
0.0
 11
227.1076925593344
 21
33.66865110388491
 31
0.0
1001
ACAD
1000
RTTcAl
1070
-26105
1071
-1023410177
1000
$$NoName$$
  0
LINE
  5
165D
330
A
100
AcDbEntity
  8
001
370
     9
100
AcDbLine
 10
227.1076925593344
 20
33.66399436524547
 30
0.0
 11
227.1076925593344
 21
33.66865110388491
 31
0.0
1001
ACAD
1000
RTTcAl
1070
-26105
1071
-1023410177
1000
$$NoName$$
  0
LINE
  5
165E
330
A
100
AcDbEntity
  8
001
370
     9
100
AcDbLine
 10
227.1083457498693
 20
33.653510932768
 30
0.0
 11
227.1083457498693
 21
33.66237895890677
 31
0.0
1001
ACAD
1000
RTTcAl
1070
-26105
1071
-1023410177
1000
$$NoName$$
  0
LINE
  5
165F
330
A
100
AcDbEntity
  8
001
370
     9
100
AcDbLine
 10
227.1084801086819
 20
33.66917062462681
 30
0.0
 11
227.101236446136
 21
33.66917062462681
 31
0.0
1001
ACAD
1000
RTTcAl
1070
-26105
1071
-1023410177
1000
$$NoName$$
  0
LINE
  5
1660
330
A
100
AcDbEntity
  8
001
370
     9
100
AcDbLine
 10
227.101236446136
 20
33.66917062462681
 30
0.0
 11
227.101236446136
 21
33.67058621529555
 31
0.0
1001
ACAD
1000
RTTcAl
1070
-26105
1071
-1023410177
1000
$$NoName$$
  0
LINE
  5
1661
330
A
100
AcDbEntity
  8
001
370
     9
100
AcDbLine
 10
227.1393936598836
 20
33.68022697686143
 30
0.0
 11
227.1393936598836
 21
33.6893454616072
 31
0.0
1001
ACAD
1000
RTTcAl
1070
-26105
1071
-1023410177
1000
$$NoName$$
  0
LINE
  5
1662
330
A
100
AcDbEntity
  8
001
370
     9
100
AcDbLine
 10
227.1326660729818
 20
33.66262735045511
 30
0.0
 11
227.1329265223723
 21
33.6623713796917
 31
0.0
1001
ACAD
1000
RTTcAl
1070
-26105
1071
-1023410177
1000
$$NoName$$
  0
LINE
  5
1663
330
A
100
AcDbEntity
  8
001
370
     9
100
AcDbLine
 10
227.1326660729818
 20
33.66425481463598
 30
0.0
 11
227.1326660729818
 21
33.66262735045511
 31
0.0
1001
ACAD
1000
RTTcAl
1070
-26105
1071
-1023410177
1000
$$NoName$$
  0
LINE
  5
1664
330
A
100
AcDbEntity
  8
001
370
     9
100
AcDbLine
 10
227.1386116226925
 20
33.67109884584194
 30
0.0
 11
227.1386116226925
 21
33.67083839645144
 31
0.0
1001
ACAD
1000
RTTcAl
1070
-26105
1071
-1023410177
1000
$$NoName$$
  0
LINE
  5
1665
330
A
100
AcDbEntity
  8
001
370
     9
100
AcDbLine
 10
227.140033759047
 20
33.67058621529555
 30
0.0
 11
227.140033759047
 21
33.66450837383097
 31
0.0
1001
ACAD
1000
RTTcAl
1070
-26105
1071
-1023410177
1000
$$NoName$$
  0
LINE
  5
1666
330
A
100
AcDbEntity
  8
001
370
     9
100
AcDbLine
 10
227.1387404693486
 20
33.6896059109977
 30
0.0
 11
227.1387404693486
 21
33.6898649823491
 31
0.0
1001
ACAD
1000
RTTcAl
1070
-26105
1071
-1023410177
1000
$$NoName$$
  0
LINE
  5
1667
330
A
100
AcDbEntity
  8
001
370
     9
100
AcDbLine
 10
227.1393936598836
 20
33.67109884584194
 30
0.0
 11
227.1393936598836
 21
33.67466521104098
 31
0.0
1001
ACAD
1000
RTTcAl
1070
-26105
1071
-1023410177
1000
$$NoName$$
  0
LINE
  5
1668
330
A
100
AcDbEntity
  8
001
370
     9
100
AcDbLine
 10
227.1393936598836
 20
33.68985671411448
 30
0.0
 11
227.1393936598836
 21
33.69192962943545
 31
0.0
1001
ACAD
1000
RTTcAl
1070
-26105
1071
-1023410177
1000
$$NoName$$
  0
LINE
  5
1669
330
A
100
AcDbEntity
  8
001
370
     9
100
AcDbLine
 10
227.1026558264122
 20
33.67084804272516
 30
0.0
 11
227.1026558264122
 21
33.67110711407656
 31
0.0
1001
ACAD
1000
RTTcAl
1070
-26105
1071
-1023410177
1000
$$NoName$$
  0
LINE
  5
166A
330
A
100
AcDbEntity
  8
001
370
     9
100
AcDbLine
 10
227.1025249126974
 20
33.6896059109977
 30
0.0
 11
227.1025249126974
 21
33.6898649823491
 31
0.0
1001
ACAD
1000
RTTcAl
1070
-26105
1071
-1023410177
1000
$$NoName$$
  0
LINE
  5
166B
330
A
100
AcDbEntity
  8
001
370
     9
100
AcDbLine
 10
227.1018820574558
 20
33.67109884584194
 30
0.0
 11
227.1018820574558
 21
33.6893454616072
 31
0.0
1001
ACAD
1000
RTTcAl
1070
-26105
1071
-1023410177
1000
$$NoName$$
  0
LINE
  5
166C
330
A
100
AcDbEntity
  8
001
370
     9
100
AcDbLine
 10
227.1018820574558
 20
33.68985671411448
 30
0.0
 11
227.1018820574558
 21
33.691930318455
 31
0.0
1001
ACAD
1000
RTTcAl
1070
-26105
1071
-1023410177
1000
$$NoName$$
  0
LINE
  5
166D
330
A
100
AcDbEntity
  8
001
370
     9
100
AcDbLine
 10
227.1391332104931
 20
33.6896059109977
 30
0.0
 11
227.1021342386117
 21
33.6896059109977
 31
0.0
1001
ACAD
1000
RTTcAl
1070
-26105
1071
-1023410177
1000
$$NoName$$
  0
LINE
  5
166E
330
A
100
AcDbEntity
  8
001
370
     9
100
AcDbLine
 10
227.1393936598836
 20
33.68985671411448
 30
0.0
 11
227.1018772343189
 21
33.68985671411448
 31
0.0
1001
ACAD
1000
RTTcAl
1070
-26105
1071
-1023410177
1000
$$NoName$$
  0
LINE
  5
166F
330
A
100
AcDbEntity
  8
001
370
     9
100
AcDbLine
 10
227.1329272113919
 20
33.6623713796917
 30
0.0
 11
227.108347816928
 21
33.6623713796917
 31
0.0
1001
ACAD
1000
RTTcAl
1070
-26105
1071
-1023410177
1000
$$NoName$$
  0
LINE
  5
1670
330
A
100
AcDbEntity
  8
001
370
     9
100
AcDbLine
 10
227.1326660729818
 20
33.66262735045511
 30
0.0
 11
227.1086034431816
 21
33.66262735045511
 31
0.0
1001
ACAD
1000
RTTcAl
1070
-26105
1071
-1023410177
1000
$$NoName$$
  0
LINE
  5
1671
330
A
100
AcDbEntity
  8
001
370
     9
100
AcDbLine
 10
227.10923596313
 20
33.66450837383097
 30
0.0
 11
227.140033759047
 21
33.66450837383097
 31
0.0
1001
ACAD
1000
RTTcAl
1070
-26105
1071
-1023410177
1000
$$NoName$$
  0
LINE
  5
1672
330
A
100
AcDbEntity
  8
001
370
     9
100
AcDbLine
 10
227.1397698645587
 20
33.67084804272516
 30
0.0
 11
227.1014851821941
 21
33.67084804272516
 31
0.0
1001
ACAD
1000
RTTcAl
1070
-26105
1071
-1023410177
1000
$$NoName$$
  0
LINE
  5
1673
330
A
100
AcDbEntity
  8
001
370
     9
100
AcDbLine
 10
227.1393936598836
 20
33.67109884584194
 30
0.0
 11
227.1018772343189
 21
33.67109884584194
 31
0.0
1001
ACAD
1000
RTTcAl
1070
-26105
1071
-1023410177
1000
$$NoName$$
  0
LINE
  5
1674
330
A
100
AcDbEntity
  8
001
370
     9
100
AcDbLine
 10
227.1336934011333
 20
33.66121520488412
 30
0.0
 11
227.132922388255
 21
33.66121520488412
 31
0.0
1001
ACAD
1000
RTTcAl
1070
-26105
1071
-1023410177
1000
$$NoName$$
  0
LINE
  5
1675
330
A
100
AcDbEntity
  8
001
370
     9
100
AcDbLine
 10
227.1336934011333
 20
33.65565240553435
 30
0.0
 11
227.132922388255
 21
33.65565240553435
 31
0.0
1001
ACAD
1000
RTTcAl
1070
-26105
1071
-1023410177
1000
$$NoName$$
  0
LINE
  5
1676
330
A
100
AcDbEntity
  8
001
370
     9
100
AcDbLine
 10
227.1336934011333
 20
33.65565240553435
 30
0.0
 11
227.1336934011333
 21
33.66121623841346
 31
0.0
1001
ACAD
1000
RTTcAl
1070
-26105
1071
-1023410177
1000
$$NoName$$
  0
LINE
  5
1677
330
A
100
AcDbEntity
  8
001
370
     9
100
AcDbLine
 10
227.1401660508009
 20
33.67466521104098
 30
0.0
 11
227.1393936598836
 21
33.67466521104098
 31
0.0
1001
ACAD
1000
RTTcAl
1070
-26105
1071
-1023410177
1000
$$NoName$$
  0
LINE
  5
1678
330
A
100
AcDbEntity
  8
001
370
     9
100
AcDbLine
 10
227.1401660508009
 20
33.67466521104098
 30
0.0
 11
227.1401660508009
 21
33.68022697686143
 31
0.0
1001
ACAD
1000
RTTcAl
1070
-26105
1071
-1023410177
1000
$$NoName$$
  0
LINE
  5
1679
330
A
100
AcDbEntity
  8
001
370
     9
100
AcDbLine
 10
227.1401660508009
 20
33.68022697686143
 30
0.0
 11
227.1393936598836
 21
33.68022697686143
 31
0.0
1001
ACAD
1000
RTTcAl
1070
-26105
1071
-1023410177
1000
$$NoName$$
  0
LINE
  5
167A
330
A
100
AcDbEntity
  8
001
370
     5
100
AcDbLine
 10
227.1490936771309
 20
33.65842777628816
 30
0.0
 11
227.1340875203168
 21
33.65842777628816
 31
0.0
1001
ACAD
1000
RTTcAl
1070
-26105
1071
-1023410177
1000
$$NoName$$
  0
LINE
  5
167B
330
A
100
AcDbEntity
  8
001
370
     5
100
AcDbLine
 10
227.1490936771309
 20
33.67744402689255
 30
0.0
 11
227.1405553468476
 21
33.67744402689255
 31
0.0
1001
ACAD
1000
RTTcAl
1070
-26105
1071
-1023410177
1000
$$NoName$$
  0
LINE
  5
167C
330
A
100
AcDbEntity
  8
001
370
     9
100
AcDbLine
 10
227.1340820081603
 20
33.65842777628816
 30
0.0
 11
227.1340820081603
 21
33.6558353402253
 31
0.0
1001
ACAD
1000
RTTcAl
1070
-26105
1071
-1023410177
1000
$$NoName$$
  0
LINE
  5
167D
330
A
100
AcDbEntity
  8
001
370
     9
100
AcDbLine
 10
227.1336934011333
 20
33.65930627621644
 30
0.0
 11
227.1340820081603
 21
33.65930627621644
 31
0.0
1001
ACAD
1000
RTTcAl
1070
-26105
1071
-1023410177
1000
$$NoName$$
  0
LINE
  5
167E
330
A
100
AcDbEntity
  8
001
370
     9
100
AcDbLine
 10
227.1336934011333
 20
33.65755444400652
 30
0.0
 11
227.1340820081603
 21
33.65755444400652
 31
0.0
1001
ACAD
1000
RTTcAl
1070
-26105
1071
-1023410177
1000
$$NoName$$
  0
LINE
  5
167F
330
A
100
AcDbEntity
  8
001
370
     9
100
AcDbLine
 10
227.1340820081603
 20
33.66101986784125
 30
0.0
 11
227.1340820081603
 21
33.65842777628816
 31
0.0
1001
ACAD
1000
RTTcAl
1070
-26105
1071
-1023410177
1000
$$NoName$$
  0
LINE
  5
1680
330
A
100
AcDbEntity
  8
001
370
     5
100
AcDbLine
 10
227.1490936771309
 20
33.66101986784125
 30
0.0
 11
227.1490936771309
 21
33.65583499571553
 31
0.0
1001
ACAD
1000
RTTcAl
1070
-26105
1071
-1023410177
1000
$$NoName$$
  0
LINE
  5
1681
330
A
100
AcDbEntity
  8
001
370
     5
100
AcDbLine
 10
227.1490936771309
 20
33.66036943338455
 30
0.0
 11
227.1340875203168
 21
33.66036943338455
 31
0.0
1001
ACAD
1000
RTTcAl
1070
-26105
1071
-1023410177
1000
$$NoName$$
  0
LINE
  5
1682
330
A
100
AcDbEntity
  8
001
370
     5
100
AcDbLine
 10
227.1490936771309
 20
33.65946371718399
 30
0.0
 11
227.1340875203168
 21
33.65946371718399
 31
0.0
1001
ACAD
1000
RTTcAl
1070
-26105
1071
-1023410177
1000
$$NoName$$
  0
LINE
  5
1683
330
A
100
AcDbEntity
  8
001
370
     5
100
AcDbLine
 10
227.1490936771309
 20
33.65739734754876
 30
0.0
 11
227.1340875203168
 21
33.65739734754876
 31
0.0
1001
ACAD
1000
RTTcAl
1070
-26105
1071
-1023410177
1000
$$NoName$$
  0
LINE
  5
1684
330
A
100
AcDbEntity
  8
001
370
     5
100
AcDbLine
 10
227.1340820081603
 20
33.66101986784125
 30
0.0
 11
227.1490895430136
 21
33.66101986784125
 31
0.0
1001
ACAD
1000
RTTcAl
1070
-26105
1071
-1023410177
1000
$$NoName$$
  0
LINE
  5
1685
330
A
100
AcDbEntity
  8
001
370
     5
100
AcDbLine
 10
227.1490936771309
 20
33.65648646370155
 30
0.0
 11
227.1340875203168
 21
33.65648646370155
 31
0.0
1001
ACAD
1000
RTTcAl
1070
-26105
1071
-1023410177
1000
$$NoName$$
  0
LINE
  5
1686
330
A
100
AcDbEntity
  8
001
370
     5
100
AcDbLine
 10
227.1340820081603
 20
33.6558353402253
 30
0.0
 11
227.1490895430136
 21
33.6558353402253
 31
0.0
1001
ACAD
1000
RTTcAl
1070
-26105
1071
-1023410177
1000
$$NoName$$
  0
LINE
  5
1687
330
A
100
AcDbEntity
  8
001
370
     5
100
AcDbLine
 10
227.149603551599
 20
33.65842777628816
 30
0.0
 11
227.149603551599
 21
33.65636175116271
 31
0.0
1001
ACAD
1000
RTTcAl
1070
-26105
1071
-1023410177
1000
$$NoName$$
  0
LINE
  5
1688
330
A
100
AcDbEntity
  8
001
370
     5
100
AcDbLine
 10
227.149603551599
 20
33.66049896906025
 30
0.0
 11
227.149603551599
 21
33.65842777628816
 31
0.0
1001
ACAD
1000
RTTcAl
1070
-26105
1071
-1023410177
1000
$$NoName$$
  0
LINE
  5
1689
330
A
100
AcDbEntity
  8
001
370
     5
100
AcDbLine
 10
227.149603551599
 20
33.66049896906025
 30
0.0
 11
227.1490936771309
 21
33.66101986784125
 31
0.0
1001
ACAD
1000
RTTcAl
1070
-26105
1071
-1023410177
1000
$$NoName$$
  0
LINE
  5
168A
330
A
100
AcDbEntity
  8
001
370
     5
100
AcDbLine
 10
227.149603551599
 20
33.65636175116271
 30
0.0
 11
227.1490936771309
 21
33.6558353402253
 31
0.0
1001
ACAD
1000
RTTcAl
1070
-26105
1071
-1023410177
1000
$$NoName$$
  0
LINE
  5
168B
330
A
100
AcDbEntity
  8
001
370
     9
100
AcDbLine
 10
227.1401660508009
 20
33.6765693165718
 30
0.0
 11
227.1405553468476
 21
33.6765693165718
 31
0.0
1001
ACAD
1000
RTTcAl
1070
-26105
1071
-1023410177
1000
$$NoName$$
  0
LINE
  5
168C
330
A
100
AcDbEntity
  8
001
370
     5
100
AcDbLine
 10
227.1490936771309
 20
33.67550271430594
 30
0.0
 11
227.1405553468476
 21
33.67550271430594
 31
0.0
1001
ACAD
1000
RTTcAl
1070
-26105
1071
-1023410177
1000
$$NoName$$
  0
LINE
  5
168D
330
A
100
AcDbEntity
  8
001
370
     5
100
AcDbLine
 10
227.1490936771309
 20
33.67641118658471
 30
0.0
 11
227.1405553468476
 21
33.67641118658471
 31
0.0
1001
ACAD
1000
RTTcAl
1070
-26105
1071
-1023410177
1000
$$NoName$$
  0
LINE
  5
168E
330
A
100
AcDbEntity
  8
001
370
     5
100
AcDbLine
 10
227.1405553468476
 20
33.67486399318162
 30
0.0
 11
227.1490936771309
 21
33.67486399318162
 31
0.0
1001
ACAD
1000
RTTcAl
1070
-26105
1071
-1023410177
1000
$$NoName$$
  0
LINE
  5
168F
330
A
100
AcDbEntity
  8
001
370
     9
100
AcDbLine
 10
227.1405553468476
 20
33.68003887452385
 30
0.0
 11
227.1405553468476
 21
33.67744368238278
 31
0.0
1001
ACAD
1000
RTTcAl
1070
-26105
1071
-1023410177
1000
$$NoName$$
  0
LINE
  5
1690
330
A
100
AcDbEntity
  8
001
370
     5
100
AcDbLine
 10
227.1490936771309
 20
33.67938671751827
 30
0.0
 11
227.1405553468476
 21
33.67938671751827
 31
0.0
1001
ACAD
1000
RTTcAl
1070
-26105
1071
-1023410177
1000
$$NoName$$
  0
LINE
  5
1691
330
A
100
AcDbEntity
  8
001
370
     5
100
AcDbLine
 10
227.1405553468476
 20
33.68003887452385
 30
0.0
 11
227.1490936771309
 21
33.68003887452385
 31
0.0
1001
ACAD
1000
RTTcAl
1070
-26105
1071
-1023410177
1000
$$NoName$$
  0
LINE
  5
1692
330
A
100
AcDbEntity
  8
001
370
     5
100
AcDbLine
 10
227.1490936771309
 20
33.67848685798389
 30
0.0
 11
227.1405553468476
 21
33.67848685798389
 31
0.0
1001
ACAD
1000
RTTcAl
1070
-26105
1071
-1023410177
1000
$$NoName$$
  0
LINE
  5
1693
330
A
100
AcDbEntity
  8
001
370
     9
100
AcDbLine
 10
227.1401660508009
 20
33.67831839270352
 30
0.0
 11
227.1405553468476
 21
33.67831839270352
 31
0.0
1001
ACAD
1000
RTTcAl
1070
-26105
1071
-1023410177
1000
$$NoName$$
  0
LINE
  5
1694
330
A
100
AcDbEntity
  8
001
370
     5
100
AcDbLine
 10
227.1490936771309
 20
33.68003887452385
 30
0.0
 11
227.1490936771309
 21
33.67486364867184
 31
0.0
1001
ACAD
1000
RTTcAl
1070
-26105
1071
-1023410177
1000
$$NoName$$
  0
LINE
  5
1695
330
A
100
AcDbEntity
  8
001
370
     9
100
AcDbLine
 10
227.1405553468476
 20
33.67744402689255
 30
0.0
 11
227.1405553468476
 21
33.67486399318162
 31
0.0
1001
ACAD
1000
RTTcAl
1070
-26105
1071
-1023410177
1000
$$NoName$$
  0
LINE
  5
1696
330
A
100
AcDbEntity
  8
001
370
     5
100
AcDbLine
 10
227.149603551599
 20
33.67951900927216
 30
0.0
 11
227.149603551599
 21
33.67744368238278
 31
0.0
1001
ACAD
1000
RTTcAl
1070
-26105
1071
-1023410177
1000
$$NoName$$
  0
LINE
  5
1697
330
A
100
AcDbEntity
  8
001
370
     5
100
AcDbLine
 10
227.149603551599
 20
33.67744402689255
 30
0.0
 11
227.149603551599
 21
33.67537593470844
 31
0.0
1001
ACAD
1000
RTTcAl
1070
-26105
1071
-1023410177
1000
$$NoName$$
  0
LINE
  5
1698
330
A
100
AcDbEntity
  8
001
370
     5
100
AcDbLine
 10
227.149603551599
 20
33.67951900927216
 30
0.0
 11
227.1490936771309
 21
33.68003887452385
 31
0.0
1001
ACAD
1000
RTTcAl
1070
-26105
1071
-1023410177
1000
$$NoName$$
  0
LINE
  5
1699
330
A
100
AcDbEntity
  8
001
370
     5
100
AcDbLine
 10
227.149603551599
 20
33.6753752456889
 30
0.0
 11
227.1490936771309
 21
33.67486364867184
 31
0.0
1001
ACAD
1000
RTTcAl
1070
-26105
1071
-1023410177
1000
$$NoName$$
  0
LINE
  5
169A
330
A
100
AcDbEntity
  8
001
370
     9
100
AcDbLine
 10
227.1206351025915
 20
33.69219696902146
 30
0.0
 11
227.1391332104931
 21
33.69219696902146
 31
0.0
1001
ACAD
1000
RTTcAl
1070
-26105
1071
-1023410177
1000
$$NoName$$
  0
LINE
  5
169B
330
A
100
AcDbEntity
  8
001
370
     9
100
AcDbLine
 10
227.1339524724847
 20
33.65312611534844
 30
0.0
 11
227.1339524724847
 21
33.65026392813113
 31
0.0
1001
ACAD
1000
RTTcAl
1070
-26105
1071
-1023410177
1000
$$NoName$$
  0
LINE
  5
169C
330
A
100
AcDbEntity
  8
001
370
     9
100
AcDbLine
 10
227.1339524724847
 20
33.65312611534844
 30
0.0
 11
227.1339524724847
 21
33.65026392813113
 31
0.0
1001
ACAD
1000
RTTcAl
1070
-26105
1071
-1023410177
1000
$$NoName$$
  0
LINE
  5
169D
330
A
100
AcDbEntity
  8
001
370
     9
100
AcDbLine
 10
227.1296874414603
 20
33.65312611534844
 30
0.0
 11
227.1296874414603
 21
33.65026392813113
 31
0.0
1001
ACAD
1000
RTTcAl
1070
-26105
1071
-1023410177
1000
$$NoName$$
  0
LINE
  5
169E
330
A
100
AcDbEntity
  8
001
370
     9
100
AcDbLine
 10
227.1296874414603
 20
33.6513787617656
 30
0.0
 11
227.1335686885944
 21
33.6513787617656
 31
0.0
1001
ACAD
1000
RTTcAl
1070
-26105
1071
-1023410177
1000
$$NoName$$
  0
LINE
  5
169F
330
A
100
AcDbEntity
  8
001
370
     9
100
AcDbLine
 10
227.1339524724847
 20
33.65176564624382
 30
0.0
 11
227.1335686885944
 21
33.65137945078515
 31
0.0
1001
ACAD
1000
RTTcAl
1070
-26105
1071
-1023410177
1000
$$NoName$$
  0
LINE
  5
16A0
330
A
100
AcDbEntity
  8
001
370
     9
100
AcDbLine
 10
227.1335686885944
 20
33.6513787617656
 30
0.0
 11
227.1335686885944
 21
33.6502642726409
 31
0.0
1001
ACAD
1000
RTTcAl
1070
-26105
1071
-1023410177
1000
$$NoName$$
  0
LINE
  5
16A1
330
A
100
AcDbEntity
  8
001
370
     9
100
AcDbLine
 10
227.1296874414603
 20
33.65312611534844
 30
0.0
 11
227.1296874414603
 21
33.65026392813113
 31
0.0
1001
ACAD
1000
RTTcAl
1070
-26105
1071
-1023410177
1000
$$NoName$$
  0
LINE
  5
16A2
330
A
100
AcDbEntity
  8
001
370
     9
100
AcDbLine
 10
227.111580696664
 20
33.65312611534844
 30
0.0
 11
227.111580696664
 21
33.65026392813113
 31
0.0
1001
ACAD
1000
RTTcAl
1070
-26105
1071
-1023410177
1000
$$NoName$$
  0
LINE
  5
16A3
330
A
100
AcDbEntity
  8
001
370
     9
100
AcDbLine
 10
227.10923596313
 20
33.65312611534844
 30
0.0
 11
227.10923596313
 21
33.65026392813113
 31
0.0
1001
ACAD
1000
RTTcAl
1070
-26105
1071
-1023410177
1000
$$NoName$$
  0
LINE
  5
16A4
330
A
100
AcDbEntity
  8
001
370
     9
100
AcDbLine
 10
227.1079633440181
 20
33.66399436524547
 30
0.0
 11
227.1079633440181
 21
33.65026392813113
 31
0.0
1001
ACAD
1000
RTTcAl
1070
-26105
1071
-1023410177
1000
$$NoName$$
  0
LINE
  5
16A5
330
A
100
AcDbEntity
  8
001
370
     9
100
AcDbLine
 10
227.1128657181277
 20
33.65130813726156
 30
0.0
 11
227.1128657181277
 21
33.65312645985822
 31
0.0
1001
ACAD
1000
RTTcAl
1070
-26105
1071
-1023410177
1000
$$NoName$$
  0
LINE
  5
16A6
330
A
100
AcDbEntity
  8
001
370
     9
100
AcDbLine
 10
227.1152118297009
 20
33.65130813726156
 30
0.0
 11
227.1152118297009
 21
33.65312645985822
 31
0.0
1001
ACAD
1000
RTTcAl
1070
-26105
1071
-1023410177
1000
$$NoName$$
  0
LINE
  5
16A7
330
A
100
AcDbEntity
  8
001
370
     9
100
AcDbLine
 10
227.1146826626853
 20
33.65312611534844
 30
0.0
 11
227.1146826626853
 21
33.65130779275179
 31
0.0
1001
ACAD
1000
RTTcAl
1070
-26105
1071
-1023410177
1000
$$NoName$$
  0
LINE
  5
16A8
330
A
100
AcDbEntity
  8
001
370
     9
100
AcDbLine
 10
227.111580696664
 20
33.6502642726409
 30
0.0
 11
227.111580696664
 21
33.65312645985822
 31
0.0
1001
ACAD
1000
RTTcAl
1070
-26105
1071
-1023410177
1000
$$NoName$$
  0
LINE
  5
16A9
330
A
100
AcDbEntity
  8
001
370
     9
100
AcDbLine
 10
227.0945026580583
 20
33.6685174340919
 30
0.0
 11
227.0945026580583
 21
33.64997729599766
 31
0.0
1001
ACAD
1000
RTTcAl
1070
-26105
1071
-1023410177
1000
$$NoName$$
  0
SPLINE
  5
16AA
330
A
100
AcDbEntity
  8
001
370
     9
100
AcDbSpline
210
0.0
220
0.0
230
1.0
 70
     8
 71
     3
 72
     8
 73
     4
 74
     0
 42
0.0000000001
 43
0.0000000001
 40
0.0
 40
0.0
 40
0.0
 40
0.0
 40
1.0
 40
1.0
 40
1.0
 40
1.0
 10
226.8531996363819
 20
33.80306260508176
 30
0.0
 10
226.8630057626402
 20
33.80347463877361
 30
0.0
 10
226.8726506583234
 20
33.80563678212651
 30
0.0
 10
226.8816809485665
 20
33.80946841985291
 30
0.0
1001
ACAD
1000
RTTcAl
1070
-26105
1071
-1023410177
1000
$$NoName$$
  0
SPLINE
  5
16AB
330
A
100
AcDbEntity
  8
001
370
     9
100
AcDbSpline
210
0.0
220
0.0
230
1.0
 70
     8
 71
     3
 72
     8
 73
     4
 74
     0
 42
0.0000000001
 43
0.0000000001
 40
0.0
 40
0.0
 40
0.0
 40
0.0
 40
1.0
 40
1.0
 40
1.0
 40
1.0
 10
226.768693110928
 20
33.87771029428168
 30
0.0
 10
226.7720238314404
 20
33.83816470613761
 30
0.0
 10
226.8034035043688
 20
33.80679502399273
 30
0.0
 10
226.8429418578076
 20
33.80345259014796
 30
0.0
1001
ACAD
1000
RTTcAl
1070
-26105
1071
-1023410177
1000
$$NoName$$
  0
SPLINE
  5
16AC
330
A
100
AcDbEntity
  8
001
370
     9
100
AcDbSpline
210
0.0
220
0.0
230
1.0
 70
     8
 71
     3
 72
     8
 73
     4
 74
     0
 42
0.0000000001
 43
0.0000000001
 40
0.0
 40
0.0
 40
0.0
 40
0.0
 40
1.0
 40
1.0
 40
1.0
 40
1.0
 10
226.8430049030965
 20
33.80326310977127
 30
0.0
 10
226.8441352396709
 20
33.80317215919046
 30
0.0
 10
226.8452724664408
 20
33.80310601331351
 30
0.0
 10
226.8464003914468
 20
33.80305433684714
 30
0.0
1001
ACAD
1000
RTTcAl
1070
-26105
1071
-1023410177
1000
$$NoName$$
  0
SPLINE
  5
16AD
330
A
100
AcDbEntity
  8
001
370
     9
100
AcDbSpline
210
0.0
220
0.0
230
1.0
 70
     8
 71
     3
 72
     8
 73
     4
 74
     0
 42
0.0000000001
 43
0.0000000001
 40
0.0
 40
0.0
 40
0.0
 40
0.0
 40
1.0
 40
1.0
 40
1.0
 40
1.0
 10
226.7714185277643
 20
33.87771029428168
 30
0.0
 10
226.774745803179
 20
33.83967228091649
 30
0.0
 10
226.804909012089
 20
33.80950769396735
 30
0.0
 10
226.8429418578076
 20
33.80618110757226
 30
0.0
1001
ACAD
1000
RTTcAl
1070
-26105
1071
-1023410177
1000
$$NoName$$
  0
SPLINE
  5
16AE
330
A
100
AcDbEntity
  8
001
370
     9
100
AcDbSpline
210
0.0
220
0.0
230
1.0
 70
     8
 71
     3
 72
     8
 73
     4
 74
     0
 42
0.0000000001
 43
0.0000000001
 40
0.0
 40
0.0
 40
0.0
 40
0.0
 40
1.0
 40
1.0
 40
1.0
 40
1.0
 10
226.8464034920348
 20
33.80291446587817
 30
0.0
 10
226.848674155967
 20
33.80282489333646
 30
0.0
 10
226.850940685782
 20
33.80282489333646
 30
0.0
 10
226.8532096271654
 20
33.80291446587817
 30
0.0
1001
ACAD
1000
RTTcAl
1070
-26105
1071
-1023410177
1000
$$NoName$$
  0
SPLINE
  5
16AF
330
A
100
AcDbEntity
  8
001
370
     9
100
AcDbSpline
210
0.0
220
0.0
230
1.0
 70
     8
 71
     3
 72
     8
 73
     4
 74
     0
 42
0.0000000001
 43
0.0000000001
 40
0.0
 40
0.0
 40
0.0
 40
0.0
 40
1.0
 40
1.0
 40
1.0
 40
1.0
 10
226.8464034920348
 20
33.80447096104521
 30
0.0
 10
226.8485656353877
 20
33.80348359602778
 30
0.0
 10
226.8510474838125
 20
33.80348359602778
 30
0.0
 10
226.8532096271654
 20
33.80447096104521
 30
0.0
1001
ACAD
1000
RTTcAl
1070
-26105
1071
-1023410177
1000
$$NoName$$
  0
SPLINE
  5
16B0
330
A
100
AcDbEntity
  8
001
370
     9
100
AcDbSpline
210
0.0
220
0.0
230
1.0
 70
    11
 71
     3
 72
    17
 73
    13
 74
     0
 42
0.0000000001
 43
0.0000000001
 40
0.0
 40
0.0
 40
0.0
 40
0.0
 40
1.0
 40
1.0
 40
1.0
 40
2.0
 40
2.0
 40
2.0
 40
3.0
 40
3.0
 40
3.0
 40
4.0
 40
4.0
 40
4.0
 40
4.0
 10
226.8726888989085
 20
33.81436528180607
 30
0.0
 10
226.8726888989085
 20
33.8166052843683
 30
0.0
 10
226.870862652587
 20
33.81843049716047
 30
0.0
 10
226.8686178268878
 20
33.81843049716047
 30
0.0
 10
226.8663640439346
 20
33.81843049716047
 30
0.0
 10
226.8645415872206
 20
33.8166052843683
 30
0.0
 10
226.8645415872206
 20
33.81436528180607
 30
0.0
 10
226.8645415872206
 20
33.81211080983327
 30
0.0
 10
226.8663640439346
 20
33.81027870684558
 30
0.0
 10
226.8686178268878
 20
33.81027870684558
 30
0.0
 10
226.870862652587
 20
33.81027870684558
 30
0.0
 10
226.8726888989085
 20
33.81211080983327
 30
0.0
 10
226.8726888989085
 20
33.81436528180607
 30
0.0
1001
ACAD
1000
RTTcAl
1070
-26105
1071
-1023410177
1000
$$NoName$$
  0
SPLINE
  5
16B1
330
A
100
AcDbEntity
  8
001
370
     9
100
AcDbSpline
210
0.0
220
0.0
230
1.0
 70
    11
 71
     3
 72
    17
 73
    13
 74
     0
 42
0.0000000001
 43
0.0000000001
 40
0.0
 40
0.0
 40
0.0
 40
0.0
 40
1.0
 40
1.0
 40
1.0
 40
2.0
 40
2.0
 40
2.0
 40
3.0
 40
3.0
 40
3.0
 40
4.0
 40
4.0
 40
4.0
 40
4.0
 10
226.8014608137431
 20
33.93594347070403
 30
0.0
 10
226.8014608137431
 20
33.93763225762498
 30
0.0
 10
226.8000962105211
 20
33.93899789437623
 30
0.0
 10
226.7984067345806
 20
33.93899789437623
 30
0.0
 10
226.7967186366792
 20
33.93899789437623
 30
0.0
 10
226.7953471432618
 20
33.93763225762498
 30
0.0
 10
226.7953471432618
 20
33.93594347070403
 30
0.0
 10
226.7953471432618
 20
33.93425675084173
 30
0.0
 10
226.7967186366792
 20
33.93289111409047
 30
0.0
 10
226.7984067345806
 20
33.93289111409047
 30
0.0
 10
226.8000962105211
 20
33.93289111409047
 30
0.0
 10
226.8014608137431
 20
33.93425675084173
 30
0.0
 10
226.8014608137431
 20
33.93594347070403
 30
0.0
1001
ACAD
1000
RTTcAl
1070
-26105
1071
-1023410177
1000
$$NoName$$
  0
SPLINE
  5
16B2
330
A
100
AcDbEntity
  8
001
370
     9
100
AcDbSpline
210
0.0
220
0.0
230
1.0
 70
    11
 71
     3
 72
    17
 73
    13
 74
     0
 42
0.0000000001
 43
0.0000000001
 40
0.0
 40
0.0
 40
0.0
 40
0.0
 40
1.0
 40
1.0
 40
1.0
 40
2.0
 40
2.0
 40
2.0
 40
3.0
 40
3.0
 40
3.0
 40
4.0
 40
4.0
 40
4.0
 40
4.0
 10
226.8037800535537
 20
33.93594347070403
 30
0.0
 10
226.8037800535537
 20
33.9389172790887
 30
0.0
 10
226.8013788204164
 20
33.94132540242151
 30
0.0
 10
226.7984063900708
 20
33.94132540242151
 30
0.0
 10
226.7954429169795
 20
33.94132540242151
 30
0.0
 10
226.793032726588
 20
33.9389172790887
 30
0.0
 10
226.793032726588
 20
33.93594347070403
 30
0.0
 10
226.793032726588
 20
33.93298068663218
 30
0.0
 10
226.7954429169795
 20
33.93058358761219
 30
0.0
 10
226.7984063900708
 20
33.93058358761219
 30
0.0
 10
226.8013788204164
 20
33.93058358761219
 30
0.0
 10
226.8037800535537
 20
33.93298068663218
 30
0.0
 10
226.8037800535537
 20
33.93594347070403
 30
0.0
1001
ACAD
1000
RTTcAl
1070
-26105
1071
-1023410177
1000
$$NoName$$
  0
SPLINE
  5
16B3
330
A
100
AcDbEntity
  8
001
370
     9
100
AcDbSpline
210
0.0
220
0.0
230
1.0
 70
    11
 71
     3
 72
    17
 73
    13
 74
     0
 42
0.0000000001
 43
0.0000000001
 40
0.0
 40
0.0
 40
0.0
 40
0.0
 40
1.0
 40
1.0
 40
1.0
 40
2.0
 40
2.0
 40
2.0
 40
3.0
 40
3.0
 40
3.0
 40
4.0
 40
4.0
 40
4.0
 40
4.0
 10
226.9042446163322
 20
33.83316724732992
 30
0.0
 10
226.9042446163322
 20
33.83485741228997
 30
0.0
 10
226.9028769125223
 20
33.83622167100212
 30
0.0
 10
226.9011888146209
 20
33.83622167100212
 30
0.0
 10
226.8994965826022
 20
33.83622167100212
 30
0.0
 10
226.8981292233021
 20
33.83485741228997
 30
0.0
 10
226.8981292233021
 20
33.83316724732992
 30
0.0
 10
226.8981292233021
 20
33.83148535060448
 30
0.0
 10
226.8994965826022
 20
33.83011764679457
 30
0.0
 10
226.9011888146209
 20
33.83011764679457
 30
0.0
 10
226.9028769125223
 20
33.83011764679457
 30
0.0
 10
226.9042446163322
 20
33.83148535060448
 30
0.0
 10
226.9042446163322
 20
33.83316724732992
 30
0.0
1001
ACAD
1000
RTTcAl
1070
-26105
1071
-1023410177
1000
$$NoName$$
  0
SPLINE
  5
16B4
330
A
100
AcDbEntity
  8
001
370
     9
100
AcDbSpline
210
0.0
220
0.0
230
1.0
 70
    11
 71
     3
 72
    17
 73
    13
 74
     0
 42
0.0000000001
 43
0.0000000001
 40
0.0
 40
0.0
 40
0.0
 40
0.0
 40
1.0
 40
1.0
 40
1.0
 40
2.0
 40
2.0
 40
2.0
 40
3.0
 40
3.0
 40
3.0
 40
4.0
 40
4.0
 40
4.0
 40
4.0
 10
226.8014608137431
 20
33.83316724732992
 30
0.0
 10
226.8014608137431
 20
33.83485741228997
 30
0.0
 10
226.8000962105211
 20
33.83622167100212
 30
0.0
 10
226.7984067345806
 20
33.83622167100212
 30
0.0
 10
226.7967186366792
 20
33.83622167100212
 30
0.0
 10
226.7953471432618
 20
33.83485741228997
 30
0.0
 10
226.7953471432618
 20
33.83316724732992
 30
0.0
 10
226.7953471432618
 20
33.83148535060448
 30
0.0
 10
226.7967186366792
 20
33.83011764679457
 30
0.0
 10
226.7984067345806
 20
33.83011764679457
 30
0.0
 10
226.8000962105211
 20
33.83011764679457
 30
0.0
 10
226.8014608137431
 20
33.83148535060448
 30
0.0
 10
226.8014608137431
 20
33.83316724732992
 30
0.0
1001
ACAD
1000
RTTcAl
1070
-26105
1071
-1023410177
1000
$$NoName$$
  0
SPLINE
  5
16B5
330
A
100
AcDbEntity
  8
001
370
     9
100
AcDbSpline
210
0.0
220
0.0
230
1.0
 70
    11
 71
     3
 72
    17
 73
    13
 74
     0
 42
0.0000000001
 43
0.0000000001
 40
0.0
 40
0.0
 40
0.0
 40
0.0
 40
1.0
 40
1.0
 40
1.0
 40
2.0
 40
2.0
 40
2.0
 40
3.0
 40
3.0
 40
3.0
 40
4.0
 40
4.0
 40
4.0
 40
4.0
 10
226.8037800535537
 20
33.83316724732992
 30
0.0
 10
226.8037800535537
 20
33.83614174473414
 30
0.0
 10
226.8013788204164
 20
33.83855124610605
 30
0.0
 10
226.7984063900708
 20
33.83855124610605
 30
0.0
 10
226.7954429169795
 20
33.83855124610605
 30
0.0
 10
226.793032726588
 20
33.83614174473414
 30
0.0
 10
226.793032726588
 20
33.83316724732992
 30
0.0
 10
226.793032726588
 20
33.83020584129718
 30
0.0
 10
226.7954429169795
 20
33.82778876071019
 30
0.0
 10
226.7984063900708
 20
33.82778876071019
 30
0.0
 10
226.8013788204164
 20
33.82778876071019
 30
0.0
 10
226.8037800535537
 20
33.83020584129718
 30
0.0
 10
226.8037800535537
 20
33.83316724732992
 30
0.0
1001
ACAD
1000
RTTcAl
1070
-26105
1071
-1023410177
1000
$$NoName$$
  0
SPLINE
  5
16B6
330
A
100
AcDbEntity
  8
001
370
     9
100
AcDbSpline
210
0.0
220
0.0
230
1.0
 70
    11
 71
     3
 72
    17
 73
    13
 74
     0
 42
0.0000000001
 43
0.0000000001
 40
0.0
 40
0.0
 40
0.0
 40
0.0
 40
1.0
 40
1.0
 40
1.0
 40
2.0
 40
2.0
 40
2.0
 40
3.0
 40
3.0
 40
3.0
 40
4.0
 40
4.0
 40
4.0
 40
4.0
 10
226.8552532591554
 20
33.81188136632259
 30
0.0
 10
226.8552532591554
 20
33.81489238176304
 30
0.0
 10
226.8528134409232
 20
33.81732875489747
 30
0.0
 10
226.8498075931294
 20
33.81732875489747
 30
0.0
 10
226.846793477101
 20
33.81732875489747
 30
0.0
 10
226.8443419455364
 20
33.81489238176304
 30
0.0
 10
226.8443419455364
 20
33.81188136632259
 30
0.0
 10
226.8443419455364
 20
33.80887172892123
 30
0.0
 10
226.846793477101
 20
33.80642639853263
 30
0.0
 10
226.8498075931294
 20
33.80642639853263
 30
0.0
 10
226.8528134409232
 20
33.80642639853263
 30
0.0
 10
226.8552532591554
 20
33.80887172892123
 30
0.0
 10
226.8552532591554
 20
33.81188136632259
 30
0.0
1001
ACAD
1000
RTTcAl
1070
-26105
1071
-1023410177
1000
$$NoName$$
  0
SPLINE
  5
16B7
330
A
100
AcDbEntity
  8
001
370
     9
100
AcDbSpline
210
0.0
220
0.0
230
1.0
 70
    11
 71
     3
 72
    17
 73
    13
 74
     0
 42
0.0000000001
 43
0.0000000001
 40
0.0
 40
0.0
 40
0.0
 40
0.0
 40
1.0
 40
1.0
 40
1.0
 40
2.0
 40
2.0
 40
2.0
 40
3.0
 40
3.0
 40
3.0
 40
4.0
 40
4.0
 40
4.0
 40
4.0
 10
226.9012449697144
 20
33.83316724732992
 30
0.0
 10
226.9012449697144
 20
33.83314313164561
 30
0.0
 10
226.9012187869714
 20
33.83312039400041
 30
0.0
 10
226.9011895036405
 20
33.83312039400041
 30
0.0
 10
226.9011598757998
 20
33.83312039400041
 30
0.0
 10
226.9011402387425
 20
33.83314313164561
 30
0.0
 10
226.9011402387425
 20
33.83316724732992
 30
0.0
 10
226.9011402387425
 20
33.83319274105332
 30
0.0
 10
226.9011598757998
 20
33.8332244359527
 30
0.0
 10
226.9011895036405
 20
33.8332244359527
 30
0.0
 10
226.9012187869714
 20
33.8332244359527
 30
0.0
 10
226.9012449697144
 20
33.83319274105332
 30
0.0
 10
226.9012449697144
 20
33.83316724732992
 30
0.0
1001
ACAD
1000
RTTcAl
1070
-26105
1071
-1023410177
1000
$$NoName$$
  0
SPLINE
  5
16B8
330
A
100
AcDbEntity
  8
001
370
     9
100
AcDbSpline
210
0.0
220
0.0
230
1.0
 70
    11
 71
     3
 72
    17
 73
    13
 74
     0
 42
0.0000000001
 43
0.0000000001
 40
0.0
 40
0.0
 40
0.0
 40
0.0
 40
1.0
 40
1.0
 40
1.0
 40
2.0
 40
2.0
 40
2.0
 40
3.0
 40
3.0
 40
3.0
 40
4.0
 40
4.0
 40
4.0
 40
4.0
 10
226.7984566884981
 20
33.93594347070403
 30
0.0
 10
226.7984566884981
 20
33.93592417815658
 30
0.0
 10
226.7984329173236
 20
33.93589248325721
 30
0.0
 10
226.7984067345806
 20
33.93589248325721
 30
0.0
 10
226.798378484779
 20
33.93589248325721
 30
0.0
 10
226.7983622928196
 20
33.93592417815658
 30
0.0
 10
226.7983622928196
 20
33.93594347070403
 30
0.0
 10
226.7983622928196
 20
33.93597723266205
 30
0.0
 10
226.798378484779
 20
33.93599514717039
 30
0.0
 10
226.7984067345806
 20
33.93599514717039
 30
0.0
 10
226.7984329173236
 20
33.93599514717039
 30
0.0
 10
226.7984566884981
 20
33.93597723266205
 30
0.0
 10
226.7984566884981
 20
33.93594347070403
 30
0.0
1001
ACAD
1000
RTTcAl
1070
-26105
1071
-1023410177
1000
$$NoName$$
  0
LINE
  5
16B9
330
A
100
AcDbEntity
  8
001
370
     9
100
AcDbLine
 10
226.9025430825496
 20
33.83316724732992
 30
0.0
 11
226.9568646949776
 21
33.83316724732992
 31
0.0
1001
ACAD
1000
RTTcAl
1070
-26105
1071
-1023410177
1000
$$NoName$$
  0
SPLINE
  5
16BA
330
A
100
AcDbEntity
  8
001
370
     9
100
AcDbSpline
210
0.0
220
0.0
230
1.0
 70
     8
 71
     3
 72
     8
 73
     4
 74
     0
 42
0.0000000001
 43
0.0000000001
 40
0.0
 40
0.0
 40
0.0
 40
0.0
 40
1.0
 40
1.0
 40
1.0
 40
1.0
 10
226.8531996363819
 20
33.80447096104521
 30
0.0
 10
226.8572827662446
 20
33.80635129540151
 30
0.0
 10
226.8590910980578
 20
33.81118752363413
 30
0.0
 10
226.8572107637015
 20
33.81528029977059
 30
0.0
1001
ACAD
1000
RTTcAl
1070
-26105
1071
-1023410177
1000
$$NoName$$
  0
SPLINE
  5
16BB
330
A
100
AcDbEntity
  8
001
370
     9
100
AcDbSpline
210
0.0
220
0.0
230
1.0
 70
     8
 71
     3
 72
     8
 73
     4
 74
     0
 42
0.0000000001
 43
0.0000000001
 40
1.0
 40
1.0
 40
1.0
 40
1.0
 40
2.0
 40
2.0
 40
2.0
 40
2.0
 10
226.8572107637015
 20
33.81528029977059
 30
0.0
 10
226.8553324964039
 20
33.8193751429657
 30
0.0
 10
226.8504969571908
 20
33.8211686608585
 30
0.0
 10
226.8464003914468
 20
33.81929935081503
 30
0.0
1001
ACAD
1000
RTTcAl
1070
-26105
1071
-1023410177
1000
$$NoName$$
  0
SPLINE
  5
16BC
330
A
100
AcDbEntity
  8
001
370
     9
100
AcDbSpline
210
0.0
220
0.0
230
1.0
 70
     8
 71
     3
 72
     8
 73
     4
 74
     0
 42
0.0000000001
 43
0.0000000001
 40
2.0
 40
2.0
 40
2.0
 40
2.0
 40
3.0
 40
3.0
 40
3.0
 40
3.0
 10
226.8464003914468
 20
33.81929935081503
 30
0.0
 10
226.8423021031539
 20
33.81741626038052
 30
0.0
 10
226.8405085852611
 20
33.81257451999148
 30
0.0
 10
226.8423823739317
 20
33.80848863405054
 30
0.0
1001
ACAD
1000
RTTcAl
1070
-26105
1071
-1023410177
1000
$$NoName$$
  0
SPLINE
  5
16BD
330
A
100
AcDbEntity
  8
001
370
     9
100
AcDbSpline
210
0.0
220
0.0
230
1.0
 70
     8
 71
     3
 72
     8
 73
     4
 74
     0
 42
0.0000000001
 43
0.0000000001
 40
3.0
 40
3.0
 40
3.0
 40
3.0
 40
4.0
 40
4.0
 40
4.0
 40
4.0
 10
226.8423823739317
 20
33.80848863405054
 30
0.0
 10
226.8432016181785
 20
33.80670889654878
 30
0.0
 10
226.8446261661015
 20
33.80528124803788
 30
0.0
 10
226.8464003914468
 20
33.80447096104521
 30
0.0
1001
ACAD
1000
RTTcAl
1070
-26105
1071
-1023410177
1000
$$NoName$$
  0
LINE
  5
16BE
330
A
100
AcDbEntity
  8
001
370
     9
100
AcDbLine
 10
226.8464034920348
 20
33.80447096104521
 30
0.0
 11
226.8464034920348
 21
33.80305433684714
 31
0.0
1001
ACAD
1000
RTTcAl
1070
-26105
1071
-1023410177
1000
$$NoName$$
  0
LINE
  5
16BF
330
A
100
AcDbEntity
  8
001
370
     9
100
AcDbLine
 10
226.8531996363819
 20
33.80306260508176
 30
0.0
 11
226.8531996363819
 21
33.80447165006477
 31
0.0
1001
ACAD
1000
RTTcAl
1070
-26105
1071
-1023410177
1000
$$NoName$$
  0
LINE
  5
16C0
330
A
100
AcDbEntity
  8
001
370
     9
100
AcDbLine
 10
226.8531996363819
 20
33.80291446587817
 30
0.0
 11
226.8531996363819
 21
33.80305433684714
 31
0.0
1001
ACAD
1000
RTTcAl
1070
-26105
1071
-1023410177
1000
$$NoName$$
  0
LINE
  5
16C1
330
A
100
AcDbEntity
  8
001
370
     9
100
AcDbLine
 10
226.8464034920348
 20
33.80306260508176
 30
0.0
 11
226.8464034920348
 21
33.80292273411279
 31
0.0
1001
ACAD
1000
RTTcAl
1070
-26105
1071
-1023410177
1000
$$NoName$$
  0
LINE
  5
16C2
330
A
100
AcDbEntity
  8
001
370
     9
100
AcDbLine
 10
226.8429494370226
 20
33.80617421737674
 30
0.0
 11
226.8429494370226
 21
33.80345121210886
 31
0.0
1001
ACAD
1000
RTTcAl
1070
-26105
1071
-1023410177
1000
$$NoName$$
  0
LINE
  5
16C3
330
A
100
AcDbEntity
  8
001
370
     9
100
AcDbLine
 10
226.8430049030965
 20
33.80635129540151
 30
0.0
 11
226.8429422023173
 21
33.80617421737674
 31
0.0
1001
ACAD
1000
RTTcAl
1070
-26105
1071
-1023410177
1000
$$NoName$$
  0
LINE
  5
16C4
330
A
100
AcDbEntity
  8
001
370
     9
100
AcDbLine
 10
226.8429494370226
 20
33.80345259014796
 30
0.0
 11
226.8429494370226
 21
33.80343743171782
 31
0.0
1001
ACAD
1000
RTTcAl
1070
-26105
1071
-1023410177
1000
$$NoName$$
  0
LINE
  5
16C5
330
A
100
AcDbEntity
  8
001
370
     9
100
AcDbLine
 10
226.8429494370226
 20
33.80343743171782
 30
0.0
 11
226.8429494370226
 21
33.8034291634832
 31
0.0
1001
ACAD
1000
RTTcAl
1070
-26105
1071
-1023410177
1000
$$NoName$$
  0
LINE
  5
16C6
330
A
100
AcDbEntity
  8
001
370
     9
100
AcDbLine
 10
226.8429494370226
 20
33.8034291634832
 30
0.0
 11
226.8429494370226
 21
33.80341469407262
 31
0.0
1001
ACAD
1000
RTTcAl
1070
-26105
1071
-1023410177
1000
$$NoName$$
  0
LINE
  5
16C7
330
A
100
AcDbEntity
  8
001
370
     9
100
AcDbLine
 10
226.8429494370226
 20
33.80341469407262
 30
0.0
 11
226.8429597723159
 21
33.8034078038771
 31
0.0
1001
ACAD
1000
RTTcAl
1070
-26105
1071
-1023410177
1000
$$NoName$$
  0
LINE
  5
16C8
330
A
100
AcDbEntity
  8
001
370
     9
100
AcDbLine
 10
226.8429597723159
 20
33.8034078038771
 30
0.0
 11
226.8429687295701
 21
33.80340435877935
 31
0.0
1001
ACAD
1000
RTTcAl
1070
-26105
1071
-1023410177
1000
$$NoName$$
  0
LINE
  5
16C9
330
A
100
AcDbEntity
  8
001
370
     9
100
AcDbLine
 10
226.8429687295701
 20
33.80340435877935
 30
0.0
 11
226.8429687295701
 21
33.80339057838831
 31
0.0
1001
ACAD
1000
RTTcAl
1070
-26105
1071
-1023410177
1000
$$NoName$$
  0
LINE
  5
16CA
330
A
100
AcDbEntity
  8
001
370
     9
100
AcDbLine
 10
226.8429687295701
 20
33.80339057838831
 30
0.0
 11
226.8429732081972
 21
33.80338299917325
 31
0.0
1001
ACAD
1000
RTTcAl
1070
-26105
1071
-1023410177
1000
$$NoName$$
  0
LINE
  5
16CB
330
A
100
AcDbEntity
  8
001
370
     9
100
AcDbLine
 10
226.8429732081972
 20
33.80338299917325
 30
0.0
 11
226.8429732081972
 21
33.80337679799728
 31
0.0
1001
ACAD
1000
RTTcAl
1070
-26105
1071
-1023410177
1000
$$NoName$$
  0
LINE
  5
16CC
330
A
100
AcDbEntity
  8
001
370
     9
100
AcDbLine
 10
226.8429732081972
 20
33.80337679799728
 30
0.0
 11
226.8429790648633
 21
33.80336990780177
 31
0.0
1001
ACAD
1000
RTTcAl
1070
-26105
1071
-1023410177
1000
$$NoName$$
  0
LINE
  5
16CD
330
A
100
AcDbEntity
  8
001
370
     9
100
AcDbLine
 10
226.8429790648633
 20
33.80336990780177
 30
0.0
 11
226.8429790648633
 21
33.8033609505476
 31
0.0
1001
ACAD
1000
RTTcAl
1070
-26105
1071
-1023410177
1000
$$NoName$$
  0
LINE
  5
16CE
330
A
100
AcDbEntity
  8
001
370
     9
100
AcDbLine
 10
226.8429790648633
 20
33.8033609505476
 30
0.0
 11
226.8429790648633
 21
33.8033409689806
 31
0.0
1001
ACAD
1000
RTTcAl
1070
-26105
1071
-1023410177
1000
$$NoName$$
  0
LINE
  5
16CF
330
A
100
AcDbEntity
  8
001
370
     9
100
AcDbLine
 10
226.8429790648633
 20
33.8033409689806
 30
0.0
 11
226.8429831989807
 21
33.8033409689806
 31
0.0
1001
ACAD
1000
RTTcAl
1070
-26105
1071
-1023410177
1000
$$NoName$$
  0
LINE
  5
16D0
330
A
100
AcDbEntity
  8
001
370
     9
100
AcDbLine
 10
226.8429831989807
 20
33.8033409689806
 30
0.0
 11
226.8429894001566
 21
33.8033209874136
 31
0.0
1001
ACAD
1000
RTTcAl
1070
-26105
1071
-1023410177
1000
$$NoName$$
  0
LINE
  5
16D1
330
A
100
AcDbEntity
  8
001
370
     9
100
AcDbLine
 10
226.8429894001566
 20
33.8033209874136
 30
0.0
 11
226.8429894001566
 21
33.80331478623764
 31
0.0
1001
ACAD
1000
RTTcAl
1070
-26105
1071
-1023410177
1000
$$NoName$$
  0
LINE
  5
16D2
330
A
100
AcDbEntity
  8
001
370
     9
100
AcDbLine
 10
226.8429894001566
 20
33.80331478623764
 30
0.0
 11
226.842998012901
 21
33.80329893878796
 31
0.0
1001
ACAD
1000
RTTcAl
1070
-26105
1071
-1023410177
1000
$$NoName$$
  0
LINE
  5
16D3
330
A
100
AcDbEntity
  8
001
370
     9
100
AcDbLine
 10
226.842998012901
 20
33.80329893878796
 30
0.0
 11
226.8430049030965
 21
33.80329893878796
 31
0.0
1001
ACAD
1000
RTTcAl
1070
-26105
1071
-1023410177
1000
$$NoName$$
  0
LINE
  5
16D4
330
A
100
AcDbEntity
  8
001
370
     9
100
AcDbLine
 10
226.8430049030965
 20
33.80329893878796
 30
0.0
 11
226.8430049030965
 21
33.80328860349468
 31
0.0
1001
ACAD
1000
RTTcAl
1070
-26105
1071
-1023410177
1000
$$NoName$$
  0
LINE
  5
16D5
330
A
100
AcDbEntity
  8
001
370
     9
100
AcDbLine
 10
226.8430049030965
 20
33.80328860349468
 30
0.0
 11
226.8430080036845
 21
33.80327344506454
 31
0.0
1001
ACAD
1000
RTTcAl
1070
-26105
1071
-1023410177
1000
$$NoName$$
  0
LINE
  5
16D6
330
A
100
AcDbEntity
  8
001
370
     9
100
AcDbLine
 10
226.8430080036845
 20
33.80327344506454
 30
0.0
 11
226.8430080036845
 21
33.80326310977127
 31
0.0
1001
ACAD
1000
RTTcAl
1070
-26105
1071
-1023410177
1000
$$NoName$$
  0
LINE
  5
16D7
330
A
100
AcDbEntity
  8
001
370
     9
100
AcDbLine
 10
226.7685036305513
 20
33.8777626597676
 30
0.0
 11
226.7715918161815
 21
33.8777626597676
 31
0.0
1001
ACAD
1000
RTTcAl
1070
-26105
1071
-1023410177
1000
$$NoName$$
  0
LINE
  5
16D8
330
A
100
AcDbEntity
  8
001
370
     9
100
AcDbLine
 10
226.7714185277643
 20
33.87771029428168
 30
0.0
 11
226.7715921606913
 21
33.87776954996311
 31
0.0
1001
ACAD
1000
RTTcAl
1070
-26105
1071
-1023410177
1000
$$NoName$$
  0
LINE
  5
16D9
330
A
100
AcDbEntity
  8
001
370
     9
100
AcDbLine
 10
226.7685036305513
 20
33.8777626597676
 30
0.0
 11
226.7685184444717
 21
33.8777626597676
 31
0.0
1001
ACAD
1000
RTTcAl
1070
-26105
1071
-1023410177
1000
$$NoName$$
  0
LINE
  5
16DA
330
A
100
AcDbEntity
  8
001
370
     9
100
AcDbLine
 10
226.7685184444717
 20
33.8777626597676
 30
0.0
 11
226.7685277462356
 21
33.87775852565029
 31
0.0
1001
ACAD
1000
RTTcAl
1070
-26105
1071
-1023410177
1000
$$NoName$$
  0
LINE
  5
16DB
330
A
100
AcDbEntity
  8
001
370
     9
100
AcDbLine
 10
226.7685277462356
 20
33.87775852565029
 30
0.0
 11
226.7685377370191
 21
33.87775852565029
 31
0.0
1001
ACAD
1000
RTTcAl
1070
-26105
1071
-1023410177
1000
$$NoName$$
  0
LINE
  5
16DC
330
A
100
AcDbEntity
  8
001
370
     9
100
AcDbLine
 10
226.7685377370191
 20
33.87775852565029
 30
0.0
 11
226.768542560156
 21
33.87774474525926
 31
0.0
1001
ACAD
1000
RTTcAl
1070
-26105
1071
-1023410177
1000
$$NoName$$
  0
LINE
  5
16DD
330
A
100
AcDbEntity
  8
001
370
     9
100
AcDbLine
 10
226.768542560156
 20
33.87774474525926
 30
0.0
 11
226.7685525509395
 21
33.87774474525926
 31
0.0
1001
ACAD
1000
RTTcAl
1070
-26105
1071
-1023410177
1000
$$NoName$$
  0
LINE
  5
16DE
330
A
100
AcDbEntity
  8
001
370
     9
100
AcDbLine
 10
226.7685525509395
 20
33.87774474525926
 30
0.0
 11
226.7685677093696
 21
33.87773785506375
 31
0.0
1001
ACAD
1000
RTTcAl
1070
-26105
1071
-1023410177
1000
$$NoName$$
  0
LINE
  5
16DF
330
A
100
AcDbEntity
  8
001
370
     9
100
AcDbLine
 10
226.7685677093696
 20
33.87773785506375
 30
0.0
 11
226.7685828677997
 21
33.87773785506375
 31
0.0
1001
ACAD
1000
RTTcAl
1070
-26105
1071
-1023410177
1000
$$NoName$$
  0
LINE
  5
16E0
330
A
100
AcDbEntity
  8
001
370
     9
100
AcDbLine
 10
226.7685828677997
 20
33.87773785506375
 30
0.0
 11
226.7685880354464
 21
33.87773372094644
 31
0.0
1001
ACAD
1000
RTTcAl
1070
-26105
1071
-1023410177
1000
$$NoName$$
  0
LINE
  5
16E1
330
A
100
AcDbEntity
  8
001
370
     9
100
AcDbLine
 10
226.7685880354464
 20
33.87773372094644
 30
0.0
 11
226.768602504857
 21
33.87773372094644
 31
0.0
1001
ACAD
1000
RTTcAl
1070
-26105
1071
-1023410177
1000
$$NoName$$
  0
LINE
  5
16E2
330
A
100
AcDbEntity
  8
001
370
     9
100
AcDbLine
 10
226.768602504857
 20
33.87773372094644
 30
0.0
 11
226.7686128401503
 21
33.87772269663361
 31
0.0
1001
ACAD
1000
RTTcAl
1070
-26105
1071
-1023410177
1000
$$NoName$$
  0
LINE
  5
16E3
330
A
100
AcDbEntity
  8
001
370
     9
100
AcDbLine
 10
226.7686128401503
 20
33.87772269663361
 30
0.0
 11
226.7686328217172
 21
33.87772269663361
 31
0.0
1001
ACAD
1000
RTTcAl
1070
-26105
1071
-1023410177
1000
$$NoName$$
  0
LINE
  5
16E4
330
A
100
AcDbEntity
  8
001
370
     9
100
AcDbLine
 10
226.7686328217172
 20
33.87772269663361
 30
0.0
 11
226.7686435015203
 21
33.87771236134033
 31
0.0
1001
ACAD
1000
RTTcAl
1070
-26105
1071
-1023410177
1000
$$NoName$$
  0
LINE
  5
16E5
330
A
100
AcDbEntity
  8
001
370
     9
100
AcDbLine
 10
226.7686435015203
 20
33.87771236134033
 30
0.0
 11
226.7686621050482
 21
33.87771236134033
 31
0.0
1001
ACAD
1000
RTTcAl
1070
-26105
1071
-1023410177
1000
$$NoName$$
  0
LINE
  5
16E6
330
A
100
AcDbEntity
  8
001
370
     9
100
AcDbLine
 10
226.7686621050482
 20
33.87771236134033
 30
0.0
 11
226.7686703732828
 21
33.87770616016437
 31
0.0
1001
ACAD
1000
RTTcAl
1070
-26105
1071
-1023410177
1000
$$NoName$$
  0
LINE
  5
16E7
330
A
100
AcDbEntity
  8
001
370
     9
100
AcDbLine
 10
226.7686703732828
 20
33.87770616016437
 30
0.0
 11
226.7686934554378
 21
33.87770616016437
 31
0.0
1001
ACAD
1000
RTTcAl
1070
-26105
1071
-1023410177
1000
$$NoName$$
  0
LINE
  5
16E8
330
A
100
AcDbEntity
  8
001
370
     9
100
AcDbLine
 10
226.8816530432747
 20
33.80964894297543
 30
0.0
 11
226.8805967763021
 21
33.81215421806501
 31
0.0
1001
ACAD
1000
RTTcAl
1070
-26105
1071
-1023410177
1000
$$NoName$$
  0
LINE
  5
16E9
330
A
100
AcDbEntity
  8
001
370
     9
100
AcDbLine
 10
226.8805967763021
 20
33.81215904120188
 30
0.0
 11
226.8804765423903
 21
33.81230304628816
 31
0.0
1001
ACAD
1000
RTTcAl
1070
-26105
1071
-1023410177
1000
$$NoName$$
  0
LINE
  5
16EA
330
A
100
AcDbEntity
  8
001
370
     9
100
AcDbLine
 10
226.8816809485665
 20
33.80946841985291
 30
0.0
 11
226.8816537322942
 21
33.80964894297543
 31
0.0
1001
ACAD
1000
RTTcAl
1070
-26105
1071
-1023410177
1000
$$NoName$$
  0
LINE
  5
16EB
330
A
100
AcDbEntity
  8
001
370
     9
100
AcDbLine
 10
226.7812697848032
 20
33.65150795293153
 30
0.0
 11
226.7812697848032
 21
33.73707522398508
 31
0.0
1001
ACAD
1000
RTTcAl
1070
-26105
1071
-1023410177
1000
$$NoName$$
  0
LINE
  5
16EC
330
A
100
AcDbEntity
  8
001
370
     5
100
AcDbLine
 10
227.2093656624064
 20
33.61742835689023
 30
0.0
 11
227.2093656624064
 21
33.61747796629795
 31
0.0
1001
ACAD
1000
RTTcAl
1070
-25862
1071
-1037953260
1000
$$NoName$$
  0
LINE
  5
16ED
330
A
100
AcDbEntity
  8
001
370
     9
100
AcDbLine
 10
227.2042145522387
 20
33.58062265499308
 30
0.0
 11
227.2222737546859
 21
33.58062265499308
 31
0.0
1001
ACAD
1000
RTTcAl
1070
-25862
1071
-1037953260
1000
$$NoName$$
  0
INSERT
  5
194B
330
A
100
AcDbEntity
  8
LAYER_1
 62
   104
100
AcDbBlockReference
  2
*X12
 10
555.8323119840617
 20
82.61529998785581
 30
0.0
  0
INSERT
  5
194C
330
A
100
AcDbEntity
  8
LAYER_1
 62
   104
100
AcDbBlockReference
  2
*X13
 10
555.8323119840617
 20
82.61529998785581
 30
0.0
  0
INSERT
  5
194D
330
A
100
AcDbEntity
  8
LAYER_1
 62
   104
100
AcDbBlockReference
  2
*X14
 10
547.4490169840617
 20
93.36356698785582
 30
0.0
  0
INSERT
  5
194E
330
A
100
AcDbEntity
  8
LAYER_1
 62
   104
100
AcDbBlockReference
  2
*X15
 10
547.4490169840617
 20
93.36356698785582
 30
0.0
  0
INSERT
  5
194F
330
A
100
AcDbEntity
  8
LAYER_1
 62
   104
100
AcDbBlockReference
  2
*X16
 10
646.6539859840618
 20
84.31889998785582
 30
0.0
  0
INSERT
  5
1950
330
A
100
AcDbEntity
  8
LAYER_1
 62
   104
100
AcDbBlockReference
  2
*X17
 10
646.6539859840618
 20
84.31889998785582
 30
0.0
  0
INSERT
  5
1953
330
A
100
AcDbEntity
  8
LAYER_1
 62
   104
100
AcDbBlockReference
  2
*X22
 10
383.1798552284745
 20
-18.63966685878485
 30
0.0
 41
0.0037494214483615
 42
0.0037494214483544
 43
0.003749421448353
  0
INSERT
  5
1954
330
A
100
AcDbEntity
  8
LAYER_1
 62
   104
100
AcDbBlockReference
  2
*X23
 10
383.1798552284745
 20
-18.63966685878485
 30
0.0
 41
0.0037494214483615
 42
0.0037494214483544
 43
0.003749421448353
  0
INSERT
  5
1955
330
A
100
AcDbEntity
  8
LAYER_1
 62
   104
100
AcDbBlockReference
  2
*X20
 10
382.8078939899226
 20
-18.60575459034184
 30
0.0
 41
0.0037494214483615
 42
0.0037494214483544
 43
0.003749421448353
  0
INSERT
  5
1956
330
A
100
AcDbEntity
  8
LAYER_1
 62
   104
100
AcDbBlockReference
  2
*X21
 10
382.8078939899226
 20
-18.60575459034184
 30
0.0
 41
0.0037494214483615
 42
0.0037494214483544
 43
0.003749421448353
  0
INSERT
  5
1957
330
A
100
AcDbEntity
  8
LAYER_1
 62
   104
100
AcDbBlockReference
  2
*X18
 10
382.8393264960035
 20
-18.64605437316427
 30
0.0
 41
0.0037494214483615
 42
0.0037494214483544
 43
0.003749421448353
  0
INSERT
  5
1958
330
A
100
AcDbEntity
  8
LAYER_1
 62
   104
100
AcDbBlockReference
  2
*X19
 10
382.8393264960035
 20
-18.64605437316427
 30
0.0
 41
0.0037494214483615
 42
0.0037494214483544
 43
0.003749421448353
  0
SPLINE
  5
1B2C
330
A
100
AcDbEntity
  8
002
100
AcDbSpline
210
0.0
220
0.0
230
1.0
 70
     8
 71
     3
 72
     8
 73
     4
 74
     0
 42
0.0000000001
 43
0.0000000001
 40
1.0
 40
1.0
 40
1.0
 40
1.0
 40
2.0
 40
2.0
 40
2.0
 40
2.0
 10
226.597537549158
 20
34.06533841160771
 30
0.0
 10
226.5853129919324
 20
34.06603718080566
 30
0.0
 10
226.5756161054088
 20
34.07590095215165
 30
0.0
 10
226.5751261862225
 20
34.08813526872366
 30
0.0
  0
SPLINE
  5
1B2D
330
A
100
AcDbEntity
  8
002
100
AcDbSpline
210
0.0
220
0.0
230
1.0
 70
     8
 71
     3
 72
     8
 73
     4
 74
     0
 42
0.0000000001
 43
0.0000000001
 40
1.0
 40
1.0
 40
1.0
 40
1.0
 40
2.0
 40
2.0
 40
2.0
 40
2.0
 10
226.597537549158
 20
34.06533841160771
 30
0.0
 10
226.6097621063837
 20
34.06603718080566
 30
0.0
 10
226.6194589929072
 20
34.07590095215165
 30
0.0
 10
226.6199489120936
 20
34.08813526872366
 30
0.0
  0
LINE
  5
1B2E
330
A
100
AcDbEntity
  8
002
100
AcDbLine
 10
226.571137549158
 20
34.08813526872366
 30
0.0
 11
226.623937549158
 21
34.08813526872366
 31
0.0
  0
LINE
  5
1B2F
330
A
100
AcDbEntity
  8
002
100
AcDbLine
 10
226.571137549158
 20
34.08813526872366
 30
0.0
 11
226.571137549158
 21
34.09473526872366
 31
0.0
  0
LINE
  5
1B30
330
A
100
AcDbEntity
  8
002
100
AcDbLine
 10
226.623937549158
 20
34.08813526872366
 30
0.0
 11
226.623937549158
 21
34.09473526872366
 31
0.0
  0
LINE
  5
1B31
330
A
100
AcDbEntity
  8
002
100
AcDbLine
 10
226.571137549158
 20
34.09473526872366
 30
0.0
 11
226.623937549158
 21
34.09473526872366
 31
0.0
  0
ENDSEC
  0
SECTION
  2
OBJECTS
  0
DICTIONARY
  5
19
330
0
100
AcDbDictionary
281
     1
  3
ACAD_COLOR
350
7BF
  3
ACAD_GROUP
350
1A
  3
ACAD_LAYOUT
350
105
  3
ACAD_MATERIAL
350
7AA
  3
ACAD_MLINESTYLE
350
1B
  3
ACAD_PLOTSETTINGS
350
106
  3
ACAD_PLOTSTYLENAME
350
76F
  3
ACAD_TABLESTYLE
350
7C0
  3
ACAD_VISUALSTYLE
350
7AE
  3
AcDbVariableDictionary
350
7A7
  3
DWGPROPS
350
83C
1001
ACAD
1000
TREAT_AS_HARD
1070
     0
  0
DICTIONARY
  5
802
330
7
100
AcDbDictionary
280
     1
281
     1
  3
ACAD_XREC_ROUNDTRIP
360
803
  0
DICTIONARY
  5
C88
330
2
100
AcDbDictionary
280
     1
281
     1
  3
ACAD_LAYERFILTERS
360
C93
  3
ACAD_LAYERSTATES
360
C89
  0
DICTIONARY
  5
806
330
14
100
AcDbDictionary
280
     1
281
     1
  3
ACAD_XREC_ROUNDTRIP
360
807
  0
DICTIONARY
  5
767
330
A
100
AcDbDictionary
280
     1
281
     1
  3
ACAD_LAYOUTSELFREF
360
804
  0
DICTIONARY
  5
769
330
B
100
AcDbDictionary
280
     1
281
     1
  3
ACAD_LAYOUTSELFREF
360
805
  0
DICTIONARY
  5
7BF
102
{ACAD_REACTORS
330
19
102
}
330
19
100
AcDbDictionary
281
     1
  0
DICTIONARY
  5
1A
102
{ACAD_REACTORS
330
19
102
}
330
19
100
AcDbDictionary
281
     1
1001
ACAD
1000
TREAT_AS_HARD
1070
     0
  0
DICTIONARY
  5
105
102
{ACAD_REACTORS
330
19
102
}
330
19
100
AcDbDictionary
281
     1
  3
Model
350
771
  3
ﾚｲｱｳﾄ1
350
772
1001
ACAD
1000
TREAT_AS_HARD
1070
     0
  0
DICTIONARY
  5
7AA
102
{ACAD_REACTORS
330
19
102
}
330
19
100
AcDbDictionary
281
     1
  3
ByBlock
350
7AC
  3
ByLayer
350
7AB
  3
Global
350
7AD
  0
DICTIONARY
  5
1B
102
{ACAD_REACTORS
330
19
102
}
330
19
100
AcDbDictionary
281
     1
  3
STANDARD
350
1C
1001
ACAD
1000
TREAT_AS_HARD
1070
     0
  0
DICTIONARY
  5
106
102
{ACAD_REACTORS
330
19
102
}
330
19
100
AcDbDictionary
281
     1
1001
ACAD
1000
TREAT_AS_HARD
1070
     0
  0
ACDBDICTIONARYWDFLT
  5
76F
102
{ACAD_REACTORS
330
19
102
}
330
19
100
AcDbDictionary
281
     1
  3
Normal
350
770
100
AcDbDictionaryWithDefault
340
770
1001
ACAD
1000
TREAT_AS_HARD
1070
     0
  0
DICTIONARY
  5
7C0
102
{ACAD_REACTORS
330
19
102
}
330
19
100
AcDbDictionary
281
     1
  3
Standard
350
7C1
  0
DICTIONARY
  5
7AE
102
{ACAD_REACTORS
330
19
102
}
330
19
100
AcDbDictionary
281
     1
  3
2dWireframe
350
7B4
  3
3D Hidden
350
7B6
  3
3dWireframe
350
7B5
  3
Basic
350
7B3
  3
Brighten
350
7BA
  3
ColorChange
350
7BE
  3
Conceptual
350
7B7
  3
Dim
350
7B9
  3
Facepattern
350
7BD
  3
Flat
350
7AF
  3
FlatWithEdges
350
7B0
  3
Gouraud
350
7B1
  3
GouraudWithEdges
350
7B2
  3
Linepattern
350
7BC
  3
Realistic
350
7B8
  3
Thicken
350
7BB
  0
DICTIONARY
  5
7A7
102
{ACAD_REACTORS
330
19
102
}
330
19
100
AcDbDictionary
281
     1
  3
CTABLESTYLE
350
824
  3
DIMASSOC
350
7A8
  3
INDEXCTL
350
826
  3
PROJECTNAME
350
835
  3
SORTENTS
350
825
  0
XRECORD
  5
83C
102
{ACAD_REACTORS
330
19
102
}
330
19
100
AcDbXrecord
280
     1
  1
DWGPROPS COOKIE
  2

  3

  4

  6

  7

  8
sendai
  9

300
=
301
=
302
=
303
=
304
=
305
=
306
=
307
=
308
=
309
=
 40
0.0323558217592593
 41
2444972.375
 42
2455449.586781504
  1

 90
        0
  0
XRECORD
  5
803
102
{ACAD_REACTORS
330
802
102
}
330
802
100
AcDbXrecord
280
     1
102
VTR_0.000_0.000_1.000_1.000_VISUALSTYLE
340
7B4
102
VTR_0.000_0.000_1.000_1.000_GRIDDISPLAY
 70
     3
102
VTR_0.000_0.000_1.000_1.000_GRIDMAJOR
 70
     5
102
VTR_0.000_0.000_1.000_1.000_DEFAULTLIGHTING
280
     1
102
VTR_0.000_0.000_1.000_1.000_DEFAULTLIGHTINGTYPE
 70
     1
102
VTR_0.000_0.000_1.000_1.000_BRIGHTNESS
141
0.0
102
VTR_0.000_0.000_1.000_1.000_CONTRAST
142
0.0
  0
DICTIONARY
  5
C93
102
{ACAD_REACTORS
330
C88
102
}
330
C88
100
AcDbDictionary
280
     1
281
     1
  0
DICTIONARY
  5
C89
102
{ACAD_REACTORS
330
C88
102
}
330
C88
100
AcDbDictionary
281
     1
  0
XRECORD
  5
807
102
{ACAD_REACTORS
330
806
102
}
330
806
100
AcDbXrecord
280
     1
102
MATERIAL
340
7AD
  0
XRECORD
  5
804
102
{ACAD_REACTORS
330
767
102
}
330
767
100
AcDbXrecord
280
     1
340
A
  0
XRECORD
  5
805
102
{ACAD_REACTORS
330
769
102
}
330
769
100
AcDbXrecord
280
     1
340
B
  0
LAYOUT
  5
771
102
{ACAD_XDICTIONARY
360
83E
102
}
102
{ACAD_REACTORS
330
105
102
}
330
105
100
AcDbPlotSettings
  1

  2
SHARP MX-2311FN SPDL2-c
  4
A4
  6
OLE1
 40
5.027083396911621
 41
5.027085304260253
 42
5.027084350585937
 43
5.027069091796875
 44
209.9733276367187
 45
296.9259948730469
 46
49.57
 47
94.22
 48
6721.381288999999
 49
13504.610177
140
86528.90362899999
141
70232.64859
142
100.0
143
1.0
 70
 11940
 72
     1
 73
     0
 74
     1
  7
プリンタ.ctb
 75
     0
147
100.0
148
-89.09548619083301
149
-1.996110235944854
100
AcDbLayout
  1
Model
 70
     1
 71
     0
 10
0.0
 20
0.0
 11
12.0
 21
9.0
 12
0.0
 22
0.0
 32
0.0
 14
0.0
 24
0.0
 34
0.0
 15
0.0
 25
0.0
 35
0.0
146
0.0
 13
0.0
 23
0.0
 33
0.0
 16
1.0
 26
0.0
 36
0.0
 17
0.0
 27
1.0
 37
0.0
 76
     0
330
A
  0
LAYOUT
  5
772
102
{ACAD_XDICTIONARY
360
840
102
}
102
{ACAD_REACTORS
330
105
102
}
330
105
100
AcDbPlotSettings
  1

  2
なし
  4

  6

 40
0.0
 41
0.0
 42
0.0
 43
0.0
 44
0.0
 45
0.0
 46
0.0
 47
0.0
 48
0.0
 49
0.0
140
0.0
141
0.0
142
1.0
143
1.0
 70
   688
 72
     0
 73
     0
 74
     5
  7
京セラレーザー.ctb
 75
    16
147
1.0
148
0.0
149
0.0
100
AcDbLayout
  1
ﾚｲｱｳﾄ1
 70
     0
 71
     1
 10
0.0
 20
0.0
 11
12.0
 21
9.0
 12
0.0
 22
0.0
 32
0.0
 14
1.000000000000000E+20
 24
1.000000000000000E+20
 34
1.000000000000000E+20
 15
-1.000000000000000E+20
 25
-1.000000000000000E+20
 35
-1.000000000000000E+20
146
0.0
 13
0.0
 23
0.0
 33
0.0
 16
1.0
 26
0.0
 36
0.0
 17
0.0
 27
1.0
 37
0.0
 76
     0
330
B
  0
ACAD_PROXY_OBJECT
  5
7AC
102
{ACAD_XDICTIONARY
360
81A
102
}
102
{ACAD_REACTORS
330
7AA
102
}
330
7AA
100
AcDbProxyObject
 90
      499
 91
      532
 95
   655383
 70
     0
 93
      574
310
41D096509313D0D2E004014040405AA6A9AA4060050101016A9AA6A9018000000000000E03F4040405AA6A9AA40650101016A9AA6A90190101016A9AA6A90194040405AA6A9AA401
 94
        0
  0
ACAD_PROXY_OBJECT
  5
7AB
102
{ACAD_XDICTIONARY
360
818
102
}
102
{ACAD_REACTORS
330
7AA
102
}
330
7AA
100
AcDbProxyObject
 90
      499
 91
      532
 95
   655383
 70
     0
 93
      574
310
41D0965310565154A004014040405AA6A9AA4060050101016A9AA6A9018000000000000E03F4040405AA6A9AA40650101016A9AA6A90190101016A9AA6A90194040405AA6A9AA401
 94
        0
  0
ACAD_PROXY_OBJECT
  5
7AD
102
{ACAD_XDICTIONARY
360
81C
102
}
102
{ACAD_REACTORS
330
7AA
102
}
330
7AA
100
AcDbProxyObject
 90
      499
 91
      532
 95
   655383
 70
     0
 93
      566
310
4191D313D090532004014040405AA6A9AA4060050101016A9AA6A9018000000000000E03F4040405AA6A9AA40650101016A9AA6A90190101016A9AA6A90194040405AA6A9AA400
 94
        0
  0
MLINESTYLE
  5
1C
102
{ACAD_REACTORS
330
1B
102
}
330
1B
100
AcDbMlineStyle
  2
STANDARD
 70
     0
  3

 62
     0
 51
90.00000000000019
 52
90.00000000000019
 71
     2
 49
0.5
 62
   256
  6
BYLAYER
 49
-0.5
 62
   256
  6
BYLAYER
  0
ACDBPLACEHOLDER
  5
770
102
{ACAD_REACTORS
330
76F
102
}
330
76F
  0
ACAD_PROXY_OBJECT
  5
7C1
102
{ACAD_XDICTIONARY
360
822
102
}
102
{ACAD_REACTORS
330
7C0
102
}
330
7C0
100
AcDbProxyObject
 90
      499
 91
      534
 95
   655383
 70
     0
 93
     1841
310
4214DD185B99185C9928B81E85EB51B8AE3F2E07A17AD46E2B8FC02B5E8DC0F42B1CFD028000000C1008070000C3001FDFF8000000C1003FBFF000000182007F7FE00000030400FEFFC00000060801FDFF8000000C1003FBFF00000018200000000000000681FA0B0000001820100E000186003FBFF000000182007F7FE000
310
00030400FEFFC00000060801FDFF8000000C1003FBFF000000182007F7FE000000304000AD7A3703D0AC73F4160000003040201C00030C007F7FE00000030400FEFFC00000060801FDFF8000000C1003FBFF000000182007F7FE00000030400FEFFC000000608000
340
17
340
17
340
17
 94
        0
  0
ACAD_PROXY_OBJECT
  5
7B4
102
{ACAD_REACTORS
330
7AE
102
}
330
7AE
100
AcDbProxyObject
 90
      499
 91
      533
 95
   655381
 70
     0
 93
      444
310
430C9915DA5C99599C985B59401049028333333333333E3BF0000000000000FB0107901411070040501600405405064090741402480A0340
 94
        0
1001
ACAD
1000
AcDbSavedByObjectVersion
1070
     0
1000
AcRTDxfName
1000
VISUALSTYLE
1000
AcRTDxfName
1000
VISUALSTYLE
  0
ACAD_PROXY_OBJECT
  5
7B6
102
{ACAD_REACTORS
330
7AE
102
}
330
7AE
100
AcDbProxyObject
 90
      499
 91
      533
 95
   655381
 70
     0
 93
      508
310
428CD108121A5919195B8010640502408333333333333E3BF0000000000000FB01079024090700405020000000000001110200405405064090740C02480A0347
 94
        0
1001
ACAD
1000
AcDbSavedByObjectVersion
1070
     0
1000
AcRTDxfName
1000
VISUALSTYLE
1000
AcRTDxfName
1000
VISUALSTYLE
  0
ACAD_PROXY_OBJECT
  5
7B5
102
{ACAD_REACTORS
330
7AE
102
}
330
7AE
100
AcDbProxyObject
 90
      499
 91
      533
 95
   655381
 70
     0
 93
      444
310
430CD915DA5C99599C985B59401059028333333333333E3BF0000000000000FB0107901411070040501600405405064090741402480A0340
 94
        0
1001
ACAD
1000
AcDbSavedByObjectVersion
1070
     0
1000
AcRTDxfName
1000
VISUALSTYLE
1000
AcRTDxfName
1000
VISUALSTYLE
  0
ACAD_PROXY_OBJECT
  5
7B3
102
{ACAD_REACTORS
330
7AE
102
}
330
7AE
100
AcDbProxyObject
 90
      499
 91
      533
 95
   655381
 70
     0
 93
      396
310
4190985CDA58C0107406404333333333333E3BF0000000000000FB0107A41107004050150841D405064090741402480A0356
 94
        0
1001
ACAD
1000
AcDbSavedByObjectVersion
1070
     0
1000
AcRTDxfName
1000
VISUALSTYLE
1000
AcRTDxfName
1000
VISUALSTYLE
  0
ACAD_PROXY_OBJECT
  5
7BA
102
{ACAD_REACTORS
330
7AE
102
}
330
7AE
100
AcDbProxyObject
 90
      499
 91
      533
 95
   655381
 70
     0
 93
      436
310
42509C9A59DA1D195B8010C409028333333333333E3BF0000000000000FB010790141107004050150841D405064090741402480A029956
 94
        0
1001
ACAD
1000
AcDbSavedByObjectVersion
1070
     0
1000
AcRTDxfName
1000
VISUALSTYLE
1000
AcRTDxfName
1000
VISUALSTYLE
  0
ACAD_PROXY_OBJECT
  5
7BE
102
{ACAD_REACTORS
330
7AE
102
}
330
7AE
100
AcDbProxyObject
 90
      499
 91
      533
 95
   655381
 70
     0
 93
      460
310
4310DBDB1BDC90DA185B99D9401104090240C333333333333E3BF0000000000000FB0108901411070040501508421405064090741402480A0354
 94
        0
1001
ACAD
1000
AcDbSavedByObjectVersion
1070
     0
1000
AcRTDxfName
1000
VISUALSTYLE
1000
AcRTDxfName
1000
VISUALSTYLE
  0
ACAD_PROXY_OBJECT
  5
7B7
102
{ACAD_REACTORS
330
7AE
102
}
330
7AE
100
AcDbProxyObject
 90
      499
 91
      533
 95
   655381
 70
     0
 93
      508
310
42D0DBDB98D95C1D1D585B0010940D028333333333333E3BF0000000000000FB0107902409070040501000000000000111010841D405064090740C02480A0347
 94
        0
1001
ACAD
1000
AcDbSavedByObjectVersion
1070
     0
1000
AcRTDxfName
1000
VISUALSTYLE
1000
AcRTDxfName
1000
VISUALSTYLE
  0
ACAD_PROXY_OBJECT
  5
7B9
102
{ACAD_REACTORS
330
7AE
102
}
330
7AE
100
AcDbProxyObject
 90
      499
 91
      533
 95
   655381
 70
     0
 93
      420
310
41111A5B4010B409028333333333333E3BF0000000000000FB010790141107004050150841D405064090741402480A02677FFFFFDB
 94
        0
1001
ACAD
1000
AcDbSavedByObjectVersion
1070
     0
1000
AcRTDxfName
1000
VISUALSTYLE
1000
AcRTDxfName
1000
VISUALSTYLE
  0
ACAD_PROXY_OBJECT
  5
7BD
102
{ACAD_REACTORS
330
7AE
102
}
330
7AE
100
AcDbProxyObject
 90
      499
 91
      533
 95
   655381
 70
     0
 93
      452
310
43119858D95C185D1D195C9B8010F409028333333333333E3BF0000000000000FB010790141107004050150841D405064090741402480A0350
 94
        0
1001
ACAD
1000
AcDbSavedByObjectVersion
1070
     0
1000
AcRTDxfName
1000
VISUALSTYLE
1000
AcRTDxfName
1000
VISUALSTYLE
  0
ACAD_PROXY_OBJECT
  5
7AF
102
{ACAD_REACTORS
330
7AE
102
}
330
7AE
100
AcDbProxyObject
 90
      499
 91
      533
 95
   655381
 70
     0
 93
      396
310
41519B185D00240901404333333333333E3BF0000000000000F9010740A41107004050150841D405064090741402480A1B58
 94
        0
1001
ACAD
1000
AcDbSavedByObjectVersion
1070
     0
1000
AcRTDxfName
1000
VISUALSTYLE
1000
AcRTDxfName
1000
VISUALSTYLE
  0
ACAD_PROXY_OBJECT
  5
7B0
102
{ACAD_REACTORS
330
7AE
102
}
330
7AE
100
AcDbProxyObject
 90
      499
 91
      533
 95
   655381
 70
     0
 93
      484
310
43919B185D15DA5D1A115919D95CC010140901404333333333333E3BF0000000000000F9010740901411070040501600405405064090741402480A1B56
 94
        0
1001
ACAD
1000
AcDbSavedByObjectVersion
1070
     0
1000
AcRTDxfName
1000
VISUALSTYLE
1000
AcRTDxfName
1000
VISUALSTYLE
  0
ACAD_PROXY_OBJECT
  5
7B1
102
{ACAD_REACTORS
330
7AE
102
}
330
7AE
100
AcDbProxyObject
 90
      499
 91
      533
 95
   655381
 70
     0
 93
      420
310
4211DBDD5C985D590010240902404333333333333E3BF0000000000000F9010740A411070040501641D405064090741402480A1B50
 94
        0
1001
ACAD
1000
AcDbSavedByObjectVersion
1070
     0
1000
AcRTDxfName
1000
VISUALSTYLE
1000
AcRTDxfName
1000
VISUALSTYLE
  0
ACAD_PROXY_OBJECT
  5
7B2
102
{ACAD_REACTORS
330
7AE
102
}
330
7AE
100
AcDbProxyObject
 90
      499
 91
      533
 95
   655381
 70
     0
 93
      508
310
4451DBDD5C985D5915DA5D1A115919D95CC010340902404333333333333E3BF0000000000000F9010740901411070040501600405405064090741402480A1B57
 94
        0
1001
ACAD
1000
AcDbSavedByObjectVersion
1070
     0
1000
AcRTDxfName
1000
VISUALSTYLE
1000
AcRTDxfName
1000
VISUALSTYLE
  0
ACAD_PROXY_OBJECT
  5
7BC
102
{ACAD_REACTORS
330
7AE
102
}
330
7AE
100
AcDbProxyObject
 90
      499
 91
      533
 95
   655381
 70
     0
 93
      452
310
43131A5B995C185D1D195C9B8010E409028333333333333E3BF0000000000000FB010790141107004050750841D405064090741402483A0350
 94
        0
1001
ACAD
1000
AcDbSavedByObjectVersion
1070
     0
1000
AcRTDxfName
1000
VISUALSTYLE
1000
AcRTDxfName
1000
VISUALSTYLE
  0
ACAD_PROXY_OBJECT
  5
7B8
102
{ACAD_REACTORS
330
7AE
102
}
330
7AE
100
AcDbProxyObject
 90
      499
 91
      533
 95
   655381
 70
     0
 93
      428
310
429499585B1A5CDD1A58C0108409028333333333333E3BF0000000000000FB01079019070040501508421405064090741402480A1B45
 94
        0
1001
ACAD
1000
AcDbSavedByObjectVersion
1070
     0
1000
AcRTDxfName
1000
VISUALSTYLE
1000
AcRTDxfName
1000
VISUALSTYLE
  0
ACAD_PROXY_OBJECT
  5
7BB
102
{ACAD_REACTORS
330
7AE
102
}
330
7AE
100
AcDbProxyObject
 90
      499
 91
      533
 95
   655381
 70
     0
 93
      420
310
42151A1A58DAD95B8010D409028333333333333E3BF0000000000000FB010790141107004050150C41D405064090741402480A0352
 94
        0
1001
ACAD
1000
AcDbSavedByObjectVersion
1070
     0
1000
AcRTDxfName
1000
VISUALSTYLE
1000
AcRTDxfName
1000
VISUALSTYLE
  0
DICTIONARYVAR
  5
824
102
{ACAD_REACTORS
330
7A7
102
}
330
7A7
100
DictionaryVariables
280
     0
  1
STANDARD
  0
DICTIONARYVAR
  5
7A8
102
{ACAD_REACTORS
330
7A7
102
}
330
7A7
100
DictionaryVariables
280
     0
  1
1
  0
DICTIONARYVAR
  5
826
102
{ACAD_REACTORS
330
7A7
102
}
330
7A7
100
DictionaryVariables
280
     0
  1
0
  0
DICTIONARYVAR
  5
835
102
{ACAD_REACTORS
330
7A7
102
}
330
7A7
100
DictionaryVariables
280
     0
  1

  0
DICTIONARYVAR
  5
825
102
{ACAD_REACTORS
330
7A7
102
}
330
7A7
100
DictionaryVariables
280
     0
  1
127
  0
DICTIONARY
  5
83E
330
771
100
AcDbDictionary
280
     1
281
     1
  3
ACAD_XREC_ROUNDTRIP
360
83F
  0
DICTIONARY
  5
840
330
772
100
AcDbDictionary
280
     1
281
     1
  3
ACAD_XREC_ROUNDTRIP
360
841
  0
DICTIONARY
  5
81A
330
7AC
100
AcDbDictionary
280
     1
281
     1
  3
ACAD_XREC_ROUNDTRIP
360
81B
  0
DICTIONARY
  5
818
330
7AB
100
AcDbDictionary
280
     1
281
     1
  3
ACAD_XREC_ROUNDTRIP
360
819
  0
DICTIONARY
  5
81C
330
7AD
100
AcDbDictionary
280
     1
281
     1
  3
ACAD_XREC_ROUNDTRIP
360
81D
  0
DICTIONARY
  5
822
330
7C1
100
AcDbDictionary
280
     1
281
     1
  3
ACAD_XREC_ROUNDTRIP
360
823
  0
XRECORD
  5
83F
102
{ACAD_REACTORS
330
83E
102
}
330
83E
100
AcDbXrecord
280
     1
102
SHADEPLOT
 70
     0
102
SHADEPLOTRESLEVEL
 70
     2
102
SHADEPLOTCUSTOMDPI
 70
   300
  0
XRECORD
  5
841
102
{ACAD_REACTORS
330
840
102
}
330
840
100
AcDbXrecord
280
     1
102
SHADEPLOT
 70
     0
102
SHADEPLOTRESLEVEL
 70
     2
102
SHADEPLOTCUSTOMDPI
 70
   300
  0
XRECORD
  5
81B
102
{ACAD_REACTORS
330
81A
102
}
330
81A
100
AcDbXrecord
280
     1
102
MATERIAL
148
0.0
149
0.0
149
0.0
 93
        0
 94
       63
282
     0
 72
     1
 77
     1
171
     1
175
     1
179
     1
273
     0
  0
XRECORD
  5
819
102
{ACAD_REACTORS
330
818
102
}
330
818
100
AcDbXrecord
280
     1
102
MATERIAL
148
0.0
149
0.0
149
0.0
 93
        0
 94
       63
282
     0
 72
     1
 77
     1
171
     1
175
     1
179
     1
273
     0
  0
XRECORD
  5
81D
102
{ACAD_REACTORS
330
81C
102
}
330
81C
100
AcDbXrecord
280
     1
102
MATERIAL
148
0.0
149
0.0
149
0.0
 93
        0
 94
       63
282
     0
 72
     1
 77
     1
171
     1
175
     1
179
     1
273
     0
  0
XRECORD
  5
823
102
{ACAD_REACTORS
330
822
102
}
330
822
100
AcDbXrecord
280
     1
102
ACAD_ROUNDTRIP_PRE2007_TABLESTYLE
 90
      512
 91
        0
  1

 92
      512
 93
        0
  2

 94
      512
 95
        0
  3

  0
ENDSEC
  0
EOF
