  0
SECTION
  2
HEADER
  9
$ACADVER
  1
AC1015
  9
$ACADMAINTVER
 70
    10
  9
$DWGCODEPAGE
  3
ANSI_932
  9
$INSBASE
 10
0.0
 20
0.0
 30
0.0
  9
$EXTMIN
 10
156.8931642080544
 20
-52.57791403829378
 30
-0.000000000000013
  9
$EXTMAX
 10
157.9051758930169
 20
-51.57683845428414
 30
0.0000000000000023
  9
$LIMMIN
 10
0.0
 20
0.0
  9
$LIMMAX
 10
100.0
 20
100.0
  9
$ORTHOMODE
 70
     1
  9
$REGENMODE
 70
     1
  9
$FILLMODE
 70
     1
  9
$QTEXTMODE
 70
     0
  9
$MIRRTEXT
 70
     1
  9
$LTSCALE
 40
1.0
  9
$ATTMODE
 70
     1
  9
$TEXTSIZE
 40
0.0
  9
$TRACEWID
 40
0.05
  9
$TEXTSTYLE
  7
STANDARD
  9
$CLAYER
  8
DIM
  9
$CELTYPE
  6
CONTINUOUS
  9
$CECOLOR
 62
   256
  9
$CELTSCALE
 40
1.0
  9
$DISPSILH
 70
     0
  9
$DIMSCALE
 40
1.0
  9
$DIMASZ
 40
0.18
  9
$DIMEXO
 40
0.0625
  9
$DIMDLI
 40
0.38
  9
$DIMRND
 40
0.0
  9
$DIMDLE
 40
0.0
  9
$DIMEXE
 40
0.18
  9
$DIMTP
 40
0.0
  9
$DIMTM
 40
0.0
  9
$DIMTXT
 40
0.18
  9
$DIMCEN
 40
0.09
  9
$DIMTSZ
 40
0.0
  9
$DIMTOL
 70
     0
  9
$DIMLIM
 70
     0
  9
$DIMTIH
 70
     1
  9
$DIMTOH
 70
     1
  9
$DIMSE1
 70
     0
  9
$DIMSE2
 70
     0
  9
$DIMTAD
 70
     0
  9
$DIMZIN
 70
     0
  9
$DIMBLK
  1

  9
$DIMASO
 70
     1
  9
$DIMSHO
 70
     1
  9
$DIMPOST
  1

  9
$DIMAPOST
  1

  9
$DIMALT
 70
     0
  9
$DIMALTD
 70
     2
  9
$DIMALTF
 40
25.4
  9
$DIMLFAC
 40
1.0
  9
$DIMTOFL
 70
     0
  9
$DIMTVP
 40
0.0
  9
$DIMTIX
 70
     0
  9
$DIMSOXD
 70
     0
  9
$DIMSAH
 70
     0
  9
$DIMBLK1
  1

  9
$DIMBLK2
  1

  9
$DIMSTYLE
  2
STANDARD
  9
$DIMCLRD
 70
     0
  9
$DIMCLRE
 70
     0
  9
$DIMCLRT
 70
     0
  9
$DIMTFAC
 40
1.0
  9
$DIMGAP
 40
0.09
  9
$DIMJUST
 70
     0
  9
$DIMSD1
 70
     0
  9
$DIMSD2
 70
     0
  9
$DIMTOLJ
 70
     1
  9
$DIMTZIN
 70
     0
  9
$DIMALTZ
 70
     0
  9
$DIMALTTZ
 70
     0
  9
$DIMUPT
 70
     0
  9
$DIMDEC
 70
     4
  9
$DIMTDEC
 70
     4
  9
$DIMALTU
 70
     2
  9
$DIMALTTD
 70
     2
  9
$DIMTXSTY
  7
STANDARD
  9
$DIMAUNIT
 70
     0
  9
$DIMADEC
 70
     0
  9
$DIMALTRND
 40
0.0
  9
$DIMAZIN
 70
     0
  9
$DIMDSEP
 70
    46
  9
$DIMATFIT
 70
     3
  9
$DIMFRAC
 70
     0
  9
$DIMLDRBLK
  1

  9
$DIMLUNIT
 70
     2
  9
$DIMLWD
 70
    -2
  9
$DIMLWE
 70
    -2
  9
$DIMTMOVE
 70
     0
  9
$LUNITS
 70
     2
  9
$LUPREC
 70
     4
  9
$SKETCHINC
 40
0.1
  9
$FILLETRAD
 40
0.0
  9
$AUNITS
 70
     0
  9
$AUPREC
 70
     0
  9
$MENU
  1
acad
  9
$ELEVATION
 40
0.0
  9
$PELEVATION
 40
0.0
  9
$THICKNESS
 40
0.0
  9
$LIMCHECK
 70
     0
  9
$CHAMFERA
 40
0.0
  9
$CHAMFERB
 40
0.0
  9
$CHAMFERC
 40
0.0
  9
$CHAMFERD
 40
0.0
  9
$SKPOLY
 70
     0
  9
$TDCREATE
 40
2444972.375000000
  9
$TDUCREATE
 40
2444972.000000000
  9
$TDUPDATE
 40
2456381.488550347
  9
$TDUUPDATE
 40
2456381.113550347
  9
$TDINDWG
 40
0.1135806713
  9
$TDUSRTIMER
 40
0.1135806713
  9
$USRTIMER
 70
     1
  9
$ANGBASE
 50
0.0
  9
$ANGDIR
 70
     0
  9
$PDMODE
 70
     0
  9
$PDSIZE
 40
0.0
  9
$PLINEWID
 40
0.0
  9
$SPLFRAME
 70
     0
  9
$SPLINETYPE
 70
     6
  9
$SPLINESEGS
 70
     8
  9
$HANDSEED
  5
553B
  9
$SURFTAB1
 70
     6
  9
$SURFTAB2
 70
     6
  9
$SURFTYPE
 70
     6
  9
$SURFU
 70
     6
  9
$SURFV
 70
     6
  9
$UCSBASE
  2

  9
$UCSNAME
  2

  9
$UCSORG
 10
0.0
 20
0.0
 30
0.0
  9
$UCSXDIR
 10
1.0
 20
0.0
 30
0.0
  9
$UCSYDIR
 10
0.0
 20
1.0
 30
0.0
  9
$UCSORTHOREF
  2

  9
$UCSORTHOVIEW
 70
     0
  9
$UCSORGTOP
 10
0.0
 20
0.0
 30
0.0
  9
$UCSORGBOTTOM
 10
0.0
 20
0.0
 30
0.0
  9
$UCSORGLEFT
 10
0.0
 20
0.0
 30
0.0
  9
$UCSORGRIGHT
 10
0.0
 20
0.0
 30
0.0
  9
$UCSORGFRONT
 10
0.0
 20
0.0
 30
0.0
  9
$UCSORGBACK
 10
0.0
 20
0.0
 30
0.0
  9
$PUCSBASE
  2

  9
$PUCSNAME
  2

  9
$PUCSORG
 10
0.0
 20
0.0
 30
0.0
  9
$PUCSXDIR
 10
1.0
 20
0.0
 30
0.0
  9
$PUCSYDIR
 10
0.0
 20
1.0
 30
0.0
  9
$PUCSORTHOREF
  2

  9
$PUCSORTHOVIEW
 70
     0
  9
$PUCSORGTOP
 10
0.0
 20
0.0
 30
0.0
  9
$PUCSORGBOTTOM
 10
0.0
 20
0.0
 30
0.0
  9
$PUCSORGLEFT
 10
0.0
 20
0.0
 30
0.0
  9
$PUCSORGRIGHT
 10
0.0
 20
0.0
 30
0.0
  9
$PUCSORGFRONT
 10
0.0
 20
0.0
 30
0.0
  9
$PUCSORGBACK
 10
0.0
 20
0.0
 30
0.0
  9
$USERI1
 70
     0
  9
$USERI2
 70
     0
  9
$USERI3
 70
     0
  9
$USERI4
 70
     0
  9
$USERI5
 70
     0
  9
$USERR1
 40
0.0
  9
$USERR2
 40
0.0
  9
$USERR3
 40
0.0
  9
$USERR4
 40
0.0
  9
$USERR5
 40
0.0
  9
$WORLDVIEW
 70
     1
  9
$SHADEDGE
 70
     3
  9
$SHADEDIF
 70
    70
  9
$TILEMODE
 70
     1
  9
$MAXACTVP
 70
    16
  9
$PINSBASE
 10
0.0
 20
0.0
 30
0.0
  9
$PLIMCHECK
 70
     0
  9
$PEXTMIN
 10
1.000000000000000E+20
 20
1.000000000000000E+20
 30
1.000000000000000E+20
  9
$PEXTMAX
 10
-1.000000000000000E+20
 20
-1.000000000000000E+20
 30
-1.000000000000000E+20
  9
$PLIMMIN
 10
0.0
 20
0.0
  9
$PLIMMAX
 10
12.0
 20
9.0
  9
$UNITMODE
 70
     0
  9
$VISRETAIN
 70
     0
  9
$PLINEGEN
 70
     1
  9
$PSLTSCALE
 70
     0
  9
$TREEDEPTH
 70
  3020
  9
$CMLSTYLE
  2
STANDARD
  9
$CMLJUST
 70
     0
  9
$CMLSCALE
 40
1.0
  9
$PROXYGRAPHICS
 70
     1
  9
$MEASUREMENT
 70
     0
  9
$CELWEIGHT
370
    -1
  9
$ENDCAPS
280
     0
  9
$JOINSTYLE
280
     0
  9
$LWDISPLAY
290
     0
  9
$INSUNITS
 70
     0
  9
$HYPERLINKBASE
  1

  9
$STYLESHEET
  1
プリンタ.ctb
  9
$XEDIT
290
     1
  9
$CEPSNTYPE
380
     0
  9
$PSTYLEMODE
290
     1
  9
$FINGERPRINTGUID
  2
{7E5E7D33-40A8-4612-AA41-990508750287}
  9
$VERSIONGUID
  2
{139B795F-DC61-46D5-BA9D-C59BD41F0548}
  9
$EXTNAMES
290
     1
  9
$PSVPSCALE
 40
0.0
  9
$OLESTARTUP
290
     0
  0
ENDSEC
  0
SECTION
  2
CLASSES
  0
CLASS
  1
LWPOLYLINE
  2
AcDbPolyline
  3
AutoCAD 2000
 90
    32768
280
     0
281
     1
  0
CLASS
  1
IMAGE
  2
AcDbRasterImage
  3
ISM
 90
    32895
280
     0
281
     1
  0
CLASS
  1
OLE2FRAME
  2
AcDbOle2Frame
  3
AutoCAD 2000
 90
    32768
280
     0
281
     1
  0
CLASS
  1
HATCH
  2
AcDbHatch
  3
AutoCAD 2000
 90
    32768
280
     0
281
     1
  0
CLASS
  1
DICTIONARYVAR
  2
AcDbDictionaryVar
  3
AutoCAD 2000
 90
        0
280
     0
281
     0
  0
CLASS
  1
RASTERVARIABLES
  2
AcDbRasterVariables
  3
ISM
 90
    32768
280
     0
281
     0
  0
CLASS
  1
IMAGEDEF
  2
AcDbRasterImageDef
  3
ISM
 90
    32768
280
     0
281
     0
  0
CLASS
  1
IMAGEDEF_REACTOR
  2
AcDbRasterImageDefReactor
  3
ISM
 90
    32769
280
     0
281
     0
  0
CLASS
  1
IDBUFFER
  2
AcDbIdBuffer
  3
AutoCAD 2000
 90
    32768
280
     0
281
     0
  0
CLASS
  1
SPATIAL_FILTER
  2
AcDbSpatialFilter
  3
AutoCAD 2000
 90
    32768
280
     0
281
     0
  0
CLASS
  1
XRECORD
  2
AcDbXrecord
  3
AutoCAD 2000
 90
    32768
280
     0
281
     0
  0
CLASS
  1
SORTENTSTABLE
  2
AcDbSortentsTable
  3
AutoCAD 2000
 90
    32768
280
     0
281
     0
  0
CLASS
  1
LAYER_INDEX
  2
AcDbLayerIndex
  3
AutoCAD 2000
 90
    32768
280
     0
281
     0
  0
CLASS
  1
SPATIAL_INDEX
  2
AcDbSpatialIndex
  3
AutoCAD 2000
 90
    32768
280
     0
281
     0
  0
CLASS
  1
OBJECT_PTR
  2
CAseDLPNTableRecord
  3
"ASE-LPNTableRecord"
 90
    32768
280
     0
281
     0
  0
CLASS
  1
LAYOUT
  2
AcDbLayout
  3
AutoCAD 2000
 90
        0
280
     0
281
     0
  0
CLASS
  1
PLOTSETTINGS
  2
AcDbPlotSettings
  3
AutoCAD 2000
 90
    32768
280
     0
281
     0
  0
CLASS
  1
ACDBDICTIONARYWDFLT
  2
AcDbDictionaryWithDefault
  3
AutoCAD 2000
 90
        0
280
     0
281
     0
  0
CLASS
  1
ACDBPLACEHOLDER
  2
AcDbPlaceHolder
  3
AutoCAD 2000
 90
        0
280
     0
281
     0
  0
CLASS
  1
VBA_PROJECT
  2
AcDbVbaProject
  3
acad
 90
    32768
280
     0
281
     0
  0
CLASS
  1
WIPEOUT
  2
AcDbWipeout
  3
"WipeOut|Product Desc: Object Enabler for WipeOut entity^I^I^I^I^I^I|Company: Autodesk, Inc.^I^I^I^I^I^I|WEB Address: www.autodesk.com"
 90
    32895
280
     0
281
     1
  0
CLASS
  1
WIPEOUTVARIABLES
  2
AcDbWipeoutVariables
  3
"WipeOut|Product Desc:     WipeOut Dbx Application|Company:          Autodesk, Inc.|WEB Address:      www.autodesk.com"
 90
    32768
280
     0
281
     0
  0
CLASS
  1
RTEXT
  2
RText
  3
RText|AutoCAD Express Tool|expresstools@autodesk.com
 90
    32768
280
     0
281
     1
  0
CLASS
  1
ARCALIGNEDTEXT
  2
AcDbArcAlignedText
  3
ATEXT|AutoCAD Express Tool|expresstools@autodesk.com
 90
    32768
280
     0
281
     1
  0
CLASS
  1
LONG_TRANSACTION
  2
AcDbLongTransaction
  3
AutoCAD 2000
 90
    32768
280
     0
281
     0
  0
CLASS
  1
LWPOLYLINE
  2
AcDbPolyline
  3
AutoCAD 2000
 90
    32768
280
     0
281
     1
  0
CLASS
  1
HATCH
  2
AcDbHatch
  3
AutoCAD 2000
 90
    32768
280
     0
281
     1
  0
CLASS
  1
XRECORD
  2
AcDbXrecord
  3
AutoCAD 2000
 90
    32768
280
     0
281
     0
  0
CLASS
  1
LONG_TRANSACTION
  2
AcDbLongTransaction
  3
AutoCAD 2000
 90
    32768
280
     0
281
     0
  0
CLASS
  1
LWPOLYLINE
  2
AcDbPolyline
  3
AutoCAD 2000
 90
    32768
280
     0
281
     1
  0
CLASS
  1
HATCH
  2
AcDbHatch
  3
AutoCAD 2000
 90
    32768
280
     0
281
     1
  0
CLASS
  1
XRECORD
  2
AcDbXrecord
  3
AutoCAD 2000
 90
    32768
280
     0
281
     0
  0
CLASS
  1
MATERIAL
  2
AcDbMaterial
  3
ObjectDBX Classes
 90
        0
280
     0
281
     0
  0
CLASS
  1
VISUALSTYLE
  2
AcDbVisualStyle
  3
ObjectDBX Classes
 90
     4095
280
     0
281
     0
  0
CLASS
  1
TABLESTYLE
  2
AcDbTableStyle
  3
ObjectDBX Classes
 90
     2047
280
     0
281
     0
  0
ENDSEC
  0
SECTION
  2
TABLES
  0
TABLE
  2
VPORT
  5
7
102
{ACAD_XDICTIONARY
360
802
102
}
330
0
100
AcDbSymbolTable
 70
     2
  0
VPORT
  5
553A
330
7
100
AcDbSymbolTableRecord
100
AcDbViewportTableRecord
  2
*Active
 70
     0
 10
0.0
 20
0.0
 11
1.0
 21
1.0
 12
157.3991700505357
 22
-52.07737624628896
 13
0.0
 23
0.0
 14
1.0
 24
1.0
 15
0.0
 25
0.0
 16
0.0
 26
0.0
 36
1.0
 17
0.0
 27
0.0
 37
0.0
 40
1.00940631009017
 41
1.747222222222222
 42
50.0
 43
0.0
 44
0.0
 50
0.0
 51
0.0
 71
     0
 72
   100
 73
     1
 74
     0
 75
     0
 76
     0
 77
     0
 78
     0
281
     0
 65
     1
110
0.0
120
0.0
130
0.0
111
1.0
121
0.0
131
0.0
112
0.0
122
1.0
132
0.0
 79
     0
146
0.0
  0
ENDTAB
  0
TABLE
  2
LTYPE
  5
4
330
0
100
AcDbSymbolTable
 70
     4
  0
LTYPE
  5
11
330
4
100
AcDbSymbolTableRecord
100
AcDbLinetypeTableRecord
  2
BYBLOCK
 70
     0
  3

 72
    65
 73
     0
 40
0.0
  0
LTYPE
  5
12
330
4
100
AcDbSymbolTableRecord
100
AcDbLinetypeTableRecord
  2
BYLAYER
 70
     0
  3

 72
    65
 73
     0
 40
0.0
  0
LTYPE
  5
13
330
4
100
AcDbSymbolTableRecord
100
AcDbLinetypeTableRecord
  2
CONTINUOUS
 70
     0
  3
Solid line
 72
    65
 73
     0
 40
0.0
  0
LTYPE
  5
4BD0
330
4
100
AcDbSymbolTableRecord
100
AcDbLinetypeTableRecord
  2
AI-Linetype-1
 70
     0
  3
Adobe Illustrator Linetype No. 1
 72
    65
 73
     4
 40
3.623950058531568
 49
2.264968755041418
 74
     0
 49
-0.4529937678300501
 74
     0
 49
0.4529937678300501
 74
     0
 49
-0.4529937678300501
 74
     0
  0
LTYPE
  5
4BD1
330
4
100
AcDbSymbolTableRecord
100
AcDbLinetypeTableRecord
  2
AI-Linetype-2
 70
     0
  3
Adobe Illustrator Linetype No. 2
 72
    65
 73
     4
 40
3.623950058531568
 49
2.264968755041418
 74
     0
 49
-0.4529937678300501
 74
     0
 49
0.4529937678300501
 74
     0
 49
-0.4529937678300501
 74
     0
  0
LTYPE
  5
4BD2
330
4
100
AcDbSymbolTableRecord
100
AcDbLinetypeTableRecord
  2
AI-Linetype-3
 70
     0
  3
Adobe Illustrator Linetype No. 3
 72
    65
 73
     4
 40
3.623950058531568
 49
2.264968755041418
 74
     0
 49
-0.4529937678300501
 74
     0
 49
0.4529937678300501
 74
     0
 49
-0.4529937678300501
 74
     0
  0
ENDTAB
  0
TABLE
  2
LAYER
  5
2
102
{ACAD_XDICTIONARY
360
C88
102
}
330
0
100
AcDbSymbolTable
 70
     7
  0
LAYER
  5
14
102
{ACAD_XDICTIONARY
360
806
102
}
330
2
100
AcDbSymbolTableRecord
100
AcDbLayerTableRecord
  2
0
 70
     0
 62
     7
  6
CONTINUOUS
370
    -3
390
770
  0
LAYER
  5
8A5
330
2
100
AcDbSymbolTableRecord
100
AcDbLayerTableRecord
  2
DIM
 70
     0
 62
     3
  6
CONTINUOUS
370
    -3
390
770
  0
LAYER
  5
8A6
330
2
100
AcDbSymbolTableRecord
100
AcDbLayerTableRecord
  2
DEFPOINTS
 70
     0
 62
     7
  6
CONTINUOUS
290
     0
370
    -3
390
770
  0
LAYER
  5
C94
330
2
100
AcDbSymbolTableRecord
100
AcDbLayerTableRecord
  2
001
 70
     0
 62
     7
  6
CONTINUOUS
370
    -3
390
770
  0
LAYER
  5
C95
330
2
100
AcDbSymbolTableRecord
100
AcDbLayerTableRecord
  2
002
 70
     0
 62
     7
  6
CONTINUOUS
370
    -3
390
770
  0
LAYER
  5
EE0
330
2
100
AcDbSymbolTableRecord
100
AcDbLayerTableRecord
  2
LAYER_1
 70
     0
 62
   160
  6
CONTINUOUS
370
    -3
390
770
  0
LAYER
  5
4BD3
102
{ACAD_XDICTIONARY
360
4BD4
102
}
330
2
100
AcDbSymbolTableRecord
100
AcDbLayerTableRecord
  2
レイヤー 1
 70
     0
 62
     7
  6
CONTINUOUS
370
    -3
390
770
  0
ENDTAB
  0
TABLE
  2
STYLE
  5
3
330
0
100
AcDbSymbolTable
 70
     1
  0
STYLE
  5
17
330
3
100
AcDbSymbolTableRecord
100
AcDbTextStyleTableRecord
  2
STANDARD
 70
     0
 40
0.0
 41
0.8
 50
0.0
 71
     0
 42
0.0
  3
txt.shx
  4
extfont.shx
  0
ENDTAB
  0
TABLE
  2
VIEW
  5
5
330
0
100
AcDbSymbolTable
 70
     0
  0
ENDTAB
  0
TABLE
  2
UCS
  5
6
330
0
100
AcDbSymbolTable
 70
     0
  0
ENDTAB
  0
TABLE
  2
APPID
  5
8
330
0
100
AcDbSymbolTable
 70
     2
  0
APPID
  5
16
330
8
100
AcDbSymbolTableRecord
100
AcDbRegAppTableRecord
  2
ACAD
 70
     0
  0
APPID
  5
8AA
330
8
100
AcDbSymbolTableRecord
100
AcDbRegAppTableRecord
  2
ACAD_DSTYLE_DIMRADIAL_EXTENSION
 70
     0
  0
ENDTAB
  0
TABLE
  2
DIMSTYLE
  5
9
330
0
100
AcDbSymbolTable
 70
     1
100
AcDbDimStyleTable
 71
     0
  0
DIMSTYLE
105
18
330
9
100
AcDbSymbolTableRecord
100
AcDbDimStyleTableRecord
  2
STANDARD
 70
     0
340
17
  0
ENDTAB
  0
TABLE
  2
BLOCK_RECORD
  5
1
330
0
100
AcDbSymbolTable
 70
    12
  0
BLOCK_RECORD
  5
A
102
{ACAD_XDICTIONARY
360
767
102
}
330
1
100
AcDbSymbolTableRecord
100
AcDbBlockTableRecord
  2
*MODEL_SPACE
340
771
  0
BLOCK_RECORD
  5
B
102
{ACAD_XDICTIONARY
360
769
102
}
330
1
100
AcDbSymbolTableRecord
100
AcDbBlockTableRecord
  2
*PAPER_SPACE
340
772
  0
BLOCK_RECORD
  5
EC4
330
1
100
AcDbSymbolTableRecord
100
AcDbBlockTableRecord
  2
*X0
340
0
102
{BLKREFS
331
169F
102
}
  0
BLOCK_RECORD
  5
EC7
330
1
100
AcDbSymbolTableRecord
100
AcDbBlockTableRecord
  2
*X1
340
0
102
{BLKREFS
331
16A1
102
}
  0
BLOCK_RECORD
  5
ECA
330
1
100
AcDbSymbolTableRecord
100
AcDbBlockTableRecord
  2
*X2
340
0
102
{BLKREFS
331
16AA
102
}
  0
BLOCK_RECORD
  5
ECD
330
1
100
AcDbSymbolTableRecord
100
AcDbBlockTableRecord
  2
*X3
340
0
102
{BLKREFS
331
16AC
102
}
  0
BLOCK_RECORD
  5
ED0
330
1
100
AcDbSymbolTableRecord
100
AcDbBlockTableRecord
  2
*X4
340
0
102
{BLKREFS
331
16B5
102
}
  0
BLOCK_RECORD
  5
ED3
330
1
100
AcDbSymbolTableRecord
100
AcDbBlockTableRecord
  2
*X5
340
0
102
{BLKREFS
331
16B7
102
}
  0
BLOCK_RECORD
  5
288B
330
1
100
AcDbSymbolTableRecord
100
AcDbBlockTableRecord
  2
*X6
340
0
102
{BLKREFS
331
377B
102
}
  0
BLOCK_RECORD
  5
288E
330
1
100
AcDbSymbolTableRecord
100
AcDbBlockTableRecord
  2
*X7
340
0
102
{BLKREFS
331
377D
102
}
  0
BLOCK_RECORD
  5
2891
330
1
100
AcDbSymbolTableRecord
100
AcDbBlockTableRecord
  2
*X8
340
0
102
{BLKREFS
331
348D
102
}
  0
BLOCK_RECORD
  5
2894
330
1
100
AcDbSymbolTableRecord
100
AcDbBlockTableRecord
  2
*X9
340
0
102
{BLKREFS
331
348F
102
}
  0
BLOCK_RECORD
  5
2897
330
1
100
AcDbSymbolTableRecord
100
AcDbBlockTableRecord
  2
*X10
340
0
102
{BLKREFS
331
3335
102
}
  0
BLOCK_RECORD
  5
289A
330
1
100
AcDbSymbolTableRecord
100
AcDbBlockTableRecord
  2
*X11
340
0
102
{BLKREFS
331
3337
102
}
  0
ENDTAB
  0
ENDSEC
  0
SECTION
  2
BLOCKS
  0
BLOCK
  5
D
330
A
100
AcDbEntity
  8
0
100
AcDbBlockBegin
  2
*MODEL_SPACE
 70
     0
 10
0.0
 20
0.0
 30
0.0
  3
*MODEL_SPACE
  1

  0
ENDBLK
  5
E
330
A
100
AcDbEntity
  8
0
100
AcDbBlockEnd
  0
BLOCK
  5
F
330
B
100
AcDbEntity
 67
     1
  8
0
100
AcDbBlockBegin
  2
*PAPER_SPACE
 70
     0
 10
0.0
 20
0.0
 30
0.0
  3
*PAPER_SPACE
  1

  0
ENDBLK
  5
10
330
B
100
AcDbEntity
 67
     1
  8
0
100
AcDbBlockEnd
  0
BLOCK
  5
EC5
330
EC4
100
AcDbEntity
  8
0
100
AcDbBlockBegin
  2
*X0
 70
     1
 10
0.0
 20
0.0
 30
0.0
  3
*X0
  1

  0
ENDBLK
  5
EC6
330
EC4
100
AcDbEntity
  8
0
100
AcDbBlockEnd
  0
BLOCK
  5
EC8
330
EC7
100
AcDbEntity
  8
0
100
AcDbBlockBegin
  2
*X1
 70
     1
 10
0.0
 20
0.0
 30
0.0
  3
*X1
  1

  0
ENDBLK
  5
EC9
330
EC7
100
AcDbEntity
  8
0
100
AcDbBlockEnd
  0
BLOCK
  5
ECB
330
ECA
100
AcDbEntity
  8
0
100
AcDbBlockBegin
  2
*X2
 70
     1
 10
0.0
 20
0.0
 30
0.0
  3
*X2
  1

  0
ENDBLK
  5
ECC
330
ECA
100
AcDbEntity
  8
0
100
AcDbBlockEnd
  0
BLOCK
  5
ECE
330
ECD
100
AcDbEntity
  8
0
100
AcDbBlockBegin
  2
*X3
 70
     1
 10
0.0
 20
0.0
 30
0.0
  3
*X3
  1

  0
ENDBLK
  5
ECF
330
ECD
100
AcDbEntity
  8
0
100
AcDbBlockEnd
  0
BLOCK
  5
ED1
330
ED0
100
AcDbEntity
  8
0
100
AcDbBlockBegin
  2
*X4
 70
     1
 10
0.0
 20
0.0
 30
0.0
  3
*X4
  1

  0
ENDBLK
  5
ED2
330
ED0
100
AcDbEntity
  8
0
100
AcDbBlockEnd
  0
BLOCK
  5
ED4
330
ED3
100
AcDbEntity
  8
0
100
AcDbBlockBegin
  2
*X5
 70
     1
 10
0.0
 20
0.0
 30
0.0
  3
*X5
  1

  0
ENDBLK
  5
ED5
330
ED3
100
AcDbEntity
  8
0
100
AcDbBlockEnd
  0
BLOCK
  5
288C
330
288B
100
AcDbEntity
  8
0
100
AcDbBlockBegin
  2
*X6
 70
     1
 10
0.0
 20
0.0
 30
0.0
  3
*X6
  1

  0
ENDBLK
  5
288D
330
288B
100
AcDbEntity
  8
0
100
AcDbBlockEnd
  0
BLOCK
  5
288F
330
288E
100
AcDbEntity
  8
0
100
AcDbBlockBegin
  2
*X7
 70
     1
 10
0.0
 20
0.0
 30
0.0
  3
*X7
  1

  0
ENDBLK
  5
2890
330
288E
100
AcDbEntity
  8
0
100
AcDbBlockEnd
  0
BLOCK
  5
2892
330
2891
100
AcDbEntity
  8
0
100
AcDbBlockBegin
  2
*X8
 70
     1
 10
0.0
 20
0.0
 30
0.0
  3
*X8
  1

  0
ENDBLK
  5
2893
330
2891
100
AcDbEntity
  8
0
100
AcDbBlockEnd
  0
BLOCK
  5
2895
330
2894
100
AcDbEntity
  8
0
100
AcDbBlockBegin
  2
*X9
 70
     1
 10
0.0
 20
0.0
 30
0.0
  3
*X9
  1

  0
ENDBLK
  5
2896
330
2894
100
AcDbEntity
  8
0
100
AcDbBlockEnd
  0
BLOCK
  5
2898
330
2897
100
AcDbEntity
  8
0
100
AcDbBlockBegin
  2
*X10
 70
     1
 10
0.0
 20
0.0
 30
0.0
  3
*X10
  1

  0
ENDBLK
  5
2899
330
2897
100
AcDbEntity
  8
0
100
AcDbBlockEnd
  0
BLOCK
  5
289B
330
289A
100
AcDbEntity
  8
0
100
AcDbBlockBegin
  2
*X11
 70
     1
 10
0.0
 20
0.0
 30
0.0
  3
*X11
  1

  0
ENDBLK
  5
289C
330
289A
100
AcDbEntity
  8
0
100
AcDbBlockEnd
  0
ENDSEC
  0
SECTION
  2
ENTITIES
  0
LINE
  5
A6
330
A
100
AcDbEntity
  8
002
100
AcDbLine
 10
156.9030835676499
 20
-51.66628467556777
 30
0.0
 11
157.9030835676499
 21
-51.66628467556777
 31
0.0
  0
LINE
  5
A5
330
A
100
AcDbEntity
  8
002
100
AcDbLine
 10
157.1030839139918
 20
-51.58628401751809
 30
0.0
 11
157.1030839139918
 21
-51.66628467556777
 31
0.0
  0
LINE
  5
A4
330
A
100
AcDbEntity
  8
001
100
AcDbLine
 10
157.0030837408209
 20
-52.20627946409091
 30
0.0
 11
157.8030842603338
 21
-52.20627946409091
 31
0.0
  0
LINE
  5
A3
330
A
100
AcDbEntity
  8
002
100
AcDbLine
 10
157.8030842603338
 20
-52.20627946409091
 30
0.0
 11
157.8030842603337
 21
-52.56627593140315
 31
0.0
  0
LINE
  5
A2
330
A
100
AcDbEntity
  8
002
100
AcDbLine
 10
157.0030837408209
 20
-52.20627946409091
 30
0.0
 11
157.0030837408209
 21
-52.56627593140315
 31
0.0
  0
LINE
  5
A1
330
A
100
AcDbEntity
  8
002
100
AcDbLine
 10
157.0030837408209
 20
-52.2462784943335
 30
0.0
 11
157.8030842603338
 21
-52.2462784943335
 31
0.0
  0
LINE
  5
A0
330
A
100
AcDbEntity
  8
002
100
AcDbLine
 10
157.0030837408209
 20
-52.32628001823801
 30
0.0
 11
157.8030842603338
 21
-52.32628001823801
 31
0.0
  0
LINE
  5
9F
330
A
100
AcDbEntity
  8
002
100
AcDbLine
 10
157.0030837408209
 20
-52.36627904848059
 30
0.0
 11
157.8030842603338
 21
-52.36627904848059
 31
0.0
  0
LINE
  5
9E
330
A
100
AcDbEntity
  8
002
100
AcDbLine
 10
157.0030837408209
 20
-52.40627981043285
 30
0.0
 11
157.8030842603338
 21
-52.40627981043285
 31
0.0
  0
LINE
  5
9D
330
A
100
AcDbEntity
  8
002
100
AcDbLine
 10
157.1580838793576
 20
-52.20627946409091
 30
0.0
 11
157.1580838793576
 21
-52.56627593140315
 31
0.0
  0
LINE
  5
9C
330
A
100
AcDbEntity
  8
002
100
AcDbLine
 10
157.0030837408209
 20
-52.28627925628575
 30
0.0
 11
157.8030842603338
 21
-52.28627925628575
 31
0.0
  0
TEXT
  5
26B
330
A
100
AcDbEntity
  8
002
  6
Continuous
100
AcDbText
 10
157.1795856526283
 20
-52.27877922165156
 30
0.0
 40
0.024999993243562
  1
１／３インチ　高感度 ＣＣＤ
 41
0.7
100
AcDbText
  0
TEXT
  5
4D4
330
A
100
AcDbEntity
  8
002
  6
Continuous
100
AcDbText
 10
157.7179113613049
 20
-51.70878429459165
 30
0.0
 40
0.024999993243562
  1
DBB-20VF
 41
0.8
100
AcDbText
  0
TEXT
  5
4D5
330
A
100
AcDbEntity
  8
002
  6
Continuous
100
AcDbText
 10
157.1968620542742
 20
-51.64628429459164
 30
0.0
 40
0.0399999901963199
  1
ＷＤＲ＆デイナイトカメラ
 41
0.8
100
AcDbText
  0
TEXT
  5
4D7
330
A
100
AcDbEntity
  8
002
  6
Continuous
100
AcDbText
 10
157.1747498533404
 20
-52.23878019140898
 30
0.0
 40
0.024999993243562
  1
ＤＣ１２Ｖ
 41
0.7
100
AcDbText
  0
TEXT
  5
4D9
330
A
100
AcDbEntity
  8
002
  6
Continuous
100
AcDbText
 10
157.1791960179498
 20
-52.31877998360381
 30
0.0
 40
0.024999993243562
  1
４１万画素　８１１（Ｈ）×５０８（Ｖ）
 41
0.7
100
AcDbText
  0
TEXT
  5
4DA
330
A
100
AcDbEntity
  8
002
  6
Continuous
100
AcDbText
 10
157.0222104742622
 20
-52.27877922165156
 30
0.0
 40
0.024999993243562
  1
撮像素子
 41
0.8
100
AcDbText
  0
TEXT
  5
4DC
330
A
100
AcDbEntity
  8
002
  6
Continuous
100
AcDbText
 10
157.0222104742622
 20
-52.31877998360381
 30
0.0
 40
0.024999993243562
  1
総画素数
 41
0.8
100
AcDbText
  0
TEXT
  5
4DD
330
A
100
AcDbEntity
  8
002
  6
Continuous
100
AcDbText
 10
157.0222104742622
 20
-52.23878019140898
 30
0.0
 40
0.024999993243562
  1
電　　源
 41
0.8
100
AcDbText
  0
LINE
  5
651
330
A
100
AcDbEntity
  8
002
100
AcDbLine
 10
157.0030837408209
 20
-52.48627787091801
 30
0.0
 11
157.8030842603338
 21
-52.48627787091801
 31
0.0
  0
TEXT
  5
67A
330
A
100
AcDbEntity
  8
002
  6
Continuous
100
AcDbText
 10
157.1791964250376
 20
-52.35877899264076
 30
0.0
 40
0.0249999769310372
  1
３８万画素　７６８（Ｈ）×４９４（Ｖ）
 41
0.7
100
AcDbText
  0
TEXT
  5
67B
330
A
100
AcDbEntity
  8
002
  6
Continuous
100
AcDbText
 10
157.1791964250376
 20
-52.39878147743931
 30
0.0
 40
0.0249999769310372
  1
５８０ ＴＶ 本（ＢＷ６５０ＴＶ本）
 41
0.7
100
AcDbText
  0
TEXT
  5
67D
330
A
100
AcDbEntity
  8
002
  6
Continuous
100
AcDbText
 10
157.0222109837833
 20
-52.35877985849504
 30
0.0
 40
0.0249999769310372
  1
有効画素数
 41
0.8
100
AcDbText
  0
TEXT
  5
67E
330
A
100
AcDbEntity
  8
002
  6
Continuous
100
AcDbText
 10
157.0222109837833
 20
-52.55876898407943
 30
0.0
 40
0.0249999769310372
  1
その他
 41
0.8
100
AcDbText
  0
TEXT
  5
67F
330
A
100
AcDbEntity
  8
002
  6
Continuous
100
AcDbText
 10
157.0222109837833
 20
-52.39877972849249
 30
0.0
 40
0.0249999769310372
  1
水平解像度
 41
0.8
100
AcDbText
  0
LINE
  5
689
330
A
100
AcDbEntity
  8
002
100
AcDbLine
 10
157.0030837408209
 20
-52.52627690116058
 30
0.0
 11
157.8030842603338
 21
-52.52627690116058
 31
0.0
  0
LINE
  5
74E
330
A
100
AcDbEntity
  8
002
100
AcDbLine
 10
157.1580838793576
 20
-52.44627884067543
 30
0.0
 11
157.8030842603338
 21
-52.44627884067543
 31
0.0
  0
TEXT
  5
74F
330
A
100
AcDbEntity
  8
002
  6
Continuous
100
AcDbText
 10
157.1791964250376
 20
-52.43878048158247
 30
0.0
 40
0.0249999769310372
  1
カラー ： ０．０５Ｌｕｘ
 41
0.6
100
AcDbText
  0
TEXT
  5
846
330
A
100
AcDbEntity
  8
002
  6
Continuous
100
AcDbText
 10
157.0222109837833
 20
-52.43878049044474
 30
0.0
 40
0.0249999769310372
  1
最低被写体照度
 41
0.6
100
AcDbText
  0
TEXT
  5
847
330
A
100
AcDbEntity
  8
002
  6
Continuous
100
AcDbText
 10
157.0222109837833
 20
-52.51877513128793
 30
0.0
 40
0.0249999769310372
  1
レンズ
 41
0.8
100
AcDbText
  0
LINE
  5
C70
330
A
100
AcDbEntity
  8
002
100
AcDbLine
 10
156.9657349660014
 20
-51.60935948300651
 30
0.0
 11
157.0137349660014
 21
-51.60935948300651
 31
0.0
  0
LINE
  5
C73
330
A
100
AcDbEntity
  8
002
100
AcDbLine
 10
157.0137349660014
 20
-51.61535948300651
 30
0.0
 11
157.0137349660014
 21
-51.60935948300651
 31
0.0
  0
LINE
  5
C74
330
A
100
AcDbEntity
  8
002
100
AcDbLine
 10
156.9657349660014
 20
-51.61535948300651
 30
0.0
 11
156.9657349660014
 21
-51.60935948300651
 31
0.0
  0
LINE
  5
C75
330
A
100
AcDbEntity
  8
002
100
AcDbLine
 10
156.9657349660014
 20
-51.61535948300651
 30
0.0
 11
157.0137349660014
 21
-51.61535948300651
 31
0.0
  0
TEXT
  5
C8F
330
A
100
AcDbEntity
  8
002
100
AcDbText
 10
157.0266995171008
 20
-51.64857992050097
 30
0.0
 40
0.024
  1
DN
 41
0.8
 72
     4
 11
157.0426995171008
 21
-51.63657992050097
 31
0.0
100
AcDbText
  0
LINE
  5
E33
330
A
100
AcDbEntity
  8
002
100
AcDbLine
 10
157.0030837408209
 20
-52.56627593140316
 30
0.0
 11
157.8030842603338
 21
-52.56627593140316
 31
0.0
  0
TEXT
  5
E35
330
A
100
AcDbEntity
  8
002
  6
Continuous
100
AcDbText
 10
157.1791964250376
 20
-52.47878210938957
 30
0.0
 40
0.0249999769310372
  1
白黒　 ： ０．０００２Ｌｕｘ（ＤＳＳ ＯＮ）
 41
0.6
100
AcDbText
  0
TEXT
  5
E36
330
A
100
AcDbEntity
  8
002
  6
Continuous
100
AcDbText
 10
157.1791964250376
 20
-52.51878113963215
 30
0.0
 40
0.0249999769310372
  1
ＤＣアイリス バリフォーカルレンズ（ｆ＝２．８－１０．５ｍｍ、Ｆ１．２）
 41
0.55
100
AcDbText
  0
INSERT
  5
169F
330
A
100
AcDbEntity
  8
LAYER_1
 62
   104
100
AcDbBlockReference
  2
*X0
 10
331.497220711081
 20
49.39036019161815
 30
0.0
  0
INSERT
  5
16A1
330
A
100
AcDbEntity
  8
LAYER_1
 62
   104
100
AcDbBlockReference
  2
*X1
 10
331.497220711081
 20
49.39036019161815
 30
0.0
  0
INSERT
  5
16AA
330
A
100
AcDbEntity
  8
LAYER_1
 62
   104
100
AcDbBlockReference
  2
*X2
 10
323.113925711081
 20
60.13862719161815
 30
0.0
  0
INSERT
  5
16AC
330
A
100
AcDbEntity
  8
LAYER_1
 62
   104
100
AcDbBlockReference
  2
*X3
 10
323.113925711081
 20
60.13862719161815
 30
0.0
  0
INSERT
  5
16B5
330
A
100
AcDbEntity
  8
LAYER_1
 62
   104
100
AcDbBlockReference
  2
*X4
 10
422.318894711081
 20
51.09396019161815
 30
0.0
  0
INSERT
  5
16B7
330
A
100
AcDbEntity
  8
LAYER_1
 62
   104
100
AcDbBlockReference
  2
*X5
 10
422.318894711081
 20
51.09396019161815
 30
0.0
  0
SPLINE
  5
1D7F
330
A
100
AcDbEntity
  8
002
100
AcDbSpline
210
0.0
220
0.0
230
1.0
 70
     8
 71
     3
 72
     8
 73
     4
 74
     0
 42
0.0000000001
 43
0.0000000001
 40
1.0
 40
1.0
 40
1.0
 40
1.0
 40
2.0
 40
2.0
 40
2.0
 40
2.0
 10
156.9897349660014
 20
-51.63608389856648
 30
0.0
 10
157.0008481998429
 20
-51.63544865384107
 30
0.0
 10
157.009663551228
 20
-51.62648158898107
 30
0.0
 10
157.0101089323064
 20
-51.61535948300651
 30
0.0
  0
SPLINE
  5
1D81
330
A
100
AcDbEntity
  8
002
100
AcDbSpline
210
0.0
220
0.0
230
1.0
 70
     8
 71
     3
 72
     8
 73
     4
 74
     0
 42
0.0000000001
 43
0.0000000001
 40
1.0
 40
1.0
 40
1.0
 40
1.0
 40
2.0
 40
2.0
 40
2.0
 40
2.0
 10
156.9897349660014
 20
-51.63608389856648
 30
0.0
 10
156.9786217321599
 20
-51.63544865384107
 30
0.0
 10
156.9698063807748
 20
-51.62648158898107
 30
0.0
 10
156.9693609996964
 20
-51.61535948300651
 30
0.0
  0
INSERT
  5
3335
330
A
100
AcDbEntity
  8
LAYER_1
 62
   104
100
AcDbBlockReference
  2
*X10
 10
158.8447639554937
 20
-51.86460665502252
 30
0.0
 41
0.0037494214483615
 42
0.0037494214483544
 43
0.003749421448353
  0
INSERT
  5
3337
330
A
100
AcDbEntity
  8
LAYER_1
 62
   104
100
AcDbBlockReference
  2
*X11
 10
158.8447639554937
 20
-51.86460665502252
 30
0.0
 41
0.0037494214483615
 42
0.0037494214483544
 43
0.003749421448353
  0
INSERT
  5
348D
330
A
100
AcDbEntity
  8
LAYER_1
 62
   104
100
AcDbBlockReference
  2
*X8
 10
158.4728027169419
 20
-51.83069438657952
 30
0.0
 41
0.0037494214483615
 42
0.0037494214483544
 43
0.003749421448353
  0
INSERT
  5
348F
330
A
100
AcDbEntity
  8
LAYER_1
 62
   104
100
AcDbBlockReference
  2
*X9
 10
158.4728027169419
 20
-51.83069438657952
 30
0.0
 41
0.0037494214483615
 42
0.0037494214483544
 43
0.003749421448353
  0
INSERT
  5
377B
330
A
100
AcDbEntity
  8
LAYER_1
 62
   104
100
AcDbBlockReference
  2
*X6
 10
158.5042352230228
 20
-51.87099416940195
 30
0.0
 41
0.0037494214483615
 42
0.0037494214483544
 43
0.003749421448353
  0
INSERT
  5
377D
330
A
100
AcDbEntity
  8
LAYER_1
 62
   104
100
AcDbBlockReference
  2
*X7
 10
158.5042352230228
 20
-51.87099416940195
 30
0.0
 41
0.0037494214483615
 42
0.0037494214483544
 43
0.003749421448353
  0
SPLINE
  5
4EBC
330
A
100
AcDbEntity
  8
001
370
     9
100
AcDbSpline
210
0.0
220
0.0
230
1.0
 70
     8
 71
     3
 72
     8
 73
     4
 74
     0
 42
0.0000000001
 43
0.0000000001
 40
0.0
 40
0.0
 40
0.0
 40
0.0
 40
1.0
 40
1.0
 40
1.0
 40
1.0
 10
157.5124680777138
 20
-52.05278661446861
 30
0.0
 10
157.5124680777138
 20
-52.05319623659203
 30
0.0
 10
157.5123454322336
 20
-52.05358587714846
 30
0.0
 10
157.5120918730386
 20
-52.05383047908927
 30
0.0
1001
ACAD
1000
RTTcAl
1070
-26105
1071
-1023410177
1000
$$NoName$$
  0
SPLINE
  5
4EBD
330
A
100
AcDbEntity
  8
001
370
     9
100
AcDbSpline
210
0.0
220
0.0
230
1.0
 70
     8
 71
     3
 72
     8
 73
     4
 74
     0
 42
0.0000000001
 43
0.0000000001
 40
0.0
 40
0.0
 40
0.0
 40
0.0
 40
1.0
 40
1.0
 40
1.0
 40
1.0
 10
157.51255076006
 20
-52.05383047908927
 30
0.0
 10
157.5127912278835
 20
-52.05357967597249
 30
0.0
 10
157.5129800192406
 20
-52.05318314522056
 30
0.0
 10
157.5129972447294
 20
-52.05278661446861
 30
0.0
1001
ACAD
1000
RTTcAl
1070
-26105
1071
-1023410177
1000
$$NoName$$
  0
SPLINE
  5
4EBE
330
A
100
AcDbEntity
  8
001
370
     9
100
AcDbSpline
210
0.0
220
0.0
230
1.0
 70
     8
 71
     3
 72
     8
 73
     4
 74
     0
 42
0.0000000001
 43
0.0000000001
 40
0.0
 40
0.0
 40
0.0
 40
0.0
 40
1.0
 40
1.0
 40
1.0
 40
1.0
 10
157.5110190695968
 20
-52.05383047908927
 30
0.0
 10
157.510782046871
 20
-52.05358587714846
 30
0.0
 10
157.5106511331562
 20
-52.05319554757249
 30
0.0
 10
157.5106511331562
 20
-52.05278661446861
 30
0.0
1001
ACAD
1000
RTTcAl
1070
-26105
1071
-1023410177
1000
$$NoName$$
  0
SPLINE
  5
4EFB
330
A
100
AcDbEntity
  8
001
370
     9
100
AcDbSpline
210
0.0
220
0.0
230
1.0
 70
     8
 71
     3
 72
     8
 73
     4
 74
     0
 42
0.0000000001
 43
0.0000000001
 40
0.0
 40
0.0
 40
0.0
 40
0.0
 40
1.0
 40
1.0
 40
1.0
 40
1.0
 10
157.5324716933356
 20
-52.01189778270872
 30
0.0
 10
157.5237259681673
 20
-52.00707188976936
 30
0.0
 10
157.5131074878577
 20
-52.00707188976936
 30
0.0
 10
157.5043610736698
 20
-52.01189778270872
 30
0.0
1001
ACAD
1000
RTTcAl
1070
-26105
1071
-1023410177
1000
$$NoName$$
  0
SPLINE
  5
5020
330
A
100
AcDbEntity
  8
001
370
     9
100
AcDbSpline
210
0.0
220
0.0
230
1.0
 70
     8
 71
     3
 72
     8
 73
     4
 74
     0
 42
0.0000000001
 43
0.0000000001
 40
0.0
 40
0.0
 40
0.0
 40
0.0
 40
1.0
 40
1.0
 40
1.0
 40
1.0
 10
157.5026364577321
 20
-52.03610131700727
 30
0.0
 10
157.5024986538218
 20
-52.03610131700727
 30
0.0
 10
157.5023732522634
 20
-52.03620570346933
 30
0.0
 10
157.5023732522634
 20
-52.03634764149696
 30
0.0
1001
ACAD
1000
RTTcAl
1070
-26105
1071
-1023410177
1000
$$NoName$$
  0
SPLINE
  5
5029
330
A
100
AcDbEntity
  8
001
370
     9
100
AcDbSpline
210
0.0
220
0.0
230
1.0
 70
     8
 71
     3
 72
     8
 73
     4
 74
     0
 42
0.0000000001
 43
0.0000000001
 40
0.0
 40
0.0
 40
0.0
 40
0.0
 40
1.0
 40
1.0
 40
1.0
 40
1.0
 10
157.5023732522634
 20
-52.039720392202
 30
0.0
 10
157.5023732522634
 20
-52.03985854062209
 30
0.0
 10
157.5024986538218
 20
-52.03997670747519
 30
0.0
 10
157.5026357687126
 20
-52.03997670747519
 30
0.0
1001
ACAD
1000
RTTcAl
1070
-26105
1071
-1023410177
1000
$$NoName$$
  0
SPLINE
  5
51DB
330
A
100
AcDbEntity
  8
001
370
     9
100
AcDbSpline
210
0.0
220
0.0
230
1.0
 70
    11
 71
     3
 72
    17
 73
    13
 74
     0
 42
0.0000000001
 43
0.0000000001
 40
0.0
 40
0.0
 40
0.0
 40
0.0
 40
1.0
 40
1.0
 40
1.0
 40
2.0
 40
2.0
 40
2.0
 40
3.0
 40
3.0
 40
3.0
 40
4.0
 40
4.0
 40
4.0
 40
4.0
 10
157.3348979865206
 20
-51.81953353604701
 30
0.0
 10
157.3348979865206
 20
-51.77132214900257
 30
0.0
 10
157.2958037061828
 20
-51.73222028944973
 30
0.0
 10
157.2475940416872
 20
-51.73222028944973
 30
0.0
 10
157.1993712858202
 20
-51.73222028944973
 30
0.0
 10
157.1602728713651
 20
-51.77132214900257
 30
0.0
 10
157.1602728713651
 20
-51.81953353604701
 30
0.0
 10
157.1602728713651
 20
-51.86775388034563
 30
0.0
 10
157.1993712858202
 20
-51.90684953872251
 30
0.0
 10
157.2475940416872
 20
-51.90684953872251
 30
0.0
 10
157.2958037061828
 20
-51.90684953872251
 30
0.0
 10
157.3348979865206
 20
-51.86775388034563
 30
0.0
 10
157.3348979865206
 20
-51.81953353604701
 30
0.0
1001
ACAD
1000
RTTcAl
1070
-26105
1071
-1023410177
1000
$$NoName$$
  0
SPLINE
  5
51DC
330
A
100
AcDbEntity
  8
001
370
     9
100
AcDbSpline
210
0.0
220
0.0
230
1.0
 70
     8
 71
     3
 72
     8
 73
     4
 74
     0
 42
0.0000000001
 43
0.0000000001
 40
0.0
 40
0.0
 40
0.0
 40
0.0
 40
1.0
 40
1.0
 40
1.0
 40
1.0
 10
157.2794384583032
 20
-51.89444580875475
 30
0.0
 10
157.3071969889782
 20
-51.88263187952316
 30
0.0
 10
157.3261488162545
 20
-51.85644982558221
 30
0.0
 10
157.3286909538901
 20
-51.8263872135267
 30
0.0
1001
ACAD
1000
RTTcAl
1070
-26105
1071
-1023410177
1000
$$NoName$$
  0
SPLINE
  5
51DD
330
A
100
AcDbEntity
  8
001
370
     9
100
AcDbSpline
210
0.0
220
0.0
230
1.0
 70
     8
 71
     3
 72
     8
 73
     4
 74
     0
 42
0.0000000001
 43
0.0000000001
 40
0.0
 40
0.0
 40
0.0
 40
0.0
 40
1.0
 40
1.0
 40
1.0
 40
1.0
 10
157.3288852574036
 20
-51.82633209196257
 30
0.0
 10
157.3292559499224
 20
-51.82181487978233
 30
0.0
 10
157.3292559499224
 20
-51.81726803976139
 30
0.0
 10
157.3288852574036
 20
-51.81274738248339
 30
0.0
1001
ACAD
1000
RTTcAl
1070
-26105
1071
-1023410177
1000
$$NoName$$
  0
SPLINE
  5
51DE
330
A
100
AcDbEntity
  8
001
370
     9
100
AcDbSpline
210
0.0
220
0.0
230
1.0
 70
     8
 71
     3
 72
     8
 73
     4
 74
     0
 42
0.0000000001
 43
0.0000000001
 40
0.0
 40
0.0
 40
0.0
 40
0.0
 40
1.0
 40
1.0
 40
1.0
 40
1.0
 10
157.3286985331051
 20
-51.81268261464554
 30
0.0
 10
157.3253605778875
 20
-51.77313564846237
 30
0.0
 10
157.2939908957426
 20
-51.74176389925883
 30
0.0
 10
157.2544453075985
 20
-51.7384393799224
 30
0.0
1001
ACAD
1000
RTTcAl
1070
-26105
1071
-1023410177
1000
$$NoName$$
  0
SPLINE
  5
51DF
330
A
100
AcDbEntity
  8
001
370
     9
100
AcDbSpline
210
0.0
220
0.0
230
1.0
 70
     8
 71
     3
 72
     8
 73
     4
 74
     0
 42
0.0000000001
 43
0.0000000001
 40
0.0
 40
0.0
 40
0.0
 40
0.0
 40
1.0
 40
1.0
 40
1.0
 40
1.0
 10
157.25438157329
 20
-51.73824645444796
 30
0.0
 10
157.2498571264044
 20
-51.73786060349907
 30
0.0
 10
157.245317176579
 20
-51.73786060349907
 30
0.0
 10
157.240793418713
 20
-51.73824645444796
 30
0.0
1001
ACAD
1000
RTTcAl
1070
-26105
1071
-1023410177
1000
$$NoName$$
  0
SPLINE
  5
51E0
330
A
100
AcDbEntity
  8
001
370
     9
100
AcDbSpline
210
0.0
220
0.0
230
1.0
 70
     8
 71
     3
 72
     8
 73
     4
 74
     0
 42
0.0000000001
 43
0.0000000001
 40
0.0
 40
0.0
 40
0.0
 40
0.0
 40
1.0
 40
1.0
 40
1.0
 40
1.0
 10
157.2407348520511
 20
-51.73842973364868
 30
0.0
 10
157.2011896084169
 20
-51.74176389925883
 30
0.0
 10
157.1698095909787
 20
-51.77313564846237
 30
0.0
 10
157.1664836936032
 20
-51.81267710248913
 30
0.0
1001
ACAD
1000
RTTcAl
1070
-26105
1071
-1023410177
1000
$$NoName$$
  0
SPLINE
  5
51E2
330
A
100
AcDbEntity
  8
001
370
     9
100
AcDbSpline
210
0.0
220
0.0
230
1.0
 70
     8
 71
     3
 72
     8
 73
     4
 74
     0
 42
0.0000000001
 43
0.0000000001
 40
0.0
 40
0.0
 40
0.0
 40
0.0
 40
1.0
 40
1.0
 40
1.0
 40
1.0
 10
157.2782605793797
 20
-51.89179170544202
 30
0.0
 10
157.3049948824913
 20
-51.88044148636865
 30
0.0
 10
157.3232756047243
 20
-51.85526540097303
 30
0.0
 10
157.3257815688335
 20
-51.82633209196257
 30
0.0
1001
ACAD
1000
RTTcAl
1070
-26105
1071
-1023410177
1000
$$NoName$$
  0
SPLINE
  5
51E3
330
A
100
AcDbEntity
  8
001
370
     9
100
AcDbSpline
210
0.0
220
0.0
230
1.0
 70
    11
 71
     3
 72
    17
 73
    13
 74
     0
 42
0.0000000001
 43
0.0000000001
 40
0.0
 40
0.0
 40
0.0
 40
0.0
 40
1.0
 40
1.0
 40
1.0
 40
2.0
 40
2.0
 40
2.0
 40
3.0
 40
3.0
 40
3.0
 40
4.0
 40
4.0
 40
4.0
 40
4.0
 10
157.3100764016843
 20
-51.81953353604701
 30
0.0
 10
157.3100764016843
 20
-51.7850301929815
 30
0.0
 10
157.2820949731843
 20
-51.75703877369808
 30
0.0
 10
157.2475940416872
 20
-51.75703877369808
 30
0.0
 10
157.2130738176427
 20
-51.75703877369808
 30
0.0
 10
157.1850910111037
 20
-51.7850301929815
 30
0.0
 10
157.1850910111037
 20
-51.81953353604701
 30
0.0
 10
157.1850910111037
 20
-51.85405065950357
 30
0.0
 10
157.2130738176427
 20
-51.88202760937641
 30
0.0
 10
157.2475940416872
 20
-51.88202760937641
 30
0.0
 10
157.2820949731843
 20
-51.88202760937641
 30
0.0
 10
157.3100764016843
 20
-51.85405065950357
 30
0.0
 10
157.3100764016843
 20
-51.81953353604701
 30
0.0
1001
ACAD
1000
RTTcAl
1070
-26105
1071
-1023410177
1000
$$NoName$$
  0
SPLINE
  5
51E4
330
A
100
AcDbEntity
  8
001
370
     9
100
AcDbSpline
210
0.0
220
0.0
230
1.0
 70
     8
 71
     3
 72
     8
 73
     4
 74
     0
 42
0.0000000001
 43
0.0000000001
 40
0.0
 40
0.0
 40
0.0
 40
0.0
 40
1.0
 40
1.0
 40
1.0
 40
1.0
 10
157.3259689821515
 20
-51.81268261464554
 30
0.0
 10
157.3226296488947
 20
-51.77465218049542
 30
0.0
 10
157.2924760862584
 20
-51.74448001433121
 30
0.0
 10
157.2544446185789
 20
-51.74115756205344
 30
0.0
1001
ACAD
1000
RTTcAl
1070
-26105
1071
-1023410177
1000
$$NoName$$
  0
SPLINE
  5
51E5
330
A
100
AcDbEntity
  8
001
370
     9
100
AcDbSpline
210
0.0
220
0.0
230
1.0
 70
    11
 71
     3
 72
    17
 73
    13
 74
     0
 42
0.0000000001
 43
0.0000000001
 40
0.0
 40
0.0
 40
0.0
 40
0.0
 40
1.0
 40
1.0
 40
1.0
 40
2.0
 40
2.0
 40
2.0
 40
3.0
 40
3.0
 40
3.0
 40
4.0
 40
4.0
 40
4.0
 40
4.0
 10
157.2706792972535
 20
-51.81953353604701
 30
0.0
 10
157.2706792972535
 20
-51.80678116218615
 30
0.0
 10
157.2603484826068
 20
-51.7964382896972
 30
0.0
 10
157.2475947307068
 20
-51.7964382896972
 30
0.0
 10
157.2348296099842
 20
-51.7964382896972
 30
0.0
 10
157.2244908716126
 20
-51.80678116218615
 30
0.0
 10
157.2244908716126
 20
-51.81953353604701
 30
0.0
 10
157.2244908716126
 20
-51.83228797696654
 30
0.0
 10
157.2348296099842
 20
-51.84262878239683
 30
0.0
 10
157.2475947307068
 20
-51.84262878239683
 30
0.0
 10
157.2603484826068
 20
-51.84262878239683
 30
0.0
 10
157.2706792972535
 20
-51.83228797696654
 30
0.0
 10
157.2706792972535
 20
-51.81953353604701
 30
0.0
1001
ACAD
1000
RTTcAl
1070
-26105
1071
-1023410177
1000
$$NoName$$
  0
SPLINE
  5
51E6
330
A
100
AcDbEntity
  8
001
370
     9
100
AcDbSpline
210
0.0
220
0.0
230
1.0
 70
    11
 71
     3
 72
    17
 73
    13
 74
     0
 42
0.0000000001
 43
0.0000000001
 40
0.0
 40
0.0
 40
0.0
 40
0.0
 40
1.0
 40
1.0
 40
1.0
 40
2.0
 40
2.0
 40
2.0
 40
3.0
 40
3.0
 40
3.0
 40
4.0
 40
4.0
 40
4.0
 40
4.0
 10
157.2714179262129
 20
-51.81953353604701
 30
0.0
 10
157.2714179262129
 20
-51.80637326261162
 30
0.0
 10
157.2607556931617
 20
-51.79571481916804
 30
0.0
 10
157.2475940416872
 20
-51.79571481916804
 30
0.0
 10
157.2344251555074
 20
-51.79571481916804
 30
0.0
 10
157.2237584438292
 20
-51.80637326261162
 30
0.0
 10
157.2237584438292
 20
-51.81953353604701
 30
0.0
 10
157.2237584438292
 20
-51.83269518752153
 30
0.0
 10
157.2344251555074
 20
-51.84334880782824
 30
0.0
 10
157.2475940416872
 20
-51.84334880782824
 30
0.0
 10
157.2607556931617
 20
-51.84334880782824
 30
0.0
 10
157.2714179262129
 20
-51.83269518752153
 30
0.0
 10
157.2714179262129
 20
-51.81953353604701
 30
0.0
1001
ACAD
1000
RTTcAl
1070
-26105
1071
-1023410177
1000
$$NoName$$
  0
SPLINE
  5
51E7
330
A
100
AcDbEntity
  8
001
370
     9
100
AcDbSpline
210
0.0
220
0.0
230
1.0
 70
    11
 71
     3
 72
    17
 73
    13
 74
     0
 42
0.0000000001
 43
0.0000000001
 40
0.0
 40
0.0
 40
0.0
 40
0.0
 40
1.0
 40
1.0
 40
1.0
 40
2.0
 40
2.0
 40
2.0
 40
3.0
 40
3.0
 40
3.0
 40
4.0
 40
4.0
 40
4.0
 40
4.0
 10
157.3324006351558
 20
-51.81953353604701
 30
0.0
 10
157.3324006351558
 20
-51.77270087712532
 30
0.0
 10
157.2944198104134
 20
-51.73472763159797
 30
0.0
 10
157.2475940416872
 20
-51.73472763159797
 30
0.0
 10
157.2007372670812
 20
-51.73472763159797
 30
0.0
 10
157.1627712562592
 20
-51.77270087712532
 30
0.0
 10
157.1627712562592
 20
-51.81953353604701
 30
0.0
 10
157.1627712562592
 20
-51.86636964006648
 30
0.0
 10
157.2007372670812
 20
-51.90433737343741
 30
0.0
 10
157.2475940416872
 20
-51.90433737343741
 30
0.0
 10
157.2944198104134
 20
-51.90433737343741
 30
0.0
 10
157.3324006351558
 20
-51.86636964006648
 30
0.0
 10
157.3324006351558
 20
-51.81953353604701
 30
0.0
1001
ACAD
1000
RTTcAl
1070
-26105
1071
-1023410177
1000
$$NoName$$
  0
SPLINE
  5
522A
330
A
100
AcDbEntity
  8
001
370
     9
100
AcDbSpline
210
0.0
220
0.0
230
1.0
 70
    11
 71
     3
 72
    17
 73
    13
 74
     0
 42
0.0000000001
 43
0.0000000001
 40
0.0
 40
0.0
 40
0.0
 40
0.0
 40
1.0
 40
1.0
 40
1.0
 40
2.0
 40
2.0
 40
2.0
 40
3.0
 40
3.0
 40
3.0
 40
4.0
 40
4.0
 40
4.0
 40
4.0
 10
157.3020951437084
 20
-51.76815128102615
 30
0.0
 10
157.3020951437084
 20
-51.76642390901031
 30
0.0
 10
157.3006888548036
 20
-51.76502588834013
 30
0.0
 10
157.298974918669
 20
-51.76502588834013
 30
0.0
 10
157.2972582264562
 20
-51.76502588834013
 30
0.0
 10
157.2958619283349
 20
-51.76642390901031
 30
0.0
 10
157.2958619283349
 20
-51.76815128102615
 30
0.0
 10
157.2958619283349
 20
-51.76986900676827
 30
0.0
 10
157.2972582264562
 20
-51.77125462508652
 30
0.0
 10
157.298974918669
 20
-51.77125462508652
 30
0.0
 10
157.3006888548036
 20
-51.77125462508652
 30
0.0
 10
157.3020951437084
 20
-51.76986900676827
 30
0.0
 10
157.3020951437084
 20
-51.76815128102615
 30
0.0
1001
ACAD
1000
RTTcAl
1070
-26105
1071
-1023410177
1000
$$NoName$$
  0
SPLINE
  5
522B
330
A
100
AcDbEntity
  8
001
370
     9
100
AcDbSpline
210
0.0
220
0.0
230
1.0
 70
    11
 71
     3
 72
    17
 73
    13
 74
     0
 42
0.0000000001
 43
0.0000000001
 40
0.0
 40
0.0
 40
0.0
 40
0.0
 40
1.0
 40
1.0
 40
1.0
 40
2.0
 40
2.0
 40
2.0
 40
3.0
 40
3.0
 40
3.0
 40
4.0
 40
4.0
 40
4.0
 40
4.0
 10
157.3043496156812
 20
-51.76815128102615
 30
0.0
 10
157.3043496156812
 20
-51.76517747264148
 30
0.0
 10
157.3019494160732
 20
-51.76276934930867
 30
0.0
 10
157.2989742296495
 20
-51.76276934930867
 30
0.0
 10
157.2960038663625
 20
-51.76276934930867
 30
0.0
 10
157.29359539852
 20
-51.76517747264148
 30
0.0
 10
157.29359539852
 20
-51.76815128102615
 30
0.0
 10
157.29359539852
 20
-51.771114065098
 30
0.0
 10
157.2960038663625
 20
-51.77351116411799
 30
0.0
 10
157.2989742296495
 20
-51.77351116411799
 30
0.0
 10
157.3019494160732
 20
-51.77351116411799
 30
0.0
 10
157.3043496156812
 20
-51.771114065098
 30
0.0
 10
157.3043496156812
 20
-51.76815128102615
 30
0.0
1001
ACAD
1000
RTTcAl
1070
-26105
1071
-1023410177
1000
$$NoName$$
  0
SPLINE
  5
522C
330
A
100
AcDbEntity
  8
001
370
     9
100
AcDbSpline
210
0.0
220
0.0
230
1.0
 70
    11
 71
     3
 72
    17
 73
    13
 74
     0
 42
0.0000000001
 43
0.0000000001
 40
0.0
 40
0.0
 40
0.0
 40
0.0
 40
1.0
 40
1.0
 40
1.0
 40
2.0
 40
2.0
 40
2.0
 40
3.0
 40
3.0
 40
3.0
 40
4.0
 40
4.0
 40
4.0
 40
4.0
 10
157.3043496156812
 20
-51.87092750440026
 30
0.0
 10
157.3043496156812
 20
-51.86795300699603
 30
0.0
 10
157.3019494160732
 20
-51.86554350562412
 30
0.0
 10
157.2989742296495
 20
-51.86554350562412
 30
0.0
 10
157.2960038663625
 20
-51.86554350562412
 30
0.0
 10
157.29359539852
 20
-51.86795300699603
 30
0.0
 10
157.29359539852
 20
-51.87092750440026
 30
0.0
 10
157.29359539852
 20
-51.873888910433
 30
0.0
 10
157.2960038663625
 20
-51.87630599101999
 30
0.0
 10
157.2989742296495
 20
-51.87630599101999
 30
0.0
 10
157.3019494160732
 20
-51.87630599101999
 30
0.0
 10
157.3043496156812
 20
-51.873888910433
 30
0.0
 10
157.3043496156812
 20
-51.87092750440026
 30
0.0
1001
ACAD
1000
RTTcAl
1070
-26105
1071
-1023410177
1000
$$NoName$$
  0
SPLINE
  5
522D
330
A
100
AcDbEntity
  8
001
370
     5
100
AcDbSpline
210
0.0
220
0.0
230
1.0
 70
     8
 71
     3
 72
     8
 73
     4
 74
     0
 42
0.0000000001
 43
0.0000000001
 40
0.0
 40
0.0
 40
0.0
 40
0.0
 40
1.0
 40
1.0
 40
1.0
 40
1.0
 10
157.4319210031131
 20
-52.08661609641268
 30
0.0
 10
157.4319210031131
 20
-52.08663125484282
 30
0.0
 10
157.4319134238981
 20
-52.08664227915563
 30
0.0
 10
157.4319134238981
 20
-52.08666605033016
 30
0.0
1001
ACAD
1000
RTTcAl
1070
-26105
1071
-1023410177
1000
$$NoName$$
  0
SPLINE
  5
52A5
330
A
100
AcDbEntity
  8
001
370
     5
100
AcDbSpline
210
0.0
220
0.0
230
1.0
 70
    11
 71
     3
 72
    17
 73
    13
 74
     0
 42
0.0000000001
 43
0.0000000001
 40
0.0
 40
0.0
 40
0.0
 40
0.0
 40
1.0
 40
1.0
 40
1.0
 40
2.0
 40
2.0
 40
2.0
 40
3.0
 40
3.0
 40
3.0
 40
4.0
 40
4.0
 40
4.0
 40
4.0
 10
157.3516607986815
 20
-51.98478314080469
 30
0.0
 10
157.3516607986815
 20
-51.984807256489
 30
0.0
 10
157.3516384055461
 20
-51.98483550629061
 30
0.0
 10
157.3516129118227
 20
-51.98483550629061
 30
0.0
 10
157.3515860400602
 20
-51.98483550629061
 30
0.0
 10
157.3515633024149
 20
-51.984807256489
 30
0.0
 10
157.3515633024149
 20
-51.98478314080469
 30
0.0
 10
157.3515633024149
 20
-51.9847573025715
 30
0.0
 10
157.3515860400602
 20
-51.98473559845563
 30
0.0
 10
157.3516129118227
 20
-51.98473559845563
 30
0.0
 10
157.3516384055461
 20
-51.98473559845563
 30
0.0
 10
157.3516607986815
 20
-51.9847573025715
 30
0.0
 10
157.3516607986815
 20
-51.98478314080469
 30
0.0
1001
ACAD
1000
RTTcAl
1070
-25862
1071
-1037953260
1000
$$NoName$$
  0
SPLINE
  5
52A6
330
A
100
AcDbEntity
  8
001
370
     9
100
AcDbSpline
210
0.0
220
0.0
230
1.0
 70
    11
 71
     3
 72
    17
 73
    13
 74
     0
 42
0.0000000001
 43
0.0000000001
 40
0.0
 40
0.0
 40
0.0
 40
0.0
 40
1.0
 40
1.0
 40
1.0
 40
2.0
 40
2.0
 40
2.0
 40
3.0
 40
3.0
 40
3.0
 40
4.0
 40
4.0
 40
4.0
 40
4.0
 10
157.247079688592
 20
-51.98478314080469
 30
0.0
 10
157.247079688592
 20
-51.984807256489
 30
0.0
 10
157.2470586734957
 20
-51.98483550629061
 30
0.0
 10
157.2470304236941
 20
-51.98483550629061
 30
0.0
 10
157.2470045854609
 20
-51.98483550629061
 30
0.0
 10
157.2469846038939
 20
-51.984807256489
 30
0.0
 10
157.2469846038939
 20
-51.98478314080469
 30
0.0
 10
157.2469846038939
 20
-51.9847573025715
 30
0.0
 10
157.2470045854609
 20
-51.98473559845563
 30
0.0
 10
157.2470304236941
 20
-51.98473559845563
 30
0.0
 10
157.2470586734957
 20
-51.98473559845563
 30
0.0
 10
157.247079688592
 20
-51.9847573025715
 30
0.0
 10
157.247079688592
 20
-51.98478314080469
 30
0.0
1001
ACAD
1000
RTTcAl
1070
-25862
1071
-1037953260
1000
$$NoName$$
  0
SPLINE
  5
52B5
330
A
100
AcDbEntity
  8
001
370
     9
100
AcDbSpline
210
0.0
220
0.0
230
1.0
 70
    11
 71
     3
 72
    17
 73
    13
 74
     0
 42
0.0000000001
 43
0.0000000001
 40
0.0
 40
0.0
 40
0.0
 40
0.0
 40
1.0
 40
1.0
 40
1.0
 40
2.0
 40
2.0
 40
2.0
 40
3.0
 40
3.0
 40
3.0
 40
4.0
 40
4.0
 40
4.0
 40
4.0
 10
157.3150032359879
 20
-52.05405992259995
 30
0.0
 10
157.3150032359879
 20
-52.05408989495045
 30
0.0
 10
157.3149773977547
 20
-52.05411401063475
 30
0.0
 10
157.3149525930509
 20
-52.05411401063475
 30
0.0
 10
157.3149226207004
 20
-52.05411401063475
 30
0.0
 10
157.3149022946236
 20
-52.05408989495045
 30
0.0
 10
157.3149022946236
 20
-52.05405992259995
 30
0.0
 10
157.3149022946236
 20
-52.05402753868103
 30
0.0
 10
157.3149226207004
 20
-52.05401306927044
 30
0.0
 10
157.3149525930509
 20
-52.05401306927044
 30
0.0
 10
157.3149773977547
 20
-52.05401306927044
 30
0.0
 10
157.3150032359879
 20
-52.05402753868103
 30
0.0
 10
157.3150032359879
 20
-52.05405992259995
 30
0.0
1001
ACAD
1000
RTTcAl
1070
-26105
1071
-1023410177
1000
$$NoName$$
  0
SPLINE
  5
52C4
330
A
100
AcDbEntity
  8
001
370
     9
100
AcDbSpline
210
0.0
220
0.0
230
1.0
 70
    11
 71
     3
 72
    17
 73
    13
 74
     0
 42
0.0000000001
 43
0.0000000001
 40
0.0
 40
0.0
 40
0.0
 40
0.0
 40
1.0
 40
1.0
 40
1.0
 40
2.0
 40
2.0
 40
2.0
 40
3.0
 40
3.0
 40
3.0
 40
4.0
 40
4.0
 40
4.0
 40
4.0
 10
157.3334992768309
 20
-52.10459812867012
 30
0.0
 10
157.3334992768309
 20
-52.10462189984465
 30
0.0
 10
157.3334730940879
 20
-52.10464567101919
 30
0.0
 10
157.3334479448743
 20
-52.10464567101919
 30
0.0
 10
157.3334241736997
 20
-52.10464567101919
 30
0.0
 10
157.3334048811523
 20
-52.10462189984465
 30
0.0
 10
157.3334048811523
 20
-52.10459812867012
 30
0.0
 10
157.3334048811523
 20
-52.10456815631963
 30
0.0
 10
157.3334241736997
 20
-52.10454335161577
 30
0.0
 10
157.3334479448743
 20
-52.10454335161577
 30
0.0
 10
157.3334730940879
 20
-52.10454335161577
 30
0.0
 10
157.3334992768309
 20
-52.10456815631963
 30
0.0
 10
157.3334992768309
 20
-52.10459812867012
 30
0.0
1001
ACAD
1000
RTTcAl
1070
-25862
1071
-1037953260
1000
$$NoName$$
  0
SPLINE
  5
52D1
330
A
100
AcDbEntity
  8
001
370
     9
100
AcDbSpline
210
0.0
220
0.0
230
1.0
 70
    11
 71
     3
 72
    17
 73
    13
 74
     0
 42
0.0000000001
 43
0.0000000001
 40
0.0
 40
0.0
 40
0.0
 40
0.0
 40
1.0
 40
1.0
 40
1.0
 40
2.0
 40
2.0
 40
2.0
 40
3.0
 40
3.0
 40
3.0
 40
4.0
 40
4.0
 40
4.0
 40
4.0
 10
157.2990303847429
 20
-51.76815128102615
 30
0.0
 10
157.2990303847429
 20
-51.7681705735736
 30
0.0
 10
157.2990042019999
 20
-51.76820226847297
 30
0.0
 10
157.298974918669
 20
-51.76820226847297
 30
0.0
 10
157.2989452908283
 20
-51.76820226847297
 30
0.0
 10
157.2989256537711
 20
-51.7681705735736
 30
0.0
 10
157.2989256537711
 20
-51.76815128102615
 30
0.0
 10
157.2989256537711
 20
-51.76811820808768
 30
0.0
 10
157.2989452908283
 20
-51.76809960455979
 30
0.0
 10
157.298974918669
 20
-51.76809960455979
 30
0.0
 10
157.2990042019999
 20
-51.76809960455979
 30
0.0
 10
157.2990303847429
 20
-51.76811820808768
 30
0.0
 10
157.2990303847429
 20
-51.76815128102615
 30
0.0
1001
ACAD
1000
RTTcAl
1070
-26105
1071
-1023410177
1000
$$NoName$$
  0
SPLINE
  5
52DA
330
A
100
AcDbEntity
  8
001
370
     9
100
AcDbSpline
210
0.0
220
0.0
230
1.0
 70
    11
 71
     3
 72
    17
 73
    13
 74
     0
 42
0.0000000001
 43
0.0000000001
 40
0.0
 40
0.0
 40
0.0
 40
0.0
 40
1.0
 40
1.0
 40
1.0
 40
2.0
 40
2.0
 40
2.0
 40
3.0
 40
3.0
 40
3.0
 40
4.0
 40
4.0
 40
4.0
 40
4.0
 10
157.2990303847429
 20
-51.76815128102615
 30
0.0
 10
157.2990303847429
 20
-51.7681705735736
 30
0.0
 10
157.2990042019999
 20
-51.76820226847297
 30
0.0
 10
157.298974918669
 20
-51.76820226847297
 30
0.0
 10
157.2989452908283
 20
-51.76820226847297
 30
0.0
 10
157.2989256537711
 20
-51.7681705735736
 30
0.0
 10
157.2989256537711
 20
-51.76815128102615
 30
0.0
 10
157.2989256537711
 20
-51.76811820808768
 30
0.0
 10
157.2989452908283
 20
-51.76809960455979
 30
0.0
 10
157.298974918669
 20
-51.76809960455979
 30
0.0
 10
157.2990042019999
 20
-51.76809960455979
 30
0.0
 10
157.2990303847429
 20
-51.76811820808768
 30
0.0
 10
157.2990303847429
 20
-51.76815128102615
 30
0.0
1001
ACAD
1000
RTTcAl
1070
-26105
1071
-1023410177
1000
$$NoName$$
  0
SPLINE
  5
52E5
330
A
100
AcDbEntity
  8
001
370
     9
100
AcDbSpline
210
0.0
220
0.0
230
1.0
 70
     8
 71
     3
 72
    11
 73
     7
 74
     0
 42
0.0000000001
 43
0.0000000001
 40
0.0
 40
0.0
 40
0.0
 40
0.0
 40
1.0
 40
1.0
 40
1.0
 40
2.0
 40
2.0
 40
2.0
 40
2.0
 10
157.2239344883247
 20
-52.02280358417131
 30
0.0
 10
157.2239344883247
 20
-52.03557525057963
 30
0.0
 10
157.234275293755
 20
-52.04591295542194
 30
0.0
 10
157.2470300791843
 20
-52.04591295542194
 30
0.0
 10
157.2597821085354
 20
-52.04591295542194
 30
0.0
 10
157.270123947495
 20
-52.03557525057963
 30
0.0
 10
157.270123947495
 20
-52.02280358417131
 30
0.0
1001
ACAD
1000
RTTcAl
1070
-26105
1071
-1023410177
1000
$$NoName$$
  0
SPLINE
  5
52E6
330
A
100
AcDbEntity
  8
001
370
    25
100
AcDbSpline
210
0.0
220
0.0
230
1.0
 70
    11
 71
     3
 72
    17
 73
    13
 74
     0
 42
0.0000000001
 43
0.0000000001
 40
0.0
 40
0.0
 40
0.0
 40
0.0
 40
1.0
 40
1.0
 40
1.0
 40
2.0
 40
2.0
 40
2.0
 40
3.0
 40
3.0
 40
3.0
 40
4.0
 40
4.0
 40
4.0
 40
4.0
 10
157.3362209040596
 20
-51.81953353604701
 30
0.0
 10
157.3362209040596
 20
-51.77058765416058
 30
0.0
 10
157.2965302773
 20
-51.73090426210619
 30
0.0
 10
157.2475940416872
 20
-51.73090426210619
 30
0.0
 10
157.1986343794098
 20
-51.73090426210619
 30
0.0
 10
157.1589475422577
 20
-51.77058765416058
 30
0.0
 10
157.1589475422577
 20
-51.81953353604701
 30
0.0
 10
157.1589475422577
 20
-51.86847941793345
 30
0.0
 10
157.1986343794098
 20
-51.90816418802694
 30
0.0
 10
157.2475940416872
 20
-51.90816418802694
 30
0.0
 10
157.2965302773
 20
-51.90816418802694
 30
0.0
 10
157.3362209040596
 20
-51.86847941793345
 30
0.0
 10
157.3362209040596
 20
-51.81953353604701
 30
0.0
1001
ACAD
1000
RTTcAl
1070
-26105
1071
-1023410177
1000
$$NoName$$
  0
TEXT
  5
52EE
330
A
100
AcDbEntity
  8
001
  6
Continuous
100
AcDbText
 10
157.3806762401798
 20
-51.84655203515388
 30
0.0
 40
0.0232799810762421
  1
75.7
 50
90.0
 41
0.6
 72
     1
 11
157.3806762401798
 21
-51.82560005218526
 31
0.0
100
AcDbText
  0
LINE
  5
52EF
330
A
100
AcDbEntity
  8
001
100
AcDbLine
 10
157.3503594064962
 20
-51.87092750440025
 30
0.0
 11
157.3503594064962
 21
-51.76815128102615
 31
0.0
  0
LINE
  5
52F0
330
A
100
AcDbEntity
  8
001
100
AcDbLine
 10
157.3503594064962
 20
-51.76815128102615
 30
0.0
 11
157.3519760050953
 21
-51.77732114430193
 31
0.0
  0
LINE
  5
52F1
330
A
100
AcDbEntity
  8
001
100
AcDbLine
 10
157.3503594064962
 20
-51.76815128102615
 30
0.0
 11
157.3487420016135
 21
-51.77732114430193
 31
0.0
  0
LINE
  5
52F2
330
A
100
AcDbEntity
  8
001
100
AcDbLine
 10
157.3503594064962
 20
-51.87092750440025
 30
0.0
 11
157.3487420016135
 21
-51.86175764112446
 31
0.0
  0
LINE
  5
52F3
330
A
100
AcDbEntity
  8
001
100
AcDbLine
 10
157.3503594064962
 20
-51.87092750440025
 30
0.0
 11
157.3519760050953
 21
-51.86175764112446
 31
0.0
  0
LINE
  5
52F5
330
A
100
AcDbEntity
  8
001
100
AcDbLine
 10
157.1790551998317
 20
-51.97382247112035
 30
0.0
 11
157.3148333926685
 21
-51.97382247112035
 31
0.0
  0
LINE
  5
52F6
330
A
100
AcDbEntity
  8
001
100
AcDbLine
 10
157.1790551998317
 20
-51.97382247112035
 30
0.0
 11
157.1889051100546
 21
-51.97555888207538
 31
0.0
  0
LINE
  5
52F7
330
A
100
AcDbEntity
  8
001
100
AcDbLine
 10
157.1790551998317
 20
-51.97382247112035
 30
0.0
 11
157.1889051100546
 21
-51.97208606016532
 31
0.0
  0
LINE
  5
52F8
330
A
100
AcDbEntity
  8
001
100
AcDbLine
 10
157.3148333926685
 20
-51.97382247112035
 30
0.0
 11
157.3049834824455
 21
-51.97208606016532
 31
0.0
  0
LINE
  5
52F9
330
A
100
AcDbEntity
  8
001
100
AcDbLine
 10
157.3148333926685
 20
-51.97382247112035
 30
0.0
 11
157.3049834824455
 21
-51.97555888207538
 31
0.0
  0
TEXT
  5
52FA
330
A
100
AcDbEntity
  8
001
  6
Continuous
100
AcDbText
 10
157.2236899562362
 20
-51.96757139168225
 30
0.0
 40
0.0250053502430098
  1
100.0
 41
0.6
 72
     1
 11
157.2474450389671
 21
-51.96757139168225
 31
0.0
100
AcDbText
  0
TEXT
  5
52FC
330
A
100
AcDbEntity
  8
001
  6
Continuous
100
AcDbText
 10
157.2230428881616
 20
-52.16386531267492
 30
0.0
 40
0.0250053502430098
  1
130.6
 41
0.6
 72
     1
 11
157.2492985059167
 21
-52.16386531267492
 31
0.0
100
AcDbText
  0
LINE
  5
52FD
330
A
100
AcDbEntity
  8
001
100
AcDbLine
 10
157.1584824540603
 20
-52.17022169341965
 30
0.0
 11
157.1683323642832
 21
-52.16848528246462
 31
0.0
  0
LINE
  5
52FE
330
A
100
AcDbEntity
  8
001
100
AcDbLine
 10
157.1584824540603
 20
-52.17022169341965
 30
0.0
 11
157.1683323642832
 21
-52.17195810437468
 31
0.0
  0
LINE
  5
52FF
330
A
100
AcDbEntity
  8
001
100
AcDbLine
 10
157.1584824540603
 20
-52.17022169341965
 30
0.0
 11
157.3355808048962
 21
-52.17022169341965
 31
0.0
  0
LINE
  5
5300
330
A
100
AcDbEntity
  8
001
100
AcDbLine
 10
157.3355808048962
 20
-52.17022169341965
 30
0.0
 11
157.3257308946733
 21
-52.17195810437468
 31
0.0
  0
LINE
  5
5301
330
A
100
AcDbEntity
  8
001
100
AcDbLine
 10
157.3355808048962
 20
-52.17022169341965
 30
0.0
 11
157.3257308946733
 21
-52.16848528246462
 31
0.0
  0
LINE
  5
5303
330
A
100
AcDbEntity
  8
001
100
AcDbLine
 10
157.6157684662046
 20
-52.12347209673701
 30
0.0
 11
157.6173850648037
 21
-52.11430223346123
 31
0.0
  0
LINE
  5
5304
330
A
100
AcDbEntity
  8
001
100
AcDbLine
 10
157.6157684662046
 20
-52.12347209673701
 30
0.0
 11
157.6141510613219
 21
-52.11430223346123
 31
0.0
  0
LINE
  5
5305
330
A
100
AcDbEntity
  8
001
100
AcDbLine
 10
157.6157684662046
 20
-51.98478314080469
 30
0.0
 11
157.6141510613219
 21
-51.99395300408048
 31
0.0
  0
LINE
  5
5306
330
A
100
AcDbEntity
  8
001
100
AcDbLine
 10
157.6157684662046
 20
-51.98478314080469
 30
0.0
 11
157.6173850648037
 21
-51.99395300408048
 31
0.0
  0
LINE
  5
5307
330
A
100
AcDbEntity
  8
001
100
AcDbLine
 10
157.6157684662046
 20
-52.12347209673701
 30
0.0
 11
157.6157684662046
 21
-51.98478314080469
 31
0.0
  0
TEXT
  5
5308
330
A
100
AcDbEntity
  8
001
  6
Continuous
100
AcDbText
 10
157.6460852998882
 20
-52.07391254478775
 30
0.0
 40
0.0232799810762421
  1
102.0
 50
90.0
 41
0.6
 72
     1
 11
157.6460852998882
 21
-52.0506325637115
 31
0.0
100
AcDbText
  0
TEXT
  5
5313
330
A
100
AcDbEntity
  8
001
  6
Continuous
100
AcDbText
 10
157.3783132476276
 20
-52.03379871471476
 30
0.0
 40
0.0232799810762421
  1
51.0
 50
90.0
 41
0.6
 72
     1
 11
157.3783132476276
 21
-52.01633872890758
 31
0.0
100
AcDbText
  0
LINE
  5
5314
330
A
100
AcDbEntity
  8
001
100
AcDbLine
 10
157.347996413944
 20
-52.05405992259995
 30
0.0
 11
157.347996413944
 21
-51.98478314080469
 31
0.0
  0
LINE
  5
5315
330
A
100
AcDbEntity
  8
001
100
AcDbLine
 10
157.347996413944
 20
-51.98478314080469
 30
0.0
 11
157.3496130125431
 21
-51.99395300408048
 31
0.0
  0
LINE
  5
5316
330
A
100
AcDbEntity
  8
001
100
AcDbLine
 10
157.347996413944
 20
-51.98478314080469
 30
0.0
 11
157.3463790090613
 21
-51.99395300408048
 31
0.0
  0
LINE
  5
5317
330
A
100
AcDbEntity
  8
001
100
AcDbLine
 10
157.347996413944
 20
-52.05405992259995
 30
0.0
 11
157.3463790090613
 21
-52.04489005932416
 31
0.0
  0
LINE
  5
5318
330
A
100
AcDbEntity
  8
001
100
AcDbLine
 10
157.347996413944
 20
-52.05405992259995
 30
0.0
 11
157.3496130125431
 21
-52.04489005932416
 31
0.0
  0
TEXT
  5
5319
330
A
100
AcDbEntity
  8
001
  6
Continuous
100
AcDbText
 10
157.4096729571892
 20
-52.09622679839466
 30
0.0
 40
0.0232799810762421
  1
37.3
 50
90.0
 41
0.6
 72
     1
 11
157.4096729571892
 21
-52.07527481542604
 31
0.0
100
AcDbText
  0
LINE
  5
531A
330
A
100
AcDbEntity
  8
001
100
AcDbLine
 10
157.3479967584538
 20
-52.05405992259995
 30
0.0
 11
157.3463793535711
 21
-52.06322978587574
 31
0.0
  0
LINE
  5
531B
330
A
100
AcDbEntity
  8
001
100
AcDbLine
 10
157.3479967584538
 20
-52.05405992259995
 30
0.0
 11
157.3496133570529
 21
-52.06322978587574
 31
0.0
  0
LINE
  5
531C
330
A
100
AcDbEntity
  8
001
100
AcDbLine
 10
157.3479967584538
 20
-52.10474006669775
 30
0.0
 11
157.3479967584538
 21
-52.05405992259995
 31
0.0
  0
LINE
  5
531D
330
A
100
AcDbEntity
  8
001
100
AcDbLine
 10
157.3479967584538
 20
-52.10474006669775
 30
0.0
 11
157.3496133570529
 21
-52.09557020342196
 31
0.0
  0
LINE
  5
531E
330
A
100
AcDbEntity
  8
001
100
AcDbLine
 10
157.3479967584538
 20
-52.10474006669775
 30
0.0
 11
157.3463793535711
 21
-52.09557020342196
 31
0.0
  0
LINE
  5
531F
330
A
100
AcDbEntity
  8
001
100
AcDbLine
 10
157.3480064047275
 20
-52.12319476636759
 30
0.0
 11
157.3480064047275
 21
-52.10459812867012
 31
0.0
  0
LINE
  5
5320
330
A
100
AcDbEntity
  8
001
100
AcDbLine
 10
157.3480064047275
 20
-52.10459812867012
 30
0.0
 11
157.3496230033266
 21
-52.11376799194591
 31
0.0
  0
LINE
  5
5321
330
A
100
AcDbEntity
  8
001
100
AcDbLine
 10
157.3480064047275
 20
-52.10459812867012
 30
0.0
 11
157.3463889998448
 21
-52.11376799194591
 31
0.0
  0
LINE
  5
5322
330
A
100
AcDbEntity
  8
001
100
AcDbLine
 10
157.3480064047275
 20
-52.12319476636759
 30
0.0
 11
157.3463889998448
 21
-52.1140249030918
 31
0.0
  0
LINE
  5
5323
330
A
100
AcDbEntity
  8
001
100
AcDbLine
 10
157.3480064047275
 20
-52.12319476636759
 30
0.0
 11
157.3496230033266
 21
-52.1140249030918
 31
0.0
  0
TEXT
  5
5324
330
A
100
AcDbEntity
  8
001
  6
Continuous
100
AcDbText
 10
157.3783232384111
 20
-52.127759004182
 30
0.0
 40
0.0232799810762421
  1
13.7
 50
90.0
 41
0.6
 72
     1
 11
157.3783232384111
 21
-52.109135019321
 31
0.0
100
AcDbText
  0
LINE
  5
5336
330
A
100
AcDbEntity
  8
001
370
     9
100
AcDbLine
 10
157.1584824540603
 20
-52.10482688316125
 30
0.0
 11
157.1584824540603
 21
-52.17350392782557
 31
0.0
1001
ACAD
1000
RTTcAl
1070
-26105
1071
-1023410177
1000
$$NoName$$
  0
LINE
  5
5337
330
A
100
AcDbEntity
  8
001
370
     9
100
AcDbLine
 10
157.1584824540603
 20
-52.10482688316125
 30
0.0
 11
157.1584824540603
 21
-52.17350392782557
 31
0.0
1001
ACAD
1000
RTTcAl
1070
-26105
1071
-1023410177
1000
$$NoName$$
  0
SPLINE
  5
5338
330
A
100
AcDbEntity
  8
001
370
    25
100
AcDbSpline
210
0.0
220
0.0
230
1.0
 70
     8
 71
     3
 72
     8
 73
     4
 74
     0
 42
0.0000000001
 43
0.0000000001
 40
0.0
 40
0.0
 40
0.0
 40
0.0
 40
1.0
 40
1.0
 40
1.0
 40
1.0
 10
157.1594098743767
 20
-52.08661609641268
 30
0.0
 10
157.1606346066297
 20
-52.07656984684069
 30
0.0
 10
157.1636070369753
 20
-52.06682917743983
 30
0.0
 10
157.1681886724836
 20
-52.05780405484331
 30
0.0
1001
ACAD
1000
RTTcAl
1070
-26105
1071
-1023410177
1000
$$NoName$$
  0
SPLINE
  5
5339
330
A
100
AcDbEntity
  8
001
370
    25
100
AcDbSpline
210
0.0
220
0.0
230
1.0
 70
    24
 71
     3
 72
     8
 73
     4
 74
     0
 42
0.0000000001
 43
0.0000000001
 40
1.0
 40
1.0
 40
1.0
 40
1.0
 40
2.0
 40
2.0
 40
2.0
 40
2.0
 10
157.1681886724836
 20
-52.05780405484331
 30
0.0
 10
157.1681886724836
 20
-52.05780405484331
 30
0.0
 10
157.1687385100858
 20
-52.05723113508615
 30
0.0
 10
157.1687385100858
 20
-52.05723113508615
 30
0.0
1001
ACAD
1000
RTTcAl
1070
-26105
1071
-1023410177
1000
$$NoName$$
  0
SPLINE
  5
533A
330
A
100
AcDbEntity
  8
001
370
    25
100
AcDbSpline
210
0.0
220
0.0
230
1.0
 70
     8
 71
     3
 72
     8
 73
     4
 74
     0
 42
0.0000000001
 43
0.0000000001
 40
2.0
 40
2.0
 40
2.0
 40
2.0
 40
3.0
 40
3.0
 40
3.0
 40
3.0
 10
157.1687385100858
 20
-52.05723113508615
 30
0.0
 10
157.1717732967008
 20
-52.05555027189005
 30
0.0
 10
157.1751002276056
 20
-52.05447023374293
 30
0.0
 10
157.1785332675214
 20
-52.05405957809018
 30
0.0
1001
ACAD
1000
RTTcAl
1070
-26105
1071
-1023410177
1000
$$NoName$$
  0
SPLINE
  5
533B
330
A
100
AcDbEntity
  8
001
370
    25
100
AcDbSpline
210
0.0
220
0.0
230
1.0
 70
    24
 71
     3
 72
     8
 73
     4
 74
     0
 42
0.0000000001
 43
0.0000000001
 40
3.0
 40
3.0
 40
3.0
 40
3.0
 40
4.0
 40
4.0
 40
4.0
 40
4.0
 10
157.1785332675214
 20
-52.05405957809018
 30
0.0
 10
157.1785332675214
 20
-52.05405957809018
 30
0.0
 10
157.1791103213959
 20
-52.05405957809018
 30
0.0
 10
157.1791103213959
 20
-52.05405957809018
 30
0.0
1001
ACAD
1000
RTTcAl
1070
-26105
1071
-1023410177
1000
$$NoName$$
  0
SPLINE
  5
533C
330
A
100
AcDbEntity
  8
001
370
    25
100
AcDbSpline
210
0.0
220
0.0
230
1.0
 70
    24
 71
     3
 72
     8
 73
     4
 74
     0
 42
0.0000000001
 43
0.0000000001
 40
4.0
 40
4.0
 40
4.0
 40
4.0
 40
5.0
 40
5.0
 40
5.0
 40
5.0
 10
157.1791103213959
 20
-52.05405957809018
 30
0.0
 10
157.1791103213959
 20
-52.05405957809018
 30
0.0
 10
157.1791103213959
 20
-52.05270462114198
 30
0.0
 10
157.1791103213959
 20
-52.05270462114198
 30
0.0
1001
ACAD
1000
RTTcAl
1070
-26105
1071
-1023410177
1000
$$NoName$$
  0
SPLINE
  5
533D
330
A
100
AcDbEntity
  8
001
370
    25
100
AcDbSpline
210
0.0
220
0.0
230
1.0
 70
     8
 71
     3
 72
    11
 73
     7
 74
     0
 42
0.0000000001
 43
0.0000000001
 40
5.0
 40
5.0
 40
5.0
 40
5.0
 40
6.0
 40
6.0
 40
6.0
 40
7.0
 40
7.0
 40
7.0
 40
7.0
 10
157.1791103213959
 20
-52.05270462114198
 30
0.0
 10
157.1791103213959
 20
-52.01519405224352
 30
0.0
 10
157.2095184767565
 20
-51.98477969570693
 30
0.0
 10
157.2470300791843
 20
-51.98477969570693
 30
0.0
 10
157.2845403035729
 20
-51.98477969570693
 30
0.0
 10
157.3149529375607
 20
-52.01519405224352
 30
0.0
 10
157.3149529375607
 20
-52.05270462114198
 30
0.0
1001
ACAD
1000
RTTcAl
1070
-26105
1071
-1023410177
1000
$$NoName$$
  0
SPLINE
  5
533E
330
A
100
AcDbEntity
  8
001
370
    25
100
AcDbSpline
210
0.0
220
0.0
230
1.0
 70
    24
 71
     3
 72
     8
 73
     4
 74
     0
 42
0.0000000001
 43
0.0000000001
 40
7.0
 40
7.0
 40
7.0
 40
7.0
 40
8.0
 40
8.0
 40
8.0
 40
8.0
 10
157.3149529375607
 20
-52.05270462114198
 30
0.0
 10
157.3149529375607
 20
-52.05270462114198
 30
0.0
 10
157.3149529375607
 20
-52.05405992259995
 30
0.0
 10
157.3149529375607
 20
-52.05405992259995
 30
0.0
1001
ACAD
1000
RTTcAl
1070
-26105
1071
-1023410177
1000
$$NoName$$
  0
SPLINE
  5
533F
330
A
100
AcDbEntity
  8
001
370
    25
100
AcDbSpline
210
0.0
220
0.0
230
1.0
 70
    24
 71
     3
 72
     8
 73
     4
 74
     0
 42
0.0000000001
 43
0.0000000001
 40
8.0
 40
8.0
 40
8.0
 40
8.0
 40
9.0
 40
9.0
 40
9.0
 40
9.0
 10
157.3149529375607
 20
-52.05405992259995
 30
0.0
 10
157.3149529375607
 20
-52.05405992259995
 30
0.0
 10
157.3155193116321
 20
-52.05405992259995
 30
0.0
 10
157.3155193116321
 20
-52.05405992259995
 30
0.0
1001
ACAD
1000
RTTcAl
1070
-26105
1071
-1023410177
1000
$$NoName$$
  0
SPLINE
  5
5340
330
A
100
AcDbEntity
  8
001
370
    25
100
AcDbSpline
210
0.0
220
0.0
230
1.0
 70
     8
 71
     3
 72
     8
 73
     4
 74
     0
 42
0.0000000001
 43
0.0000000001
 40
9.0
 40
9.0
 40
9.0
 40
9.0
 40
10.0
 40
10.0
 40
10.0
 40
10.0
 10
157.3155193116321
 20
-52.05405992259995
 30
0.0
 10
157.3189619978216
 20
-52.05447023374293
 30
0.0
 10
157.3222892732362
 20
-52.05555027189005
 30
0.0
 10
157.3253137245579
 20
-52.05723113508615
 30
0.0
1001
ACAD
1000
RTTcAl
1070
-26105
1071
-1023410177
1000
$$NoName$$
  0
SPLINE
  5
5341
330
A
100
AcDbEntity
  8
001
370
    25
100
AcDbSpline
210
0.0
220
0.0
230
1.0
 70
    24
 71
     3
 72
     8
 73
     4
 74
     0
 42
0.0000000001
 43
0.0000000001
 40
10.0
 40
10.0
 40
10.0
 40
10.0
 40
11.0
 40
11.0
 40
11.0
 40
11.0
 10
157.3253137245579
 20
-52.05723113508615
 30
0.0
 10
157.3253137245579
 20
-52.05723113508615
 30
0.0
 10
157.3258645956894
 20
-52.05780405484331
 30
0.0
 10
157.3258645956894
 20
-52.05780405484331
 30
0.0
1001
ACAD
1000
RTTcAl
1070
-26105
1071
-1023410177
1000
$$NoName$$
  0
SPLINE
  5
5342
330
A
100
AcDbEntity
  8
001
370
    25
100
AcDbSpline
210
0.0
220
0.0
230
1.0
 70
     8
 71
     3
 72
     8
 73
     4
 74
     0
 42
0.0000000001
 43
0.0000000001
 40
11.0
 40
11.0
 40
11.0
 40
11.0
 40
12.0
 40
12.0
 40
12.0
 40
12.0
 10
157.3258645956894
 20
-52.05780405484331
 30
0.0
 10
157.330453465903
 20
-52.06682917743983
 30
0.0
 10
157.3334245182095
 20
-52.07656984684069
 30
0.0
 10
157.3346447718354
 20
-52.08661609641268
 30
0.0
1001
ACAD
1000
RTTcAl
1070
-26105
1071
-1023410177
1000
$$NoName$$
  0
SPLINE
  5
5343
330
A
100
AcDbEntity
  8
001
370
    25
100
AcDbSpline
210
0.0
220
0.0
230
1.0
 70
    24
 71
     3
 72
     8
 73
     4
 74
     0
 42
0.0000000001
 43
0.0000000001
 40
12.0
 40
12.0
 40
12.0
 40
12.0
 40
13.0
 40
13.0
 40
13.0
 40
13.0
 10
157.3346447718354
 20
-52.08661609641268
 30
0.0
 10
157.3346447718354
 20
-52.08661609641268
 30
0.0
 10
157.3346492504625
 20
-52.08666605033016
 30
0.0
 10
157.3346492504625
 20
-52.08666605033016
 30
0.0
1001
ACAD
1000
RTTcAl
1070
-26105
1071
-1023410177
1000
$$NoName$$
  0
SPLINE
  5
5344
330
A
100
AcDbEntity
  8
001
370
    25
100
AcDbSpline
210
0.0
220
0.0
230
1.0
 70
    24
 71
     3
 72
     8
 73
     4
 74
     0
 42
0.0000000001
 43
0.0000000001
 40
13.0
 40
13.0
 40
13.0
 40
13.0
 40
14.0
 40
14.0
 40
14.0
 40
14.0
 10
157.3346492504625
 20
-52.08666605033016
 30
0.0
 10
157.3346492504625
 20
-52.08666605033016
 30
0.0
 10
157.3357444470397
 20
-52.10459812867012
 30
0.0
 10
157.3357444470397
 20
-52.10459812867012
 30
0.0
1001
ACAD
1000
RTTcAl
1070
-26105
1071
-1023410177
1000
$$NoName$$
  0
SPLINE
  5
5345
330
A
100
AcDbEntity
  8
001
370
    25
100
AcDbSpline
210
0.0
220
0.0
230
1.0
 70
    24
 71
     3
 72
     8
 73
     4
 74
     0
 42
0.0000000001
 43
0.0000000001
 40
14.0
 40
14.0
 40
14.0
 40
14.0
 40
15.0
 40
15.0
 40
15.0
 40
15.0
 10
157.3357444470397
 20
-52.10459812867012
 30
0.0
 10
157.3357444470397
 20
-52.10459812867012
 30
0.0
 10
157.3334486338938
 20
-52.10459812867012
 30
0.0
 10
157.3334486338938
 20
-52.10459812867012
 30
0.0
1001
ACAD
1000
RTTcAl
1070
-26105
1071
-1023410177
1000
$$NoName$$
  0
SPLINE
  5
5346
330
A
100
AcDbEntity
  8
001
370
    25
100
AcDbSpline
210
0.0
220
0.0
230
1.0
 70
    24
 71
     3
 72
     8
 73
     4
 74
     0
 42
0.0000000001
 43
0.0000000001
 40
15.0
 40
15.0
 40
15.0
 40
15.0
 40
16.0
 40
16.0
 40
16.0
 40
16.0
 10
157.3334486338938
 20
-52.10459812867012
 30
0.0
 10
157.3334486338938
 20
-52.10459812867012
 30
0.0
 10
157.3334486338938
 20
-52.10676302810123
 30
0.0
 10
157.3334486338938
 20
-52.10676302810123
 30
0.0
1001
ACAD
1000
RTTcAl
1070
-26105
1071
-1023410177
1000
$$NoName$$
  0
SPLINE
  5
5347
330
A
100
AcDbEntity
  8
001
370
    25
100
AcDbSpline
210
0.0
220
0.0
230
1.0
 70
    24
 71
     3
 72
     8
 73
     4
 74
     0
 42
0.0000000001
 43
0.0000000001
 40
16.0
 40
16.0
 40
16.0
 40
16.0
 40
17.0
 40
17.0
 40
17.0
 40
17.0
 10
157.3334486338938
 20
-52.10676302810123
 30
0.0
 10
157.3334486338938
 20
-52.10676302810123
 30
0.0
 10
157.3350588725859
 20
-52.10676302810123
 30
0.0
 10
157.3350588725859
 20
-52.10676302810123
 30
0.0
1001
ACAD
1000
RTTcAl
1070
-26105
1071
-1023410177
1000
$$NoName$$
  0
SPLINE
  5
5348
330
A
100
AcDbEntity
  8
001
370
    25
100
AcDbSpline
210
0.0
220
0.0
230
1.0
 70
     8
 71
     3
 72
     8
 73
     4
 74
     0
 42
0.0000000001
 43
0.0000000001
 40
17.0
 40
17.0
 40
17.0
 40
17.0
 40
18.0
 40
18.0
 40
18.0
 40
18.0
 10
157.3350588725859
 20
-52.10676302810123
 30
0.0
 10
157.3354202633407
 20
-52.10681091496006
 30
0.0
 10
157.3356965601809
 20
-52.10713647669819
 30
0.0
 10
157.3356631427326
 20
-52.10750716921694
 30
0.0
1001
ACAD
1000
RTTcAl
1070
-26105
1071
-1023410177
1000
$$NoName$$
  0
SPLINE
  5
5349
330
A
100
AcDbEntity
  8
001
370
    25
100
AcDbSpline
210
0.0
220
0.0
230
1.0
 70
    24
 71
     3
 72
     8
 73
     4
 74
     0
 42
0.0000000001
 43
0.0000000001
 40
18.0
 40
18.0
 40
18.0
 40
18.0
 40
19.0
 40
19.0
 40
19.0
 40
19.0
 10
157.3356631427326
 20
-52.10750716921694
 30
0.0
 10
157.3356631427326
 20
-52.10750716921694
 30
0.0
 10
157.3344666602813
 20
-52.11885669927077
 30
0.0
 10
157.3344666602813
 20
-52.11885669927077
 30
0.0
1001
ACAD
1000
RTTcAl
1070
-26105
1071
-1023410177
1000
$$NoName$$
  0
SPLINE
  5
534A
330
A
100
AcDbEntity
  8
001
370
    25
100
AcDbSpline
210
0.0
220
0.0
230
1.0
 70
     8
 71
     3
 72
     8
 73
     4
 74
     0
 42
0.0000000001
 43
0.0000000001
 40
19.0
 40
19.0
 40
19.0
 40
19.0
 40
20.0
 40
20.0
 40
20.0
 40
20.0
 10
157.3344666602813
 20
-52.11885669927077
 30
0.0
 10
157.3343925906795
 20
-52.11955054195922
 30
0.0
 10
157.3338100246486
 20
-52.12008384309215
 30
0.0
 10
157.3331165264699
 20
-52.12008384309215
 30
0.0
1001
ACAD
1000
RTTcAl
1070
-26105
1071
-1023410177
1000
$$NoName$$
  0
SPLINE
  5
534B
330
A
100
AcDbEntity
  8
001
370
    25
100
AcDbSpline
210
0.0
220
0.0
230
1.0
 70
    24
 71
     3
 72
     8
 73
     4
 74
     0
 42
0.0000000001
 43
0.0000000001
 40
20.0
 40
20.0
 40
20.0
 40
20.0
 40
21.0
 40
21.0
 40
21.0
 40
21.0
 10
157.3331165264699
 20
-52.12008384309215
 30
0.0
 10
157.3331165264699
 20
-52.12008384309215
 30
0.0
 10
157.3283429990165
 20
-52.12008384309215
 30
0.0
 10
157.3283429990165
 20
-52.12008384309215
 30
0.0
1001
ACAD
1000
RTTcAl
1070
-26105
1071
-1023410177
1000
$$NoName$$
  0
SPLINE
  5
534C
330
A
100
AcDbEntity
  8
001
370
    25
100
AcDbSpline
210
0.0
220
0.0
230
1.0
 70
    24
 71
     3
 72
     8
 73
     4
 74
     0
 42
0.0000000001
 43
0.0000000001
 40
21.0
 40
21.0
 40
21.0
 40
21.0
 40
22.0
 40
22.0
 40
22.0
 40
22.0
 10
157.3283429990165
 20
-52.12008384309215
 30
0.0
 10
157.3283429990165
 20
-52.12008384309215
 30
0.0
 10
157.3281387047195
 20
-52.12347244124688
 30
0.0
 10
157.3281387047195
 20
-52.12347244124688
 30
0.0
1001
ACAD
1000
RTTcAl
1070
-26105
1071
-1023410177
1000
$$NoName$$
  0
SPLINE
  5
534D
330
A
100
AcDbEntity
  8
001
370
    25
100
AcDbSpline
210
0.0
220
0.0
230
1.0
 70
    24
 71
     3
 72
     8
 73
     4
 74
     0
 42
0.0000000001
 43
0.0000000001
 40
22.0
 40
22.0
 40
22.0
 40
22.0
 40
23.0
 40
23.0
 40
23.0
 40
23.0
 10
157.3281387047195
 20
-52.12347244124688
 30
0.0
 10
157.3281387047195
 20
-52.12347244124688
 30
0.0
 10
157.2538772109782
 20
-52.12347244124688
 30
0.0
 10
157.2538772109782
 20
-52.12347244124688
 30
0.0
1001
ACAD
1000
RTTcAl
1070
-26105
1071
-1023410177
1000
$$NoName$$
  0
SPLINE
  5
534E
330
A
100
AcDbEntity
  8
001
370
    25
100
AcDbSpline
210
0.0
220
0.0
230
1.0
 70
    24
 71
     3
 72
     8
 73
     4
 74
     0
 42
0.0000000001
 43
0.0000000001
 40
23.0
 40
23.0
 40
23.0
 40
23.0
 40
24.0
 40
24.0
 40
24.0
 40
24.0
 10
157.2538772109782
 20
-52.12347244124688
 30
0.0
 10
157.2538772109782
 20
-52.12347244124688
 30
0.0
 10
157.253823811963
 20
-52.12008384309215
 30
0.0
 10
157.253823811963
 20
-52.12008384309215
 30
0.0
1001
ACAD
1000
RTTcAl
1070
-26105
1071
-1023410177
1000
$$NoName$$
  0
SPLINE
  5
534F
330
A
100
AcDbEntity
  8
001
370
    25
100
AcDbSpline
210
0.0
220
0.0
230
1.0
 70
    24
 71
     3
 72
     8
 73
     4
 74
     0
 42
0.0000000001
 43
0.0000000001
 40
24.0
 40
24.0
 40
24.0
 40
24.0
 40
25.0
 40
25.0
 40
25.0
 40
25.0
 10
157.253823811963
 20
-52.12008384309215
 30
0.0
 10
157.253823811963
 20
-52.12008384309215
 30
0.0
 10
157.2402446146402
 20
-52.12008384309215
 30
0.0
 10
157.2402446146402
 20
-52.12008384309215
 30
0.0
1001
ACAD
1000
RTTcAl
1070
-26105
1071
-1023410177
1000
$$NoName$$
  0
SPLINE
  5
5350
330
A
100
AcDbEntity
  8
001
370
    25
100
AcDbSpline
210
0.0
220
0.0
230
1.0
 70
    24
 71
     3
 72
     8
 73
     4
 74
     0
 42
0.0000000001
 43
0.0000000001
 40
25.0
 40
25.0
 40
25.0
 40
25.0
 40
26.0
 40
26.0
 40
26.0
 40
26.0
 10
157.2402446146402
 20
-52.12008384309215
 30
0.0
 10
157.2402446146402
 20
-52.12008384309215
 30
0.0
 10
157.2401791577828
 20
-52.12347244124688
 30
0.0
 10
157.2401791577828
 20
-52.12347244124688
 30
0.0
1001
ACAD
1000
RTTcAl
1070
-26105
1071
-1023410177
1000
$$NoName$$
  0
SPLINE
  5
5351
330
A
100
AcDbEntity
  8
001
370
    25
100
AcDbSpline
210
0.0
220
0.0
230
1.0
 70
    24
 71
     3
 72
     8
 73
     4
 74
     0
 42
0.0000000001
 43
0.0000000001
 40
26.0
 40
26.0
 40
26.0
 40
26.0
 40
27.0
 40
27.0
 40
27.0
 40
27.0
 10
157.2401791577828
 20
-52.12347244124688
 30
0.0
 10
157.2401791577828
 20
-52.12347244124688
 30
0.0
 10
157.1659228316882
 20
-52.12347244124688
 30
0.0
 10
157.1659228316882
 20
-52.12347244124688
 30
0.0
1001
ACAD
1000
RTTcAl
1070
-26105
1071
-1023410177
1000
$$NoName$$
  0
SPLINE
  5
5352
330
A
100
AcDbEntity
  8
001
370
    25
100
AcDbSpline
210
0.0
220
0.0
230
1.0
 70
    24
 71
     3
 72
     8
 73
     4
 74
     0
 42
0.0000000001
 43
0.0000000001
 40
27.0
 40
27.0
 40
27.0
 40
27.0
 40
28.0
 40
28.0
 40
28.0
 40
28.0
 10
157.1659228316882
 20
-52.12347244124688
 30
0.0
 10
157.1659228316882
 20
-52.12347244124688
 30
0.0
 10
157.1657181928814
 20
-52.12004353544838
 30
0.0
 10
157.1657181928814
 20
-52.12004353544838
 30
0.0
1001
ACAD
1000
RTTcAl
1070
-26105
1071
-1023410177
1000
$$NoName$$
  0
SPLINE
  5
5353
330
A
100
AcDbEntity
  8
001
370
    25
100
AcDbSpline
210
0.0
220
0.0
230
1.0
 70
    24
 71
     3
 72
     8
 73
     4
 74
     0
 42
0.0000000001
 43
0.0000000001
 40
28.0
 40
28.0
 40
28.0
 40
28.0
 40
29.0
 40
29.0
 40
29.0
 40
29.0
 10
157.1657181928814
 20
-52.12004353544838
 30
0.0
 10
157.1657181928814
 20
-52.12004353544838
 30
0.0
 10
157.1609477660159
 20
-52.12008384309215
 30
0.0
 10
157.1609477660159
 20
-52.12008384309215
 30
0.0
1001
ACAD
1000
RTTcAl
1070
-26105
1071
-1023410177
1000
$$NoName$$
  0
SPLINE
  5
5354
330
A
100
AcDbEntity
  8
001
370
    25
100
AcDbSpline
210
0.0
220
0.0
230
1.0
 70
     8
 71
     3
 72
     8
 73
     4
 74
     0
 42
0.0000000001
 43
0.0000000001
 40
29.0
 40
29.0
 40
29.0
 40
29.0
 40
30.0
 40
30.0
 40
30.0
 40
30.0
 10
157.1609477660159
 20
-52.12008384309215
 30
0.0
 10
157.1602501337199
 20
-52.12008384309215
 30
0.0
 10
157.1596658451402
 20
-52.11955054195922
 30
0.0
 10
157.1595907420091
 20
-52.11885669927077
 30
0.0
1001
ACAD
1000
RTTcAl
1070
-26105
1071
-1023410177
1000
$$NoName$$
  0
SPLINE
  5
5355
330
A
100
AcDbEntity
  8
001
370
    25
100
AcDbSpline
210
0.0
220
0.0
230
1.0
 70
    24
 71
     3
 72
     8
 73
     4
 74
     0
 42
0.0000000001
 43
0.0000000001
 40
30.0
 40
30.0
 40
30.0
 40
30.0
 40
31.0
 40
31.0
 40
31.0
 40
31.0
 10
157.1595907420091
 20
-52.11885669927077
 30
0.0
 10
157.1595907420091
 20
-52.11885669927077
 30
0.0
 10
157.1583980491652
 20
-52.10750716921694
 30
0.0
 10
157.1583980491652
 20
-52.10750716921694
 30
0.0
1001
ACAD
1000
RTTcAl
1070
-26105
1071
-1023410177
1000
$$NoName$$
  0
SPLINE
  5
5356
330
A
100
AcDbEntity
  8
001
370
    25
100
AcDbSpline
210
0.0
220
0.0
230
1.0
 70
     8
 71
     3
 72
    11
 73
     7
 74
     0
 42
0.0000000001
 43
0.0000000001
 40
31.0
 40
31.0
 40
31.0
 40
31.0
 40
32.0
 40
32.0
 40
32.0
 40
33.0
 40
33.0
 40
33.0
 40
33.0
 10
157.1583980491652
 20
-52.10750716921694
 30
0.0
 10
157.1583980491652
 20
-52.10749304431613
 30
0.0
 10
157.1583932260284
 20
-52.10746961765138
 30
0.0
 10
157.1583932260284
 20
-52.1074437794182
 30
0.0
 10
157.1583932260284
 20
-52.10706826376258
 30
0.0
 10
157.1587001842386
 20
-52.10676302810123
 30
0.0
 10
157.1590732883258
 20
-52.10676302810123
 30
0.0
1001
ACAD
1000
RTTcAl
1070
-26105
1071
-1023410177
1000
$$NoName$$
  0
SPLINE
  5
5357
330
A
100
AcDbEntity
  8
001
370
    25
100
AcDbSpline
210
0.0
220
0.0
230
1.0
 70
    24
 71
     3
 72
     8
 73
     4
 74
     0
 42
0.0000000001
 43
0.0000000001
 40
33.0
 40
33.0
 40
33.0
 40
33.0
 40
34.0
 40
34.0
 40
34.0
 40
34.0
 10
157.1590732883258
 20
-52.10676302810123
 30
0.0
 10
157.1590732883258
 20
-52.10676302810123
 30
0.0
 10
157.1606087683965
 20
-52.10676302810123
 30
0.0
 10
157.1606087683965
 20
-52.10676302810123
 30
0.0
1001
ACAD
1000
RTTcAl
1070
-26105
1071
-1023410177
1000
$$NoName$$
  0
SPLINE
  5
5358
330
A
100
AcDbEntity
  8
001
370
    25
100
AcDbSpline
210
0.0
220
0.0
230
1.0
 70
    24
 71
     3
 72
     8
 73
     4
 74
     0
 42
0.0000000001
 43
0.0000000001
 40
34.0
 40
34.0
 40
34.0
 40
34.0
 40
35.0
 40
35.0
 40
35.0
 40
35.0
 10
157.1606087683965
 20
-52.10676302810123
 30
0.0
 10
157.1606087683965
 20
-52.10676302810123
 30
0.0
 10
157.1606087683965
 20
-52.10459743965056
 30
0.0
 10
157.1606087683965
 20
-52.10459743965056
 30
0.0
1001
ACAD
1000
RTTcAl
1070
-26105
1071
-1023410177
1000
$$NoName$$
  0
SPLINE
  5
5359
330
A
100
AcDbEntity
  8
001
370
    25
100
AcDbSpline
210
0.0
220
0.0
230
1.0
 70
    24
 71
     3
 72
     8
 73
     4
 74
     0
 42
0.0000000001
 43
0.0000000001
 40
35.0
 40
35.0
 40
35.0
 40
35.0
 40
36.0
 40
36.0
 40
36.0
 40
36.0
 10
157.1606087683965
 20
-52.10459743965056
 30
0.0
 10
157.1606087683965
 20
-52.10459743965056
 30
0.0
 10
157.1583205344657
 20
-52.10459743965056
 30
0.0
 10
157.1583205344657
 20
-52.10459743965056
 30
0.0
1001
ACAD
1000
RTTcAl
1070
-26105
1071
-1023410177
1000
$$NoName$$
  0
SPLINE
  5
535A
330
A
100
AcDbEntity
  8
001
370
    25
100
AcDbSpline
210
0.0
220
0.0
230
1.0
 70
    24
 71
     3
 72
     8
 73
     4
 74
     0
 42
0.0000000001
 43
0.0000000001
 40
36.0
 40
36.0
 40
36.0
 40
36.0
 40
37.0
 40
37.0
 40
37.0
 40
37.0
 10
157.1583205344657
 20
-52.10459743965056
 30
0.0
 10
157.1583205344657
 20
-52.10459743965056
 30
0.0
 10
157.1594098743767
 20
-52.08666605033016
 30
0.0
 10
157.1594098743767
 20
-52.08666605033016
 30
0.0
1001
ACAD
1000
RTTcAl
1070
-26105
1071
-1023410177
1000
$$NoName$$
  0
SPLINE
  5
535B
330
A
100
AcDbEntity
  8
001
370
    25
100
AcDbSpline
210
0.0
220
0.0
230
1.0
 70
    24
 71
     3
 72
     8
 73
     4
 74
     0
 42
0.0000000001
 43
0.0000000001
 40
37.0
 40
37.0
 40
37.0
 40
37.0
 40
38.0
 40
38.0
 40
38.0
 40
38.0
 10
157.1594098743767
 20
-52.08666605033016
 30
0.0
 10
157.1594098743767
 20
-52.08666605033016
 30
0.0
 10
157.1594098743767
 20
-52.08661609641268
 30
0.0
 10
157.1594098743767
 20
-52.08661609641268
 30
0.0
1001
ACAD
1000
RTTcAl
1070
-26105
1071
-1023410177
1000
$$NoName$$
  0
LINE
  5
535C
330
A
100
AcDbEntity
  8
001
370
     9
100
AcDbLine
 10
157.2701232584754
 20
-52.02280358417131
 30
0.0
 11
157.2701232584754
 21
-52.00404847197698
 31
0.0
1001
ACAD
1000
RTTcAl
1070
-26105
1071
-1023410177
1000
$$NoName$$
  0
LINE
  5
535D
330
A
100
AcDbEntity
  8
001
370
     9
100
AcDbLine
 10
157.2239344883247
 20
-52.02280358417131
 30
0.0
 11
157.2239344883247
 21
-52.00404847197698
 31
0.0
1001
ACAD
1000
RTTcAl
1070
-26105
1071
-1023410177
1000
$$NoName$$
  0
SPLINE
  5
535E
330
A
100
AcDbEntity
  8
001
370
     9
100
AcDbSpline
210
0.0
220
0.0
230
1.0
 70
     8
 71
     3
 72
     8
 73
     4
 74
     0
 42
0.0000000001
 43
0.0000000001
 40
0.0
 40
0.0
 40
0.0
 40
0.0
 40
1.0
 40
1.0
 40
1.0
 40
1.0
 10
157.2701232584754
 20
-52.0040495055063
 30
0.0
 10
157.2701232584754
 20
-51.99894869376588
 30
0.0
 10
157.2672624492972
 20
-51.99427369610832
 30
0.0
 10
157.2627173318251
 20
-51.99195824590519
 30
0.0
1001
ACAD
1000
RTTcAl
1070
-26105
1071
-1023410177
1000
$$NoName$$
  0
SPLINE
  5
535F
330
A
100
AcDbEntity
  8
001
370
     9
100
AcDbSpline
210
0.0
220
0.0
230
1.0
 70
     8
 71
     3
 72
     8
 73
     4
 74
     0
 42
0.0000000001
 43
0.0000000001
 40
1.0
 40
1.0
 40
1.0
 40
1.0
 40
2.0
 40
2.0
 40
2.0
 40
2.0
 10
157.2627173318251
 20
-51.99195824590519
 30
0.0
 10
157.2528660747863
 20
-51.98691393376799
 30
0.0
 10
157.2411920165236
 20
-51.98691393376799
 30
0.0
 10
157.231337314387
 20
-51.99195824590519
 30
0.0
1001
ACAD
1000
RTTcAl
1070
-26105
1071
-1023410177
1000
$$NoName$$
  0
SPLINE
  5
5360
330
A
100
AcDbEntity
  8
001
370
     9
100
AcDbSpline
210
0.0
220
0.0
230
1.0
 70
     8
 71
     3
 72
     8
 73
     4
 74
     0
 42
0.0000000001
 43
0.0000000001
 40
2.0
 40
2.0
 40
2.0
 40
2.0
 40
3.0
 40
3.0
 40
3.0
 40
3.0
 10
157.231337314387
 20
-51.99195824590519
 30
0.0
 10
157.2267963310322
 20
-51.99427369610832
 30
0.0
 10
157.2239337993051
 20
-51.99894869376588
 30
0.0
 10
157.2239337993051
 20
-52.0040495055063
 30
0.0
1001
ACAD
1000
RTTcAl
1070
-26105
1071
-1023410177
1000
$$NoName$$
  0
SPLINE
  5
5361
330
A
100
AcDbEntity
  8
001
370
     9
100
AcDbSpline
210
0.0
220
0.0
230
1.0
 70
     8
 71
     3
 72
     8
 73
     4
 74
     0
 42
0.0000000001
 43
0.0000000001
 40
0.0
 40
0.0
 40
0.0
 40
0.0
 40
1.0
 40
1.0
 40
1.0
 40
1.0
 10
157.2701232584754
 20
-52.00641077550962
 30
0.0
 10
157.2701232584754
 20
-52.00131995455268
 30
0.0
 10
157.2672624492972
 20
-51.9966453014049
 30
0.0
 10
157.2627173318251
 20
-51.99432054943783
 30
0.0
1001
ACAD
1000
RTTcAl
1070
-26105
1071
-1023410177
1000
$$NoName$$
  0
SPLINE
  5
5362
330
A
100
AcDbEntity
  8
001
370
     9
100
AcDbSpline
210
0.0
220
0.0
230
1.0
 70
     8
 71
     3
 72
     8
 73
     4
 74
     0
 42
0.0000000001
 43
0.0000000001
 40
1.0
 40
1.0
 40
1.0
 40
1.0
 40
2.0
 40
2.0
 40
2.0
 40
2.0
 10
157.2627173318251
 20
-51.99432054943783
 30
0.0
 10
157.2528660747863
 20
-51.98928174945703
 30
0.0
 10
157.2411920165236
 20
-51.98928174945703
 30
0.0
 10
157.231337314387
 20
-51.99432054943783
 30
0.0
1001
ACAD
1000
RTTcAl
1070
-26105
1071
-1023410177
1000
$$NoName$$
  0
SPLINE
  5
5363
330
A
100
AcDbEntity
  8
001
370
     9
100
AcDbSpline
210
0.0
220
0.0
230
1.0
 70
     8
 71
     3
 72
     8
 73
     4
 74
     0
 42
0.0000000001
 43
0.0000000001
 40
2.0
 40
2.0
 40
2.0
 40
2.0
 40
3.0
 40
3.0
 40
3.0
 40
3.0
 10
157.231337314387
 20
-51.99432054943783
 30
0.0
 10
157.2267963310322
 20
-51.9966453014049
 30
0.0
 10
157.2239337993051
 20
-52.00131995455268
 30
0.0
 10
157.2239337993051
 20
-52.00641077550962
 30
0.0
1001
ACAD
1000
RTTcAl
1070
-26105
1071
-1023410177
1000
$$NoName$$
  0
LINE
  5
5364
330
A
100
AcDbEntity
  8
001
370
     9
100
AcDbLine
 10
157.3003284975781
 20
-51.76815128102615
 30
0.0
 11
157.3546501100061
 21
-51.76815128102615
 31
0.0
1001
ACAD
1000
RTTcAl
1070
-26105
1071
-1023410177
1000
$$NoName$$
  0
LINE
  5
5365
330
A
100
AcDbEntity
  8
001
370
     9
100
AcDbLine
 10
157.3295095091173
 20
-52.12319476636759
 30
0.0
 11
157.3522974527471
 21
-52.12319476636759
 31
0.0
1001
ACAD
1000
RTTcAl
1070
-26105
1071
-1023410177
1000
$$NoName$$
  0
LINE
  5
5366
330
A
100
AcDbEntity
  8
001
370
     9
100
AcDbLine
 10
157.3348032463322
 20
-52.10459812867012
 30
0.0
 11
157.3522971082374
 21
-52.10459812867012
 31
0.0
1001
ACAD
1000
RTTcAl
1070
-26105
1071
-1023410177
1000
$$NoName$$
  0
LINE
  5
5367
330
A
100
AcDbEntity
  8
001
370
     9
100
AcDbLine
 10
157.3163047939209
 20
-52.05405992259995
 30
0.0
 11
157.3522874619636
 21
-52.05405992259995
 31
0.0
1001
ACAD
1000
RTTcAl
1070
-26105
1071
-1023410177
1000
$$NoName$$
  0
LINE
  5
5368
330
A
100
AcDbEntity
  8
001
370
     9
100
AcDbLine
 10
157.2483843471129
 20
-51.98478314080469
 30
0.0
 11
157.3522871174539
 21
-51.98478314080469
 31
0.0
1001
ACAD
1000
RTTcAl
1070
-26105
1071
-1023410177
1000
$$NoName$$
  0
LINE
  5
5369
330
A
100
AcDbEntity
  8
001
  6
AI-Linetype-1
370
     9
100
AcDbLine
 10
157.2475940416872
 20
-51.73099727974566
 30
0.0
 11
157.2475940416872
 21
-51.90821793155198
 31
0.0
1001
ACAD
1000
RTTcAl
1070
-26105
1071
-1023410177
1000
$$NoName$$
  0
LINE
  5
536A
330
A
100
AcDbEntity
  8
001
  6
AI-Linetype-2
370
     9
100
AcDbLine
 10
157.2470300791843
 20
-51.97862537307212
 30
0.0
 11
157.2470300791843
 21
-52.13047287989105
 31
0.0
1001
ACAD
1000
RTTcAl
1070
-25862
1071
-1037953260
1000
$$NoName$$
  0
LINE
  5
536B
330
A
100
AcDbEntity
  8
001
  6
AI-Linetype-3
370
     9
100
AcDbLine
 10
157.3356524629296
 20
-51.81953353604701
 30
0.0
 11
157.1596885827854
 21
-51.81953353604701
 31
0.0
1001
ACAD
1000
RTTcAl
1070
-26105
1071
-1023410177
1000
$$NoName$$
  0
LINE
  5
536C
330
A
100
AcDbEntity
  8
001
370
     9
100
AcDbLine
 10
157.3331161819602
 20
-52.12008349858237
 30
0.0
 11
157.1609463879768
 21
-52.12008349858237
 31
0.0
1001
ACAD
1000
RTTcAl
1070
-26105
1071
-1023410177
1000
$$NoName$$
  0
LINE
  5
536D
330
A
100
AcDbEntity
  8
001
370
     9
100
AcDbLine
 10
157.3349837694548
 20
-52.10676302810123
 30
0.0
 11
157.1590725993062
 21
-52.10676302810123
 31
0.0
1001
ACAD
1000
RTTcAl
1070
-26105
1071
-1023410177
1000
$$NoName$$
  0
LINE
  5
536E
330
A
100
AcDbEntity
  8
001
370
     9
100
AcDbLine
 10
157.2504245340052
 20
-52.12008349858237
 30
0.0
 11
157.2436263225994
 21
-52.12008349858237
 31
0.0
1001
ACAD
1000
RTTcAl
1070
-25862
1071
-1037953260
1000
$$NoName$$
  0
LINE
  5
536F
330
A
100
AcDbEntity
  8
001
370
     9
100
AcDbLine
 10
157.2504245340052
 20
-52.12008349858237
 30
0.0
 11
157.2504245340052
 21
-52.12008349858237
 31
0.0
1001
ACAD
1000
RTTcAl
1070
-25862
1071
-1037953260
1000
$$NoName$$
  0
LINE
  5
5370
330
A
100
AcDbEntity
  8
001
370
     9
100
AcDbLine
 10
157.243631490246
 20
-52.12008349858237
 30
0.0
 11
157.243631490246
 21
-52.12008349858237
 31
0.0
1001
ACAD
1000
RTTcAl
1070
-25862
1071
-1037953260
1000
$$NoName$$
  0
LINE
  5
5371
330
A
100
AcDbEntity
  8
001
370
     9
100
AcDbLine
 10
157.243631490246
 20
-52.12008349858237
 30
0.0
 11
157.24024495915
 21
-52.12008349858237
 31
0.0
1001
ACAD
1000
RTTcAl
1070
-25862
1071
-1037953260
1000
$$NoName$$
  0
LINE
  5
5372
330
A
100
AcDbEntity
  8
001
370
     9
100
AcDbLine
 10
157.1785336120312
 20
-52.05405957809018
 30
0.0
 11
157.3155200006516
 21
-52.05405992259995
 31
0.0
1001
ACAD
1000
RTTcAl
1070
-26105
1071
-1023410177
1000
$$NoName$$
  0
LINE
  5
5373
330
A
100
AcDbEntity
  8
001
370
     9
100
AcDbLine
 10
157.2470300791843
 20
-52.10676302810123
 30
0.0
 11
157.3334476003645
 21
-52.10676302810123
 31
0.0
1001
ACAD
1000
RTTcAl
1070
-26105
1071
-1023410177
1000
$$NoName$$
  0
LINE
  5
5374
330
A
100
AcDbEntity
  8
001
370
     9
100
AcDbLine
 10
157.1583201899559
 20
-52.10459743965056
 30
0.0
 11
157.335737901354
 21
-52.10459812867012
 31
0.0
1001
ACAD
1000
RTTcAl
1070
-26105
1071
-1023410177
1000
$$NoName$$
  0
LINE
  5
5375
330
A
100
AcDbEntity
  8
001
370
     9
100
AcDbLine
 10
157.1606087683965
 20
-52.10676302810123
 30
0.0
 11
157.2470300791843
 21
-52.10676302810123
 31
0.0
1001
ACAD
1000
RTTcAl
1070
-26105
1071
-1023410177
1000
$$NoName$$
  0
LINE
  5
5376
330
A
100
AcDbEntity
  8
001
370
     9
100
AcDbLine
 10
157.2470300791843
 20
-52.10052602312021
 30
0.0
 11
157.2449923038604
 21
-52.10458917141595
 31
0.0
1001
ACAD
1000
RTTcAl
1070
-26105
1071
-1023410177
1000
$$NoName$$
  0
LINE
  5
5377
330
A
100
AcDbEntity
  8
001
370
     9
100
AcDbLine
 10
157.249063375881
 20
-52.10459743965056
 30
0.0
 11
157.2470293901647
 21
-52.10052602312021
 31
0.0
1001
ACAD
1000
RTTcAl
1070
-26105
1071
-1023410177
1000
$$NoName$$
  0
LINE
  5
5378
330
A
100
AcDbEntity
  8
001
370
     9
100
AcDbLine
 10
157.2572217118817
 20
-52.10676302810123
 30
0.0
 11
157.2572217118817
 21
-52.1045984731799
 31
0.0
1001
ACAD
1000
RTTcAl
1070
-26105
1071
-1023410177
1000
$$NoName$$
  0
LINE
  5
5379
330
A
100
AcDbEntity
  8
001
370
     9
100
AcDbLine
 10
157.2368412025651
 20
-52.10459743965056
 30
0.0
 11
157.2368363794282
 21
-52.10676302810123
 31
0.0
1001
ACAD
1000
RTTcAl
1070
-26105
1071
-1023410177
1000
$$NoName$$
  0
LINE
  5
537A
330
A
100
AcDbEntity
  8
001
370
     9
100
AcDbLine
 10
157.2449916148409
 20
-52.10459743965056
 30
0.0
 11
157.249063375881
 21
-52.10459743965056
 31
0.0
1001
ACAD
1000
RTTcAl
1070
-26105
1071
-1023410177
1000
$$NoName$$
  0
SPLINE
  5
537B
330
A
100
AcDbEntity
  8
001
370
     9
100
AcDbSpline
210
0.0
220
0.0
230
1.0
 70
    24
 71
     3
 72
     8
 73
     4
 74
     0
 42
0.0000000001
 43
0.0000000001
 40
0.0
 40
0.0
 40
0.0
 40
0.0
 40
1.0
 40
1.0
 40
1.0
 40
1.0
 10
157.3114165447121
 20
-52.05402753868103
 30
0.0
 10
157.3114165447121
 20
-52.05402753868103
 30
0.0
 10
157.3114165447121
 20
-52.05270462114198
 30
0.0
 10
157.3114165447121
 20
-52.05270462114198
 30
0.0
1001
ACAD
1000
RTTcAl
1070
-26105
1071
-1023410177
1000
$$NoName$$
  0
SPLINE
  5
537C
330
A
100
AcDbEntity
  8
001
370
     9
100
AcDbSpline
210
0.0
220
0.0
230
1.0
 70
     8
 71
     3
 72
    11
 73
     7
 74
     0
 42
0.0000000001
 43
0.0000000001
 40
1.0
 40
1.0
 40
1.0
 40
1.0
 40
2.0
 40
2.0
 40
2.0
 40
3.0
 40
3.0
 40
3.0
 40
3.0
 10
157.3114165447121
 20
-52.05270462114198
 30
0.0
 10
157.3114165447121
 20
-52.0172042667853
 30
0.0
 10
157.2825307780507
 20
-51.9883271128683
 30
0.0
 10
157.2470300791843
 20
-51.9883271128683
 30
0.0
 10
157.2115311028667
 20
-51.9883271128683
 30
0.0
 10
157.1826567050279
 20
-52.01720357776575
 30
0.0
 10
157.1826567050279
 20
-52.05270462114198
 30
0.0
1001
ACAD
1000
RTTcAl
1070
-26105
1071
-1023410177
1000
$$NoName$$
  0
SPLINE
  5
537D
330
A
100
AcDbEntity
  8
001
370
     9
100
AcDbSpline
210
0.0
220
0.0
230
1.0
 70
    24
 71
     3
 72
     8
 73
     4
 74
     0
 42
0.0000000001
 43
0.0000000001
 40
3.0
 40
3.0
 40
3.0
 40
3.0
 40
4.0
 40
4.0
 40
4.0
 40
4.0
 10
157.1826567050279
 20
-52.05270462114198
 30
0.0
 10
157.1826567050279
 20
-52.05270462114198
 30
0.0
 10
157.1826567050279
 20
-52.05384046987277
 30
0.0
 10
157.1826567050279
 20
-52.05384046987277
 30
0.0
1001
ACAD
1000
RTTcAl
1070
-26105
1071
-1023410177
1000
$$NoName$$
  0
SPLINE
  5
537E
330
A
100
AcDbEntity
  8
001
370
    25
100
AcDbSpline
210
0.0
220
0.0
230
1.0
 70
     8
 71
     3
 72
     8
 73
     4
 74
     0
 42
0.0000000001
 43
0.0000000001
 40
0.0
 40
0.0
 40
0.0
 40
0.0
 40
1.0
 40
1.0
 40
1.0
 40
1.0
 10
157.4319010215462
 20
-52.08661609641268
 30
0.0
 10
157.4331309214457
 20
-52.07656984684069
 30
0.0
 10
157.4361088639477
 20
-52.06682917743983
 30
0.0
 10
157.4406811976921
 20
-52.05780405484331
 30
0.0
1001
ACAD
1000
RTTcAl
1070
-26105
1071
-1023410177
1000
$$NoName$$
  0
SPLINE
  5
537F
330
A
100
AcDbEntity
  8
001
370
    25
100
AcDbSpline
210
0.0
220
0.0
230
1.0
 70
    24
 71
     3
 72
     8
 73
     4
 74
     0
 42
0.0000000001
 43
0.0000000001
 40
1.0
 40
1.0
 40
1.0
 40
1.0
 40
2.0
 40
2.0
 40
2.0
 40
2.0
 10
157.4406811976921
 20
-52.05780405484331
 30
0.0
 10
157.4406811976921
 20
-52.05780405484331
 30
0.0
 10
157.4412434376462
 20
-52.05723113508615
 30
0.0
 10
157.4412434376462
 20
-52.05723113508615
 30
0.0
1001
ACAD
1000
RTTcAl
1070
-26105
1071
-1023410177
1000
$$NoName$$
  0
SPLINE
  5
5380
330
A
100
AcDbEntity
  8
001
370
    25
100
AcDbSpline
210
0.0
220
0.0
230
1.0
 70
     8
 71
     3
 72
     8
 73
     4
 74
     0
 42
0.0000000001
 43
0.0000000001
 40
2.0
 40
2.0
 40
2.0
 40
2.0
 40
3.0
 40
3.0
 40
3.0
 40
3.0
 10
157.4412434376462
 20
-52.05723113508615
 30
0.0
 10
157.4442682334777
 20
-52.05555027189005
 30
0.0
 10
157.4475886186968
 20
-52.05447023374293
 30
0.0
 10
157.4510357835134
 20
-52.05405992259995
 30
0.0
1001
ACAD
1000
RTTcAl
1070
-26105
1071
-1023410177
1000
$$NoName$$
  0
SPLINE
  5
5381
330
A
100
AcDbEntity
  8
001
370
    25
100
AcDbSpline
210
0.0
220
0.0
230
1.0
 70
    24
 71
     3
 72
     8
 73
     4
 74
     0
 42
0.0000000001
 43
0.0000000001
 40
3.0
 40
3.0
 40
3.0
 40
3.0
 40
4.0
 40
4.0
 40
4.0
 40
4.0
 10
157.4510357835134
 20
-52.05405992259995
 30
0.0
 10
157.4510357835134
 20
-52.05405992259995
 30
0.0
 10
157.451604913663
 20
-52.05405992259995
 30
0.0
 10
157.451604913663
 20
-52.05405992259995
 30
0.0
1001
ACAD
1000
RTTcAl
1070
-26105
1071
-1023410177
1000
$$NoName$$
  0
SPLINE
  5
5382
330
A
100
AcDbEntity
  8
001
370
    25
100
AcDbSpline
210
0.0
220
0.0
230
1.0
 70
    24
 71
     3
 72
     8
 73
     4
 74
     0
 42
0.0000000001
 43
0.0000000001
 40
4.0
 40
4.0
 40
4.0
 40
4.0
 40
5.0
 40
5.0
 40
5.0
 40
5.0
 10
157.451604913663
 20
-52.05405992259995
 30
0.0
 10
157.451604913663
 20
-52.05405992259995
 30
0.0
 10
157.451604913663
 20
-52.05270462114198
 30
0.0
 10
157.451604913663
 20
-52.05270462114198
 30
0.0
1001
ACAD
1000
RTTcAl
1070
-26105
1071
-1023410177
1000
$$NoName$$
  0
SPLINE
  5
5383
330
A
100
AcDbEntity
  8
001
370
    25
100
AcDbSpline
210
0.0
220
0.0
230
1.0
 70
     8
 71
     3
 72
    11
 73
     7
 74
     0
 42
0.0000000001
 43
0.0000000001
 40
5.0
 40
5.0
 40
5.0
 40
5.0
 40
6.0
 40
6.0
 40
6.0
 40
7.0
 40
7.0
 40
7.0
 40
7.0
 10
157.451604913663
 20
-52.05270462114198
 30
0.0
 10
157.451604913663
 20
-52.01519405224352
 30
0.0
 10
157.4820147915725
 20
-51.98477969570693
 30
0.0
 10
157.5195236379221
 20
-51.98477969570693
 30
0.0
 10
157.5570373074085
 20
-51.98477969570693
 30
0.0
 10
157.5874513194353
 20
-52.01519405224352
 30
0.0
 10
157.5874513194353
 20
-52.05270462114198
 30
0.0
1001
ACAD
1000
RTTcAl
1070
-26105
1071
-1023410177
1000
$$NoName$$
  0
SPLINE
  5
5384
330
A
100
AcDbEntity
  8
001
370
    25
100
AcDbSpline
210
0.0
220
0.0
230
1.0
 70
    24
 71
     3
 72
     8
 73
     4
 74
     0
 42
0.0000000001
 43
0.0000000001
 40
7.0
 40
7.0
 40
7.0
 40
7.0
 40
8.0
 40
8.0
 40
8.0
 40
8.0
 10
157.5874513194353
 20
-52.05270462114198
 30
0.0
 10
157.5874513194353
 20
-52.05270462114198
 30
0.0
 10
157.5874513194353
 20
-52.05405992259995
 30
0.0
 10
157.5874513194353
 20
-52.05405992259995
 30
0.0
1001
ACAD
1000
RTTcAl
1070
-26105
1071
-1023410177
1000
$$NoName$$
  0
SPLINE
  5
5385
330
A
100
AcDbEntity
  8
001
370
    25
100
AcDbSpline
210
0.0
220
0.0
230
1.0
 70
    24
 71
     3
 72
     8
 73
     4
 74
     0
 42
0.0000000001
 43
0.0000000001
 40
8.0
 40
8.0
 40
8.0
 40
8.0
 40
9.0
 40
9.0
 40
9.0
 40
9.0
 10
157.5874513194353
 20
-52.05405992259995
 30
0.0
 10
157.5874513194353
 20
-52.05405992259995
 30
0.0
 10
157.5880176935068
 20
-52.05405992259995
 30
0.0
 10
157.5880176935068
 20
-52.05405992259995
 30
0.0
1001
ACAD
1000
RTTcAl
1070
-26105
1071
-1023410177
1000
$$NoName$$
  0
SPLINE
  5
5386
330
A
100
AcDbEntity
  8
001
370
    25
100
AcDbSpline
210
0.0
220
0.0
230
1.0
 70
     8
 71
     3
 72
     8
 73
     4
 74
     0
 42
0.0000000001
 43
0.0000000001
 40
9.0
 40
9.0
 40
9.0
 40
9.0
 40
10.0
 40
10.0
 40
10.0
 40
10.0
 10
157.5880176935068
 20
-52.05405992259995
 30
0.0
 10
157.5914572791083
 20
-52.05447023374293
 30
0.0
 10
157.5947838655034
 20
-52.05555027189005
 30
0.0
 10
157.5978183076086
 20
-52.05723113508615
 30
0.0
1001
ACAD
1000
RTTcAl
1070
-26105
1071
-1023410177
1000
$$NoName$$
  0
SPLINE
  5
5387
330
A
100
AcDbEntity
  8
001
370
    25
100
AcDbSpline
210
0.0
220
0.0
230
1.0
 70
    24
 71
     3
 72
     8
 73
     4
 74
     0
 42
0.0000000001
 43
0.0000000001
 40
10.0
 40
10.0
 40
10.0
 40
10.0
 40
11.0
 40
11.0
 40
11.0
 40
11.0
 10
157.5978183076086
 20
-52.05723113508615
 30
0.0
 10
157.5978183076086
 20
-52.05723113508615
 30
0.0
 10
157.5983619440348
 20
-52.05780405484331
 30
0.0
 10
157.5983619440348
 20
-52.05780405484331
 30
0.0
1001
ACAD
1000
RTTcAl
1070
-26105
1071
-1023410177
1000
$$NoName$$
  0
SPLINE
  5
5388
330
A
100
AcDbEntity
  8
001
370
    25
100
AcDbSpline
210
0.0
220
0.0
230
1.0
 70
     8
 71
     3
 72
     8
 73
     4
 74
     0
 42
0.0000000001
 43
0.0000000001
 40
11.0
 40
11.0
 40
11.0
 40
11.0
 40
12.0
 40
12.0
 40
12.0
 40
12.0
 10
157.5983619440348
 20
-52.05780405484331
 30
0.0
 10
157.6029411679747
 20
-52.06682917743983
 30
0.0
 10
157.6059122202812
 20
-52.07656984684069
 30
0.0
 10
157.6071441872394
 20
-52.08661609641268
 30
0.0
1001
ACAD
1000
RTTcAl
1070
-26105
1071
-1023410177
1000
$$NoName$$
  0
SPLINE
  5
5389
330
A
100
AcDbEntity
  8
001
370
    25
100
AcDbSpline
210
0.0
220
0.0
230
1.0
 70
    24
 71
     3
 72
     8
 73
     4
 74
     0
 42
0.0000000001
 43
0.0000000001
 40
12.0
 40
12.0
 40
12.0
 40
12.0
 40
13.0
 40
13.0
 40
13.0
 40
13.0
 10
157.6071441872394
 20
-52.08661609641268
 30
0.0
 10
157.6071441872394
 20
-52.08661609641268
 30
0.0
 10
157.6071441872394
 20
-52.08666605033016
 30
0.0
 10
157.6071441872394
 20
-52.08666605033016
 30
0.0
1001
ACAD
1000
RTTcAl
1070
-26105
1071
-1023410177
1000
$$NoName$$
  0
SPLINE
  5
538A
330
A
100
AcDbEntity
  8
001
370
    25
100
AcDbSpline
210
0.0
220
0.0
230
1.0
 70
    24
 71
     3
 72
     8
 73
     4
 74
     0
 42
0.0000000001
 43
0.0000000001
 40
13.0
 40
13.0
 40
13.0
 40
13.0
 40
14.0
 40
14.0
 40
14.0
 40
14.0
 10
157.6071441872394
 20
-52.08666605033016
 30
0.0
 10
157.6071441872394
 20
-52.08666605033016
 30
0.0
 10
157.6082376612678
 20
-52.10459812867012
 30
0.0
 10
157.6082376612678
 20
-52.10459812867012
 30
0.0
1001
ACAD
1000
RTTcAl
1070
-26105
1071
-1023410177
1000
$$NoName$$
  0
SPLINE
  5
538B
330
A
100
AcDbEntity
  8
001
370
    25
100
AcDbSpline
210
0.0
220
0.0
230
1.0
 70
    24
 71
     3
 72
     8
 73
     4
 74
     0
 42
0.0000000001
 43
0.0000000001
 40
14.0
 40
14.0
 40
14.0
 40
14.0
 40
15.0
 40
15.0
 40
15.0
 40
15.0
 10
157.6082376612678
 20
-52.10459812867012
 30
0.0
 10
157.6082376612678
 20
-52.10459812867012
 30
0.0
 10
157.6059473602783
 20
-52.10459812867012
 30
0.0
 10
157.6059473602783
 20
-52.10459812867012
 30
0.0
1001
ACAD
1000
RTTcAl
1070
-26105
1071
-1023410177
1000
$$NoName$$
  0
SPLINE
  5
538C
330
A
100
AcDbEntity
  8
001
370
    25
100
AcDbSpline
210
0.0
220
0.0
230
1.0
 70
    24
 71
     3
 72
     8
 73
     4
 74
     0
 42
0.0000000001
 43
0.0000000001
 40
15.0
 40
15.0
 40
15.0
 40
15.0
 40
16.0
 40
16.0
 40
16.0
 40
16.0
 10
157.6059473602783
 20
-52.10459812867012
 30
0.0
 10
157.6059473602783
 20
-52.10459812867012
 30
0.0
 10
157.6059473602783
 20
-52.10676302810123
 30
0.0
 10
157.6059473602783
 20
-52.10676302810123
 30
0.0
1001
ACAD
1000
RTTcAl
1070
-26105
1071
-1023410177
1000
$$NoName$$
  0
SPLINE
  5
538D
330
A
100
AcDbEntity
  8
001
370
    25
100
AcDbSpline
210
0.0
220
0.0
230
1.0
 70
    24
 71
     3
 72
     8
 73
     4
 74
     0
 42
0.0000000001
 43
0.0000000001
 40
16.0
 40
16.0
 40
16.0
 40
16.0
 40
17.0
 40
17.0
 40
17.0
 40
17.0
 10
157.6059473602783
 20
-52.10676302810123
 30
0.0
 10
157.6059473602783
 20
-52.10676302810123
 30
0.0
 10
157.6075541538726
 20
-52.10676302810123
 30
0.0
 10
157.6075541538726
 20
-52.10676302810123
 30
0.0
1001
ACAD
1000
RTTcAl
1070
-26105
1071
-1023410177
1000
$$NoName$$
  0
SPLINE
  5
538E
330
A
100
AcDbEntity
  8
001
370
    25
100
AcDbSpline
210
0.0
220
0.0
230
1.0
 70
     8
 71
     3
 72
     8
 73
     4
 74
     0
 42
0.0000000001
 43
0.0000000001
 40
17.0
 40
17.0
 40
17.0
 40
17.0
 40
18.0
 40
18.0
 40
18.0
 40
18.0
 10
157.6075541538726
 20
-52.10676302810123
 30
0.0
 10
157.6079200232545
 20
-52.10681091496006
 30
0.0
 10
157.6081956310751
 20
-52.10713682120797
 30
0.0
 10
157.6081632471562
 20
-52.10750820274627
 30
0.0
1001
ACAD
1000
RTTcAl
1070
-26105
1071
-1023410177
1000
$$NoName$$
  0
SPLINE
  5
538F
330
A
100
AcDbEntity
  8
001
370
    25
100
AcDbSpline
210
0.0
220
0.0
230
1.0
 70
    24
 71
     3
 72
     8
 73
     4
 74
     0
 42
0.0000000001
 43
0.0000000001
 40
18.0
 40
18.0
 40
18.0
 40
18.0
 40
19.0
 40
19.0
 40
19.0
 40
19.0
 10
157.6081632471562
 20
-52.10750820274627
 30
0.0
 10
157.6081632471562
 20
-52.10750820274627
 30
0.0
 10
157.6069636641169
 20
-52.11885669927077
 30
0.0
 10
157.6069636641169
 20
-52.11885669927077
 30
0.0
1001
ACAD
1000
RTTcAl
1070
-26105
1071
-1023410177
1000
$$NoName$$
  0
SPLINE
  5
5390
330
A
100
AcDbEntity
  8
001
370
    25
100
AcDbSpline
210
0.0
220
0.0
230
1.0
 70
     8
 71
     3
 72
     8
 73
     4
 74
     0
 42
0.0000000001
 43
0.0000000001
 40
19.0
 40
19.0
 40
19.0
 40
19.0
 40
20.0
 40
20.0
 40
20.0
 40
20.0
 10
157.6069636641169
 20
-52.11885669927077
 30
0.0
 10
157.6068940731422
 20
-52.11955054195922
 30
0.0
 10
157.6063111626015
 20
-52.12008384309215
 30
0.0
 10
157.605615941874
 20
-52.12008384309215
 30
0.0
1001
ACAD
1000
RTTcAl
1070
-26105
1071
-1023410177
1000
$$NoName$$
  0
SPLINE
  5
5391
330
A
100
AcDbEntity
  8
001
370
    25
100
AcDbSpline
210
0.0
220
0.0
230
1.0
 70
    24
 71
     3
 72
     8
 73
     4
 74
     0
 42
0.0000000001
 43
0.0000000001
 40
20.0
 40
20.0
 40
20.0
 40
20.0
 40
21.0
 40
21.0
 40
21.0
 40
21.0
 10
157.605615941874
 20
-52.12008384309215
 30
0.0
 10
157.605615941874
 20
-52.12008384309215
 30
0.0
 10
157.600835524225
 20
-52.12008384309215
 30
0.0
 10
157.600835524225
 20
-52.12008384309215
 30
0.0
1001
ACAD
1000
RTTcAl
1070
-26105
1071
-1023410177
1000
$$NoName$$
  0
SPLINE
  5
5392
330
A
100
AcDbEntity
  8
001
370
    25
100
AcDbSpline
210
0.0
220
0.0
230
1.0
 70
    24
 71
     3
 72
     8
 73
     4
 74
     0
 42
0.0000000001
 43
0.0000000001
 40
21.0
 40
21.0
 40
21.0
 40
21.0
 40
22.0
 40
22.0
 40
22.0
 40
22.0
 10
157.600835524225
 20
-52.12008384309215
 30
0.0
 10
157.600835524225
 20
-52.12008384309215
 30
0.0
 10
157.6006295073791
 20
-52.12347244124688
 30
0.0
 10
157.6006295073791
 20
-52.12347244124688
 30
0.0
1001
ACAD
1000
RTTcAl
1070
-26105
1071
-1023410177
1000
$$NoName$$
  0
SPLINE
  5
5393
330
A
100
AcDbEntity
  8
001
370
    25
100
AcDbSpline
210
0.0
220
0.0
230
1.0
 70
    24
 71
     3
 72
     8
 73
     4
 74
     0
 42
0.0000000001
 43
0.0000000001
 40
22.0
 40
22.0
 40
22.0
 40
22.0
 40
23.0
 40
23.0
 40
23.0
 40
23.0
 10
157.6006295073791
 20
-52.12347244124688
 30
0.0
 10
157.6006295073791
 20
-52.12347244124688
 30
0.0
 10
157.5263669801085
 20
-52.12347244124688
 30
0.0
 10
157.5263669801085
 20
-52.12347244124688
 30
0.0
1001
ACAD
1000
RTTcAl
1070
-26105
1071
-1023410177
1000
$$NoName$$
  0
SPLINE
  5
5394
330
A
100
AcDbEntity
  8
001
370
    25
100
AcDbSpline
210
0.0
220
0.0
230
1.0
 70
    24
 71
     3
 72
     8
 73
     4
 74
     0
 42
0.0000000001
 43
0.0000000001
 40
23.0
 40
23.0
 40
23.0
 40
23.0
 40
24.0
 40
24.0
 40
24.0
 40
24.0
 10
157.5263669801085
 20
-52.12347244124688
 30
0.0
 10
157.5263669801085
 20
-52.12347244124688
 30
0.0
 10
157.5263228828572
 20
-52.12008384309215
 30
0.0
 10
157.5263228828572
 20
-52.12008384309215
 30
0.0
1001
ACAD
1000
RTTcAl
1070
-26105
1071
-1023410177
1000
$$NoName$$
  0
SPLINE
  5
5395
330
A
100
AcDbEntity
  8
001
370
    25
100
AcDbSpline
210
0.0
220
0.0
230
1.0
 70
    24
 71
     3
 72
     8
 73
     4
 74
     0
 42
0.0000000001
 43
0.0000000001
 40
24.0
 40
24.0
 40
24.0
 40
24.0
 40
25.0
 40
25.0
 40
25.0
 40
25.0
 10
157.5263228828572
 20
-52.12008384309215
 30
0.0
 10
157.5263228828572
 20
-52.12008384309215
 30
0.0
 10
157.5127395514171
 20
-52.12008384309215
 30
0.0
 10
157.5127395514171
 20
-52.12008384309215
 30
0.0
1001
ACAD
1000
RTTcAl
1070
-26105
1071
-1023410177
1000
$$NoName$$
  0
SPLINE
  5
5396
330
A
100
AcDbEntity
  8
001
370
    25
100
AcDbSpline
210
0.0
220
0.0
230
1.0
 70
    24
 71
     3
 72
     8
 73
     4
 74
     0
 42
0.0000000001
 43
0.0000000001
 40
25.0
 40
25.0
 40
25.0
 40
25.0
 40
26.0
 40
26.0
 40
26.0
 40
26.0
 10
157.5127395514171
 20
-52.12008384309215
 30
0.0
 10
157.5127395514171
 20
-52.12008384309215
 30
0.0
 10
157.512670649462
 20
-52.12347244124688
 30
0.0
 10
157.512670649462
 20
-52.12347244124688
 30
0.0
1001
ACAD
1000
RTTcAl
1070
-26105
1071
-1023410177
1000
$$NoName$$
  0
SPLINE
  5
5397
330
A
100
AcDbEntity
  8
001
370
    25
100
AcDbSpline
210
0.0
220
0.0
230
1.0
 70
    24
 71
     3
 72
     8
 73
     4
 74
     0
 42
0.0000000001
 43
0.0000000001
 40
26.0
 40
26.0
 40
26.0
 40
26.0
 40
27.0
 40
27.0
 40
27.0
 40
27.0
 10
157.512670649462
 20
-52.12347244124688
 30
0.0
 10
157.512670649462
 20
-52.12347244124688
 30
0.0
 10
157.438422591602
 20
-52.12347244124688
 30
0.0
 10
157.438422591602
 20
-52.12347244124688
 30
0.0
1001
ACAD
1000
RTTcAl
1070
-26105
1071
-1023410177
1000
$$NoName$$
  0
SPLINE
  5
5398
330
A
100
AcDbEntity
  8
001
370
    25
100
AcDbSpline
210
0.0
220
0.0
230
1.0
 70
    24
 71
     3
 72
     8
 73
     4
 74
     0
 42
0.0000000001
 43
0.0000000001
 40
27.0
 40
27.0
 40
27.0
 40
27.0
 40
28.0
 40
28.0
 40
28.0
 40
28.0
 10
157.438422591602
 20
-52.12347244124688
 30
0.0
 10
157.438422591602
 20
-52.12347244124688
 30
0.0
 10
157.4382096845605
 20
-52.12004387995816
 30
0.0
 10
157.4382096845605
 20
-52.12004387995816
 30
0.0
1001
ACAD
1000
RTTcAl
1070
-26105
1071
-1023410177
1000
$$NoName$$
  0
SPLINE
  5
5399
330
A
100
AcDbEntity
  8
001
370
    25
100
AcDbSpline
210
0.0
220
0.0
230
1.0
 70
    24
 71
     3
 72
     8
 73
     4
 74
     0
 42
0.0000000001
 43
0.0000000001
 40
28.0
 40
28.0
 40
28.0
 40
28.0
 40
29.0
 40
29.0
 40
29.0
 40
29.0
 10
157.4382096845605
 20
-52.12004387995816
 30
0.0
 10
157.4382096845605
 20
-52.12004387995816
 30
0.0
 10
157.433434779068
 20
-52.12008384309215
 30
0.0
 10
157.433434779068
 20
-52.12008384309215
 30
0.0
1001
ACAD
1000
RTTcAl
1070
-26105
1071
-1023410177
1000
$$NoName$$
  0
SPLINE
  5
539A
330
A
100
AcDbEntity
  8
001
370
    25
100
AcDbSpline
210
0.0
220
0.0
230
1.0
 70
     8
 71
     3
 72
     8
 73
     4
 74
     0
 42
0.0000000001
 43
0.0000000001
 40
29.0
 40
29.0
 40
29.0
 40
29.0
 40
30.0
 40
30.0
 40
30.0
 40
30.0
 10
157.433434779068
 20
-52.12008384309215
 30
0.0
 10
157.4327464485359
 20
-52.12008384309215
 30
0.0
 10
157.4321697391713
 20
-52.11955054195922
 30
0.0
 10
157.4320829227078
 20
-52.11885669927077
 30
0.0
1001
ACAD
1000
RTTcAl
1070
-26105
1071
-1023410177
1000
$$NoName$$
  0
SPLINE
  5
539B
330
A
100
AcDbEntity
  8
001
370
    25
100
AcDbSpline
210
0.0
220
0.0
230
1.0
 70
    24
 71
     3
 72
     8
 73
     4
 74
     0
 42
0.0000000001
 43
0.0000000001
 40
30.0
 40
30.0
 40
30.0
 40
30.0
 40
31.0
 40
31.0
 40
31.0
 40
31.0
 10
157.4320829227078
 20
-52.11885669927077
 30
0.0
 10
157.4320829227078
 20
-52.11885669927077
 30
0.0
 10
157.4308943639813
 20
-52.10750716921694
 30
0.0
 10
157.4308943639813
 20
-52.10750716921694
 30
0.0
1001
ACAD
1000
RTTcAl
1070
-26105
1071
-1023410177
1000
$$NoName$$
  0
SPLINE
  5
539C
330
A
100
AcDbEntity
  8
001
370
    25
100
AcDbSpline
210
0.0
220
0.0
230
1.0
 70
    24
 71
     3
 72
     8
 73
     4
 74
     0
 42
0.0000000001
 43
0.0000000001
 40
31.0
 40
31.0
 40
31.0
 40
31.0
 40
32.0
 40
32.0
 40
32.0
 40
32.0
 10
157.4308943639813
 20
-52.10750716921694
 30
0.0
 10
157.4308943639813
 20
-52.10750716921694
 30
0.0
 10
157.4308943639813
 20
-52.1074437794182
 30
0.0
 10
157.4308943639813
 20
-52.1074437794182
 30
0.0
1001
ACAD
1000
RTTcAl
1070
-26105
1071
-1023410177
1000
$$NoName$$
  0
SPLINE
  5
539D
330
A
100
AcDbEntity
  8
001
370
    25
100
AcDbSpline
210
0.0
220
0.0
230
1.0
 70
     8
 71
     3
 72
     8
 73
     4
 74
     0
 42
0.0000000001
 43
0.0000000001
 40
32.0
 40
32.0
 40
32.0
 40
32.0
 40
33.0
 40
33.0
 40
33.0
 40
33.0
 10
157.4308943639813
 20
-52.1074437794182
 30
0.0
 10
157.4308943639813
 20
-52.10706826376258
 30
0.0
 10
157.4312030447404
 20
-52.10676302810123
 30
0.0
 10
157.4315737372591
 20
-52.10676302810123
 30
0.0
1001
ACAD
1000
RTTcAl
1070
-26105
1071
-1023410177
1000
$$NoName$$
  0
SPLINE
  5
539E
330
A
100
AcDbEntity
  8
001
370
    25
100
AcDbSpline
210
0.0
220
0.0
230
1.0
 70
    24
 71
     3
 72
     8
 73
     4
 74
     0
 42
0.0000000001
 43
0.0000000001
 40
33.0
 40
33.0
 40
33.0
 40
33.0
 40
34.0
 40
34.0
 40
34.0
 40
34.0
 10
157.4315737372591
 20
-52.10676302810123
 30
0.0
 10
157.4315737372591
 20
-52.10676302810123
 30
0.0
 10
157.4330992265464
 20
-52.10676302810123
 30
0.0
 10
157.4330992265464
 20
-52.10676302810123
 30
0.0
1001
ACAD
1000
RTTcAl
1070
-26105
1071
-1023410177
1000
$$NoName$$
  0
SPLINE
  5
539F
330
A
100
AcDbEntity
  8
001
370
    25
100
AcDbSpline
210
0.0
220
0.0
230
1.0
 70
    24
 71
     3
 72
     8
 73
     4
 74
     0
 42
0.0000000001
 43
0.0000000001
 40
34.0
 40
34.0
 40
34.0
 40
34.0
 40
35.0
 40
35.0
 40
35.0
 40
35.0
 10
157.4330992265464
 20
-52.10676302810123
 30
0.0
 10
157.4330992265464
 20
-52.10676302810123
 30
0.0
 10
157.4330992265464
 20
-52.10459812867012
 30
0.0
 10
157.4330992265464
 20
-52.10459812867012
 30
0.0
1001
ACAD
1000
RTTcAl
1070
-26105
1071
-1023410177
1000
$$NoName$$
  0
SPLINE
  5
53A0
330
A
100
AcDbEntity
  8
001
370
    25
100
AcDbSpline
210
0.0
220
0.0
230
1.0
 70
    24
 71
     3
 72
     8
 73
     4
 74
     0
 42
0.0000000001
 43
0.0000000001
 40
35.0
 40
35.0
 40
35.0
 40
35.0
 40
36.0
 40
36.0
 40
36.0
 40
36.0
 10
157.4330992265464
 20
-52.10459812867012
 30
0.0
 10
157.4330992265464
 20
-52.10459812867012
 30
0.0
 10
157.4308096145764
 20
-52.10459812867012
 30
0.0
 10
157.4308096145764
 20
-52.10459812867012
 30
0.0
1001
ACAD
1000
RTTcAl
1070
-26105
1071
-1023410177
1000
$$NoName$$
  0
SPLINE
  5
53A1
330
A
100
AcDbEntity
  8
001
370
    25
100
AcDbSpline
210
0.0
220
0.0
230
1.0
 70
    24
 71
     3
 72
     8
 73
     4
 74
     0
 42
0.0000000001
 43
0.0000000001
 40
36.0
 40
36.0
 40
36.0
 40
36.0
 40
37.0
 40
37.0
 40
37.0
 40
37.0
 10
157.4308096145764
 20
-52.10459812867012
 30
0.0
 10
157.4308096145764
 20
-52.10459812867012
 30
0.0
 10
157.4319010215462
 20
-52.08666605033016
 30
0.0
 10
157.4319010215462
 20
-52.08666605033016
 30
0.0
1001
ACAD
1000
RTTcAl
1070
-26105
1071
-1023410177
1000
$$NoName$$
  0
SPLINE
  5
53A2
330
A
100
AcDbEntity
  8
001
370
    25
100
AcDbSpline
210
0.0
220
0.0
230
1.0
 70
    24
 71
     3
 72
     8
 73
     4
 74
     0
 42
0.0000000001
 43
0.0000000001
 40
37.0
 40
37.0
 40
37.0
 40
37.0
 40
38.0
 40
38.0
 40
38.0
 40
38.0
 10
157.4319010215462
 20
-52.08666605033016
 30
0.0
 10
157.4319010215462
 20
-52.08666605033016
 30
0.0
 10
157.4319010215462
 20
-52.08661609641268
 30
0.0
 10
157.4319010215462
 20
-52.08661609641268
 30
0.0
1001
ACAD
1000
RTTcAl
1070
-26105
1071
-1023410177
1000
$$NoName$$
  0
LINE
  5
53A3
330
A
100
AcDbEntity
  8
001
370
     9
100
AcDbLine
 10
157.605615941874
 20
-52.12008349858237
 30
0.0
 11
157.433434779068
 21
-52.12008349858237
 31
0.0
1001
ACAD
1000
RTTcAl
1070
-26105
1071
-1023410177
1000
$$NoName$$
  0
LINE
  5
53A4
330
A
100
AcDbEntity
  8
001
370
     9
100
AcDbLine
 10
157.6074818068197
 20
-52.10676302810123
 30
0.0
 11
157.4315737372591
 21
-52.10676302810123
 31
0.0
1001
ACAD
1000
RTTcAl
1070
-26105
1071
-1023410177
1000
$$NoName$$
  0
LINE
  5
53A5
330
A
100
AcDbEntity
  8
001
370
     9
100
AcDbLine
 10
157.4510357835134
 20
-52.05405992259995
 30
0.0
 11
157.5880176935068
 21
-52.05405992259995
 31
0.0
1001
ACAD
1000
RTTcAl
1070
-26105
1071
-1023410177
1000
$$NoName$$
  0
LINE
  5
53A6
330
A
100
AcDbEntity
  8
001
370
     9
100
AcDbLine
 10
157.5195236379221
 20
-52.10676302810123
 30
0.0
 11
157.6059473602783
 21
-52.10676302810123
 31
0.0
1001
ACAD
1000
RTTcAl
1070
-26105
1071
-1023410177
1000
$$NoName$$
  0
LINE
  5
53A7
330
A
100
AcDbEntity
  8
001
370
     9
100
AcDbLine
 10
157.4308096145764
 20
-52.10459812867012
 30
0.0
 11
157.6082335271505
 21
-52.10459812867012
 31
0.0
1001
ACAD
1000
RTTcAl
1070
-26105
1071
-1023410177
1000
$$NoName$$
  0
LINE
  5
53A8
330
A
100
AcDbEntity
  8
001
370
     9
100
AcDbLine
 10
157.4330992265464
 20
-52.10676302810123
 30
0.0
 11
157.5195236379221
 21
-52.10676302810123
 31
0.0
1001
ACAD
1000
RTTcAl
1070
-26105
1071
-1023410177
1000
$$NoName$$
  0
LINE
  5
53A9
330
A
100
AcDbEntity
  8
001
370
     9
100
AcDbLine
 10
157.5195236379221
 20
-52.10052602312021
 30
0.0
 11
157.5174848290689
 21
-52.10458917141595
 31
0.0
1001
ACAD
1000
RTTcAl
1070
-26105
1071
-1023410177
1000
$$NoName$$
  0
LINE
  5
53AA
330
A
100
AcDbEntity
  8
001
370
     9
100
AcDbLine
 10
157.5215590016775
 20
-52.10459812867012
 30
0.0
 11
157.5195236379221
 21
-52.10052602312021
 31
0.0
1001
ACAD
1000
RTTcAl
1070
-26105
1071
-1023410177
1000
$$NoName$$
  0
LINE
  5
53AB
330
A
100
AcDbEntity
  8
001
370
     9
100
AcDbLine
 10
157.5297218163052
 20
-52.10676302810123
 30
0.0
 11
157.5297094139533
 21
-52.1045984731799
 31
0.0
1001
ACAD
1000
RTTcAl
1070
-26105
1071
-1023410177
1000
$$NoName$$
  0
LINE
  5
53AC
330
A
100
AcDbEntity
  8
001
370
     9
100
AcDbLine
 10
157.5093357948323
 20
-52.10459812867012
 30
0.0
 11
157.5093357948323
 21
-52.10676302810123
 31
0.0
1001
ACAD
1000
RTTcAl
1070
-26105
1071
-1023410177
1000
$$NoName$$
  0
LINE
  5
53AD
330
A
100
AcDbEntity
  8
001
370
     9
100
AcDbLine
 10
157.5174841400494
 20
-52.10459812867012
 30
0.0
 11
157.5215555565797
 21
-52.10459812867012
 31
0.0
1001
ACAD
1000
RTTcAl
1070
-26105
1071
-1023410177
1000
$$NoName$$
  0
SPLINE
  5
53AE
330
A
100
AcDbEntity
  8
001
370
     9
100
AcDbSpline
210
0.0
220
0.0
230
1.0
 70
    24
 71
     3
 72
     8
 73
     4
 74
     0
 42
0.0000000001
 43
0.0000000001
 40
0.0
 40
0.0
 40
0.0
 40
0.0
 40
1.0
 40
1.0
 40
1.0
 40
1.0
 10
157.5839132040379
 20
-52.05402753868103
 30
0.0
 10
157.5839132040379
 20
-52.05402753868103
 30
0.0
 10
157.5839132040379
 20
-52.05270462114198
 30
0.0
 10
157.5839132040379
 20
-52.05270462114198
 30
0.0
1001
ACAD
1000
RTTcAl
1070
-26105
1071
-1023410177
1000
$$NoName$$
  0
SPLINE
  5
53AF
330
A
100
AcDbEntity
  8
001
370
     9
100
AcDbSpline
210
0.0
220
0.0
230
1.0
 70
     8
 71
     3
 72
    11
 73
     7
 74
     0
 42
0.0000000001
 43
0.0000000001
 40
1.0
 40
1.0
 40
1.0
 40
1.0
 40
2.0
 40
2.0
 40
2.0
 40
3.0
 40
3.0
 40
3.0
 40
3.0
 10
157.5839132040379
 20
-52.05270462114198
 30
0.0
 10
157.5839132040379
 20
-52.0172042667853
 30
0.0
 10
157.5550260593374
 20
-51.9883271128683
 30
0.0
 10
157.519522259883
 20
-51.9883271128683
 30
0.0
 10
157.4840157043504
 20
-51.9883271128683
 30
0.0
 10
157.4551388949432
 20
-52.0172042667853
 30
0.0
 10
157.4551388949432
 20
-52.05270462114198
 30
0.0
1001
ACAD
1000
RTTcAl
1070
-26105
1071
-1023410177
1000
$$NoName$$
  0
SPLINE
  5
53B0
330
A
100
AcDbEntity
  8
001
370
     9
100
AcDbSpline
210
0.0
220
0.0
230
1.0
 70
    24
 71
     3
 72
     8
 73
     4
 74
     0
 42
0.0000000001
 43
0.0000000001
 40
3.0
 40
3.0
 40
3.0
 40
3.0
 40
4.0
 40
4.0
 40
4.0
 40
4.0
 10
157.4551388949432
 20
-52.05270462114198
 30
0.0
 10
157.4551388949432
 20
-52.05270462114198
 30
0.0
 10
157.4551388949432
 20
-52.05384046987277
 30
0.0
 10
157.4551388949432
 20
-52.05384046987277
 30
0.0
1001
ACAD
1000
RTTcAl
1070
-26105
1071
-1023410177
1000
$$NoName$$
  0
LINE
  5
53B1
330
A
100
AcDbEntity
  8
001
370
     9
100
AcDbLine
 10
157.3288852574036
 20
-51.81274738248339
 30
0.0
 11
157.3257881145192
 21
-51.81274738248339
 31
0.0
1001
ACAD
1000
RTTcAl
1070
-26105
1071
-1023410177
1000
$$NoName$$
  0
LINE
  5
53B2
330
A
100
AcDbEntity
  8
001
370
     9
100
AcDbLine
 10
157.3259689821515
 20
-51.81268261464554
 30
0.0
 11
157.3257812243237
 21
-51.81274738248339
 31
0.0
1001
ACAD
1000
RTTcAl
1070
-26105
1071
-1023410177
1000
$$NoName$$
  0
LINE
  5
53B3
330
A
100
AcDbEntity
  8
001
370
     9
100
AcDbLine
 10
157.3257815688335
 20
-51.82633209196257
 30
0.0
 11
157.3288783672081
 21
-51.82633209196257
 31
0.0
1001
ACAD
1000
RTTcAl
1070
-26105
1071
-1023410177
1000
$$NoName$$
  0
LINE
  5
53B4
330
A
100
AcDbEntity
  8
001
370
     9
100
AcDbLine
 10
157.240790318125
 20
-51.73824645444796
 30
0.0
 11
157.240790318125
 21
-51.74133395105864
 31
0.0
1001
ACAD
1000
RTTcAl
1070
-26105
1071
-1023410177
1000
$$NoName$$
  0
LINE
  5
53B5
330
A
100
AcDbEntity
  8
001
370
     9
100
AcDbLine
 10
157.2544439295594
 20
-51.74115756205344
 30
0.0
 11
157.2544439295594
 21
-51.7384366238442
 31
0.0
1001
ACAD
1000
RTTcAl
1070
-26105
1071
-1023410177
1000
$$NoName$$
  0
LINE
  5
53B6
330
A
100
AcDbEntity
  8
001
370
     9
100
AcDbLine
 10
157.25438157329
 20
-51.74133532909774
 30
0.0
 11
157.2544459966181
 21
-51.74115756205344
 31
0.0
1001
ACAD
1000
RTTcAl
1070
-26105
1071
-1023410177
1000
$$NoName$$
  0
LINE
  5
53B7
330
A
100
AcDbEntity
  8
001
370
     9
100
AcDbLine
 10
157.3257815688335
 20
-51.82633209196257
 30
0.0
 11
157.3259693266613
 21
-51.82638859156581
 31
0.0
1001
ACAD
1000
RTTcAl
1070
-26105
1071
-1023410177
1000
$$NoName$$
  0
SPLINE
  5
53B8
330
A
100
AcDbEntity
  8
001
370
     9
100
AcDbSpline
210
0.0
220
0.0
230
1.0
 70
    24
 71
     3
 72
     8
 73
     4
 74
     0
 42
0.0000000001
 43
0.0000000001
 40
0.0
 40
0.0
 40
0.0
 40
0.0
 40
1.0
 40
1.0
 40
1.0
 40
1.0
 10
157.240790318125
 20
-51.73824645444796
 30
0.0
 10
157.240790318125
 20
-51.73824645444796
 30
0.0
 10
157.240790318125
 20
-51.73825127758482
 30
0.0
 10
157.240790318125
 20
-51.73825127758482
 30
0.0
1001
ACAD
1000
RTTcAl
1070
-26105
1071
-1023410177
1000
$$NoName$$
  0
SPLINE
  5
53B9
330
A
100
AcDbEntity
  8
001
370
     9
100
AcDbSpline
210
0.0
220
0.0
230
1.0
 70
    24
 71
     3
 72
     8
 73
     4
 74
     0
 42
0.0000000001
 43
0.0000000001
 40
1.0
 40
1.0
 40
1.0
 40
1.0
 40
2.0
 40
2.0
 40
2.0
 40
2.0
 10
157.240790318125
 20
-51.73825127758482
 30
0.0
 10
157.240790318125
 20
-51.73825127758482
 30
0.0
 10
157.240790318125
 20
-51.73825954581944
 30
0.0
 10
157.240790318125
 20
-51.73825954581944
 30
0.0
1001
ACAD
1000
RTTcAl
1070
-26105
1071
-1023410177
1000
$$NoName$$
  0
SPLINE
  5
53BA
330
A
100
AcDbEntity
  8
001
370
     9
100
AcDbSpline
210
0.0
220
0.0
230
1.0
 70
    24
 71
     3
 72
     8
 73
     4
 74
     0
 42
0.0000000001
 43
0.0000000001
 40
2.0
 40
2.0
 40
2.0
 40
2.0
 40
3.0
 40
3.0
 40
3.0
 40
3.0
 10
157.240790318125
 20
-51.73825954581944
 30
0.0
 10
157.240790318125
 20
-51.73825954581944
 30
0.0
 10
157.240790318125
 20
-51.73827057013227
 30
0.0
 10
157.240790318125
 20
-51.73827057013227
 30
0.0
1001
ACAD
1000
RTTcAl
1070
-26105
1071
-1023410177
1000
$$NoName$$
  0
SPLINE
  5
53BB
330
A
100
AcDbEntity
  8
001
370
     9
100
AcDbSpline
210
0.0
220
0.0
230
1.0
 70
    24
 71
     3
 72
     8
 73
     4
 74
     0
 42
0.0000000001
 43
0.0000000001
 40
3.0
 40
3.0
 40
3.0
 40
3.0
 40
4.0
 40
4.0
 40
4.0
 40
4.0
 10
157.240790318125
 20
-51.73827057013227
 30
0.0
 10
157.240790318125
 20
-51.73827057013227
 30
0.0
 10
157.2407848059686
 20
-51.73827470424957
 30
0.0
 10
157.2407848059686
 20
-51.73827470424957
 30
0.0
1001
ACAD
1000
RTTcAl
1070
-26105
1071
-1023410177
1000
$$NoName$$
  0
SPLINE
  5
53BC
330
A
100
AcDbEntity
  8
001
370
     9
100
AcDbSpline
210
0.0
220
0.0
230
1.0
 70
    24
 71
     3
 72
     8
 73
     4
 74
     0
 42
0.0000000001
 43
0.0000000001
 40
4.0
 40
4.0
 40
4.0
 40
4.0
 40
5.0
 40
5.0
 40
5.0
 40
5.0
 10
157.2407848059686
 20
-51.73827470424957
 30
0.0
 10
157.2407848059686
 20
-51.73827470424957
 30
0.0
 10
157.2407786047927
 20
-51.73828297248419
 30
0.0
 10
157.2407786047927
 20
-51.73828297248419
 30
0.0
1001
ACAD
1000
RTTcAl
1070
-26105
1071
-1023410177
1000
$$NoName$$
  0
SPLINE
  5
53BD
330
A
100
AcDbEntity
  8
001
370
     9
100
AcDbSpline
210
0.0
220
0.0
230
1.0
 70
    24
 71
     3
 72
     8
 73
     4
 74
     0
 42
0.0000000001
 43
0.0000000001
 40
5.0
 40
5.0
 40
5.0
 40
5.0
 40
6.0
 40
6.0
 40
6.0
 40
6.0
 10
157.2407786047927
 20
-51.73828297248419
 30
0.0
 10
157.2407786047927
 20
-51.73828297248419
 30
0.0
 10
157.2407686140092
 20
-51.73828297248419
 30
0.0
 10
157.2407686140092
 20
-51.73828297248419
 30
0.0
1001
ACAD
1000
RTTcAl
1070
-26105
1071
-1023410177
1000
$$NoName$$
  0
SPLINE
  5
53BE
330
A
100
AcDbEntity
  8
001
370
     9
100
AcDbSpline
210
0.0
220
0.0
230
1.0
 70
    24
 71
     3
 72
     8
 73
     4
 74
     0
 42
0.0000000001
 43
0.0000000001
 40
6.0
 40
6.0
 40
6.0
 40
6.0
 40
7.0
 40
7.0
 40
7.0
 40
7.0
 10
157.2407686140092
 20
-51.73828297248419
 30
0.0
 10
157.2407686140092
 20
-51.73828297248419
 30
0.0
 10
157.2407686140092
 20
-51.73831053326626
 30
0.0
 10
157.2407686140092
 20
-51.73831053326626
 30
0.0
1001
ACAD
1000
RTTcAl
1070
-26105
1071
-1023410177
1000
$$NoName$$
  0
SPLINE
  5
53BF
330
A
100
AcDbEntity
  8
001
370
     9
100
AcDbSpline
210
0.0
220
0.0
230
1.0
 70
    24
 71
     3
 72
     8
 73
     4
 74
     0
 42
0.0000000001
 43
0.0000000001
 40
7.0
 40
7.0
 40
7.0
 40
7.0
 40
8.0
 40
8.0
 40
8.0
 40
8.0
 10
157.2407686140092
 20
-51.73831053326626
 30
0.0
 10
157.2407686140092
 20
-51.73831053326626
 30
0.0
 10
157.2407644798919
 20
-51.73831053326626
 30
0.0
 10
157.2407644798919
 20
-51.73831053326626
 30
0.0
1001
ACAD
1000
RTTcAl
1070
-26105
1071
-1023410177
1000
$$NoName$$
  0
SPLINE
  5
53C0
330
A
100
AcDbEntity
  8
001
370
     9
100
AcDbSpline
210
0.0
220
0.0
230
1.0
 70
    24
 71
     3
 72
     8
 73
     4
 74
     0
 42
0.0000000001
 43
0.0000000001
 40
8.0
 40
8.0
 40
8.0
 40
8.0
 40
9.0
 40
9.0
 40
9.0
 40
9.0
 10
157.2407644798919
 20
-51.73831053326626
 30
0.0
 10
157.2407644798919
 20
-51.73831053326626
 30
0.0
 10
157.2407644798919
 20
-51.73831949052043
 30
0.0
 10
157.2407644798919
 20
-51.73831949052043
 30
0.0
1001
ACAD
1000
RTTcAl
1070
-26105
1071
-1023410177
1000
$$NoName$$
  0
SPLINE
  5
53C1
330
A
100
AcDbEntity
  8
001
370
     9
100
AcDbSpline
210
0.0
220
0.0
230
1.0
 70
     8
 71
     3
 72
     8
 73
     4
 74
     0
 42
0.0000000001
 43
0.0000000001
 40
9.0
 40
9.0
 40
9.0
 40
9.0
 40
10.0
 40
10.0
 40
10.0
 40
10.0
 10
157.2407644798919
 20
-51.73831949052043
 30
0.0
 10
157.2407644798919
 20
-51.73832155757908
 30
0.0
 10
157.240759656755
 20
-51.73833051483325
 30
0.0
 10
157.240759656755
 20
-51.73833051483325
 30
0.0
1001
ACAD
1000
RTTcAl
1070
-26105
1071
-1023410177
1000
$$NoName$$
  0
SPLINE
  5
53C2
330
A
100
AcDbEntity
  8
001
370
     9
100
AcDbSpline
210
0.0
220
0.0
230
1.0
 70
    24
 71
     3
 72
     8
 73
     4
 74
     0
 42
0.0000000001
 43
0.0000000001
 40
10.0
 40
10.0
 40
10.0
 40
10.0
 40
11.0
 40
11.0
 40
11.0
 40
11.0
 10
157.240759656755
 20
-51.73833051483325
 30
0.0
 10
157.240759656755
 20
-51.73833051483325
 30
0.0
 10
157.240759656755
 20
-51.73834085012653
 30
0.0
 10
157.240759656755
 20
-51.73834085012653
 30
0.0
1001
ACAD
1000
RTTcAl
1070
-26105
1071
-1023410177
1000
$$NoName$$
  0
SPLINE
  5
53C3
330
A
100
AcDbEntity
  8
001
370
     9
100
AcDbSpline
210
0.0
220
0.0
230
1.0
 70
    24
 71
     3
 72
     8
 73
     4
 74
     0
 42
0.0000000001
 43
0.0000000001
 40
11.0
 40
11.0
 40
11.0
 40
11.0
 40
12.0
 40
12.0
 40
12.0
 40
12.0
 10
157.240759656755
 20
-51.73834085012653
 30
0.0
 10
157.240759656755
 20
-51.73834085012653
 30
0.0
 10
157.2407534555791
 20
-51.73834705130249
 30
0.0
 10
157.2407534555791
 20
-51.73834705130249
 30
0.0
1001
ACAD
1000
RTTcAl
1070
-26105
1071
-1023410177
1000
$$NoName$$
  0
SPLINE
  5
53C4
330
A
100
AcDbEntity
  8
001
370
     9
100
AcDbSpline
210
0.0
220
0.0
230
1.0
 70
    24
 71
     3
 72
     8
 73
     4
 74
     0
 42
0.0000000001
 43
0.0000000001
 40
12.0
 40
12.0
 40
12.0
 40
12.0
 40
13.0
 40
13.0
 40
13.0
 40
13.0
 10
157.2407534555791
 20
-51.73834705130249
 30
0.0
 10
157.2407534555791
 20
-51.73834705130249
 30
0.0
 10
157.2407534555791
 20
-51.73836427679128
 30
0.0
 10
157.2407534555791
 20
-51.73836427679128
 30
0.0
1001
ACAD
1000
RTTcAl
1070
-26105
1071
-1023410177
1000
$$NoName$$
  0
SPLINE
  5
53C5
330
A
100
AcDbEntity
  8
001
370
     9
100
AcDbSpline
210
0.0
220
0.0
230
1.0
 70
    24
 71
     3
 72
     8
 73
     4
 74
     0
 42
0.0000000001
 43
0.0000000001
 40
13.0
 40
13.0
 40
13.0
 40
13.0
 40
14.0
 40
14.0
 40
14.0
 40
14.0
 10
157.2407534555791
 20
-51.73836427679128
 30
0.0
 10
157.2407534555791
 20
-51.73836427679128
 30
0.0
 10
157.2407493214617
 20
-51.73837116698679
 30
0.0
 10
157.2407493214617
 20
-51.73837116698679
 30
0.0
1001
ACAD
1000
RTTcAl
1070
-26105
1071
-1023410177
1000
$$NoName$$
  0
SPLINE
  5
53C6
330
A
100
AcDbEntity
  8
001
370
     9
100
AcDbSpline
210
0.0
220
0.0
230
1.0
 70
    24
 71
     3
 72
     8
 73
     4
 74
     0
 42
0.0000000001
 43
0.0000000001
 40
14.0
 40
14.0
 40
14.0
 40
14.0
 40
15.0
 40
15.0
 40
15.0
 40
15.0
 10
157.2407493214617
 20
-51.73837116698679
 30
0.0
 10
157.2407493214617
 20
-51.73837116698679
 30
0.0
 10
157.2407493214617
 20
-51.73838081326052
 30
0.0
 10
157.2407493214617
 20
-51.73838081326052
 30
0.0
1001
ACAD
1000
RTTcAl
1070
-26105
1071
-1023410177
1000
$$NoName$$
  0
SPLINE
  5
53C7
330
A
100
AcDbEntity
  8
001
370
     9
100
AcDbSpline
210
0.0
220
0.0
230
1.0
 70
    24
 71
     3
 72
     8
 73
     4
 74
     0
 42
0.0000000001
 43
0.0000000001
 40
15.0
 40
15.0
 40
15.0
 40
15.0
 40
16.0
 40
16.0
 40
16.0
 40
16.0
 10
157.2407493214617
 20
-51.73838081326052
 30
0.0
 10
157.2407493214617
 20
-51.73838081326052
 30
0.0
 10
157.2407379526391
 20
-51.73838770345604
 30
0.0
 10
157.2407379526391
 20
-51.73838770345604
 30
0.0
1001
ACAD
1000
RTTcAl
1070
-26105
1071
-1023410177
1000
$$NoName$$
  0
SPLINE
  5
53C8
330
A
100
AcDbEntity
  8
001
370
     9
100
AcDbSpline
210
0.0
220
0.0
230
1.0
 70
    24
 71
     3
 72
     8
 73
     4
 74
     0
 42
0.0000000001
 43
0.0000000001
 40
16.0
 40
16.0
 40
16.0
 40
16.0
 40
17.0
 40
17.0
 40
17.0
 40
17.0
 10
157.2407379526391
 20
-51.73838770345604
 30
0.0
 10
157.2407379526391
 20
-51.73838770345604
 30
0.0
 10
157.2407348520511
 20
-51.73840217286662
 30
0.0
 10
157.2407348520511
 20
-51.73840217286662
 30
0.0
1001
ACAD
1000
RTTcAl
1070
-26105
1071
-1023410177
1000
$$NoName$$
  0
SPLINE
  5
53C9
330
A
100
AcDbEntity
  8
001
370
     9
100
AcDbSpline
210
0.0
220
0.0
230
1.0
 70
     8
 71
     3
 72
     8
 73
     4
 74
     0
 42
0.0000000001
 43
0.0000000001
 40
17.0
 40
17.0
 40
17.0
 40
17.0
 40
18.0
 40
18.0
 40
18.0
 40
18.0
 10
157.2407348520511
 20
-51.73840217286662
 30
0.0
 10
157.2407348520511
 20
-51.73840423992527
 30
0.0
 10
157.2407276173459
 20
-51.73841044110123
 30
0.0
 10
157.2407276173459
 20
-51.73841044110123
 30
0.0
1001
ACAD
1000
RTTcAl
1070
-26105
1071
-1023410177
1000
$$NoName$$
  0
SPLINE
  5
53CA
330
A
100
AcDbEntity
  8
001
370
     9
100
AcDbSpline
210
0.0
220
0.0
230
1.0
 70
    24
 71
     3
 72
     8
 73
     4
 74
     0
 42
0.0000000001
 43
0.0000000001
 40
18.0
 40
18.0
 40
18.0
 40
18.0
 40
19.0
 40
19.0
 40
19.0
 40
19.0
 10
157.2407276173459
 20
-51.73841044110123
 30
0.0
 10
157.2407276173459
 20
-51.73841044110123
 30
0.0
 10
157.2407276173459
 20
-51.73842973364868
 30
0.0
 10
157.2407276173459
 20
-51.73842973364868
 30
0.0
1001
ACAD
1000
RTTcAl
1070
-26105
1071
-1023410177
1000
$$NoName$$
  0
SPLINE
  5
53CB
330
A
100
AcDbEntity
  8
001
370
     9
100
AcDbSpline
210
0.0
220
0.0
230
1.0
 70
    24
 71
     3
 72
     8
 73
     4
 74
     0
 42
0.0000000001
 43
0.0000000001
 40
0.0
 40
0.0
 40
0.0
 40
0.0
 40
1.0
 40
1.0
 40
1.0
 40
1.0
 10
157.2544439295594
 20
-51.73842973364868
 30
0.0
 10
157.2544439295594
 20
-51.73842973364868
 30
0.0
 10
157.254441517991
 20
-51.73842491051182
 30
0.0
 10
157.254441517991
 20
-51.73842491051182
 30
0.0
1001
ACAD
1000
RTTcAl
1070
-26105
1071
-1023410177
1000
$$NoName$$
  0
SPLINE
  5
53CC
330
A
100
AcDbEntity
  8
001
370
     9
100
AcDbSpline
210
0.0
220
0.0
230
1.0
 70
    24
 71
     3
 72
     8
 73
     4
 74
     0
 42
0.0000000001
 43
0.0000000001
 40
1.0
 40
1.0
 40
1.0
 40
1.0
 40
2.0
 40
2.0
 40
2.0
 40
2.0
 10
157.254441517991
 20
-51.73842491051182
 30
0.0
 10
157.254441517991
 20
-51.73842491051182
 30
0.0
 10
157.254441517991
 20
-51.73841044110123
 30
0.0
 10
157.254441517991
 20
-51.73841044110123
 30
0.0
1001
ACAD
1000
RTTcAl
1070
-26105
1071
-1023410177
1000
$$NoName$$
  0
SPLINE
  5
53CD
330
A
100
AcDbEntity
  8
001
370
     9
100
AcDbSpline
210
0.0
220
0.0
230
1.0
 70
    24
 71
     3
 72
     8
 73
     4
 74
     0
 42
0.0000000001
 43
0.0000000001
 40
2.0
 40
2.0
 40
2.0
 40
2.0
 40
3.0
 40
3.0
 40
3.0
 40
3.0
 10
157.254441517991
 20
-51.73841044110123
 30
0.0
 10
157.254441517991
 20
-51.73841044110123
 30
0.0
 10
157.2544287711293
 20
-51.73840423992527
 30
0.0
 10
157.2544287711293
 20
-51.73840423992527
 30
0.0
1001
ACAD
1000
RTTcAl
1070
-26105
1071
-1023410177
1000
$$NoName$$
  0
SPLINE
  5
53CE
330
A
100
AcDbEntity
  8
001
370
     9
100
AcDbSpline
210
0.0
220
0.0
230
1.0
 70
     8
 71
     3
 72
     8
 73
     4
 74
     0
 42
0.0000000001
 43
0.0000000001
 40
3.0
 40
3.0
 40
3.0
 40
3.0
 40
4.0
 40
4.0
 40
4.0
 40
4.0
 10
157.2544287711293
 20
-51.73840423992527
 30
0.0
 10
157.2544287711293
 20
-51.73840217286662
 30
0.0
 10
157.2544256705413
 20
-51.73838770345604
 30
0.0
 10
157.2544256705413
 20
-51.73838770345604
 30
0.0
1001
ACAD
1000
RTTcAl
1070
-26105
1071
-1023410177
1000
$$NoName$$
  0
SPLINE
  5
53CF
330
A
100
AcDbEntity
  8
001
370
     9
100
AcDbSpline
210
0.0
220
0.0
230
1.0
 70
    24
 71
     3
 72
     8
 73
     4
 74
     0
 42
0.0000000001
 43
0.0000000001
 40
4.0
 40
4.0
 40
4.0
 40
4.0
 40
5.0
 40
5.0
 40
5.0
 40
5.0
 10
157.2544256705413
 20
-51.73838770345604
 30
0.0
 10
157.2544256705413
 20
-51.73838770345604
 30
0.0
 10
157.2544256705413
 20
-51.73837116698679
 30
0.0
 10
157.2544256705413
 20
-51.73837116698679
 30
0.0
1001
ACAD
1000
RTTcAl
1070
-26105
1071
-1023410177
1000
$$NoName$$
  0
SPLINE
  5
53D0
330
A
100
AcDbEntity
  8
001
370
     9
100
AcDbSpline
210
0.0
220
0.0
230
1.0
 70
    24
 71
     3
 72
     8
 73
     4
 74
     0
 42
0.0000000001
 43
0.0000000001
 40
5.0
 40
5.0
 40
5.0
 40
5.0
 40
6.0
 40
6.0
 40
6.0
 40
6.0
 10
157.2544256705413
 20
-51.73837116698679
 30
0.0
 10
157.2544256705413
 20
-51.73837116698679
 30
0.0
 10
157.2544256705413
 20
-51.73836427679128
 30
0.0
 10
157.2544256705413
 20
-51.73836427679128
 30
0.0
1001
ACAD
1000
RTTcAl
1070
-26105
1071
-1023410177
1000
$$NoName$$
  0
SPLINE
  5
53D1
330
A
100
AcDbEntity
  8
001
370
     9
100
AcDbSpline
210
0.0
220
0.0
230
1.0
 70
    24
 71
     3
 72
     8
 73
     4
 74
     0
 42
0.0000000001
 43
0.0000000001
 40
6.0
 40
6.0
 40
6.0
 40
6.0
 40
7.0
 40
7.0
 40
7.0
 40
7.0
 10
157.2544256705413
 20
-51.73836427679128
 30
0.0
 10
157.2544256705413
 20
-51.73836427679128
 30
0.0
 10
157.2544256705413
 20
-51.73835669757622
 30
0.0
 10
157.2544256705413
 20
-51.73835669757622
 30
0.0
1001
ACAD
1000
RTTcAl
1070
-26105
1071
-1023410177
1000
$$NoName$$
  0
SPLINE
  5
53D2
330
A
100
AcDbEntity
  8
001
370
     9
100
AcDbSpline
210
0.0
220
0.0
230
1.0
 70
    24
 71
     3
 72
     8
 73
     4
 74
     0
 42
0.0000000001
 43
0.0000000001
 40
7.0
 40
7.0
 40
7.0
 40
7.0
 40
8.0
 40
8.0
 40
8.0
 40
8.0
 10
157.2544256705413
 20
-51.73835669757622
 30
0.0
 10
157.2544256705413
 20
-51.73835669757622
 30
0.0
 10
157.2544211919142
 20
-51.73834705130249
 30
0.0
 10
157.2544211919142
 20
-51.73834705130249
 30
0.0
1001
ACAD
1000
RTTcAl
1070
-26105
1071
-1023410177
1000
$$NoName$$
  0
SPLINE
  5
53D3
330
A
100
AcDbEntity
  8
001
370
     9
100
AcDbSpline
210
0.0
220
0.0
230
1.0
 70
    24
 71
     3
 72
     8
 73
     4
 74
     0
 42
0.0000000001
 43
0.0000000001
 40
8.0
 40
8.0
 40
8.0
 40
8.0
 40
9.0
 40
9.0
 40
9.0
 40
9.0
 10
157.2544211919142
 20
-51.73834705130249
 30
0.0
 10
157.2544211919142
 20
-51.73834705130249
 30
0.0
 10
157.2544132681894
 20
-51.73834705130249
 30
0.0
 10
157.2544132681894
 20
-51.73834705130249
 30
0.0
1001
ACAD
1000
RTTcAl
1070
-26105
1071
-1023410177
1000
$$NoName$$
  0
SPLINE
  5
53D4
330
A
100
AcDbEntity
  8
001
370
     9
100
AcDbSpline
210
0.0
220
0.0
230
1.0
 70
    24
 71
     3
 72
     8
 73
     4
 74
     0
 42
0.0000000001
 43
0.0000000001
 40
9.0
 40
9.0
 40
9.0
 40
9.0
 40
10.0
 40
10.0
 40
10.0
 40
10.0
 10
157.2544132681894
 20
-51.73834705130249
 30
0.0
 10
157.2544132681894
 20
-51.73834705130249
 30
0.0
 10
157.2544132681894
 20
-51.73832155757908
 30
0.0
 10
157.2544132681894
 20
-51.73832155757908
 30
0.0
1001
ACAD
1000
RTTcAl
1070
-26105
1071
-1023410177
1000
$$NoName$$
  0
SPLINE
  5
53D5
330
A
100
AcDbEntity
  8
001
370
     9
100
AcDbSpline
210
0.0
220
0.0
230
1.0
 70
    24
 71
     3
 72
     8
 73
     4
 74
     0
 42
0.0000000001
 43
0.0000000001
 40
10.0
 40
10.0
 40
10.0
 40
10.0
 40
11.0
 40
11.0
 40
11.0
 40
11.0
 10
157.2544132681894
 20
-51.73832155757908
 30
0.0
 10
157.2544132681894
 20
-51.73832155757908
 30
0.0
 10
157.2544053444645
 20
-51.73831949052043
 30
0.0
 10
157.2544053444645
 20
-51.73831949052043
 30
0.0
1001
ACAD
1000
RTTcAl
1070
-26105
1071
-1023410177
1000
$$NoName$$
  0
SPLINE
  5
53D6
330
A
100
AcDbEntity
  8
001
370
     9
100
AcDbSpline
210
0.0
220
0.0
230
1.0
 70
    24
 71
     3
 72
     8
 73
     4
 74
     0
 42
0.0000000001
 43
0.0000000001
 40
11.0
 40
11.0
 40
11.0
 40
11.0
 40
12.0
 40
12.0
 40
12.0
 40
12.0
 10
157.2544053444645
 20
-51.73831949052043
 30
0.0
 10
157.2544053444645
 20
-51.73831949052043
 30
0.0
 10
157.2544053444645
 20
-51.73831053326626
 30
0.0
 10
157.2544053444645
 20
-51.73831053326626
 30
0.0
1001
ACAD
1000
RTTcAl
1070
-26105
1071
-1023410177
1000
$$NoName$$
  0
SPLINE
  5
53D7
330
A
100
AcDbEntity
  8
001
370
     9
100
AcDbSpline
210
0.0
220
0.0
230
1.0
 70
    24
 71
     3
 72
     8
 73
     4
 74
     0
 42
0.0000000001
 43
0.0000000001
 40
12.0
 40
12.0
 40
12.0
 40
12.0
 40
13.0
 40
13.0
 40
13.0
 40
13.0
 10
157.2544053444645
 20
-51.73831053326626
 30
0.0
 10
157.2544053444645
 20
-51.73831053326626
 30
0.0
 10
157.2543998323081
 20
-51.73831053326626
 30
0.0
 10
157.2543998323081
 20
-51.73831053326626
 30
0.0
1001
ACAD
1000
RTTcAl
1070
-26105
1071
-1023410177
1000
$$NoName$$
  0
SPLINE
  5
53D8
330
A
100
AcDbEntity
  8
001
370
     9
100
AcDbSpline
210
0.0
220
0.0
230
1.0
 70
    24
 71
     3
 72
     8
 73
     4
 74
     0
 42
0.0000000001
 43
0.0000000001
 40
13.0
 40
13.0
 40
13.0
 40
13.0
 40
14.0
 40
14.0
 40
14.0
 40
14.0
 10
157.2543998323081
 20
-51.73831053326626
 30
0.0
 10
157.2543998323081
 20
-51.73831053326626
 30
0.0
 10
157.2543998323081
 20
-51.73829744189478
 30
0.0
 10
157.2543998323081
 20
-51.73829744189478
 30
0.0
1001
ACAD
1000
RTTcAl
1070
-26105
1071
-1023410177
1000
$$NoName$$
  0
SPLINE
  5
53D9
330
A
100
AcDbEntity
  8
001
370
     9
100
AcDbSpline
210
0.0
220
0.0
230
1.0
 70
    24
 71
     3
 72
     8
 73
     4
 74
     0
 42
0.0000000001
 43
0.0000000001
 40
14.0
 40
14.0
 40
14.0
 40
14.0
 40
15.0
 40
15.0
 40
15.0
 40
15.0
 10
157.2543998323081
 20
-51.73829744189478
 30
0.0
 10
157.2543998323081
 20
-51.73829744189478
 30
0.0
 10
157.2543963872103
 20
-51.73828297248419
 30
0.0
 10
157.2543963872103
 20
-51.73828297248419
 30
0.0
1001
ACAD
1000
RTTcAl
1070
-26105
1071
-1023410177
1000
$$NoName$$
  0
SPLINE
  5
53DA
330
A
100
AcDbEntity
  8
001
370
     9
100
AcDbSpline
210
0.0
220
0.0
230
1.0
 70
    24
 71
     3
 72
     8
 73
     4
 74
     0
 42
0.0000000001
 43
0.0000000001
 40
15.0
 40
15.0
 40
15.0
 40
15.0
 40
16.0
 40
16.0
 40
16.0
 40
16.0
 10
157.2543963872103
 20
-51.73828297248419
 30
0.0
 10
157.2543963872103
 20
-51.73828297248419
 30
0.0
 10
157.2543874299562
 20
-51.73827677130823
 30
0.0
 10
157.2543874299562
 20
-51.73827677130823
 30
0.0
1001
ACAD
1000
RTTcAl
1070
-26105
1071
-1023410177
1000
$$NoName$$
  0
SPLINE
  5
53DB
330
A
100
AcDbEntity
  8
001
370
     9
100
AcDbSpline
210
0.0
220
0.0
230
1.0
 70
    24
 71
     3
 72
     8
 73
     4
 74
     0
 42
0.0000000001
 43
0.0000000001
 40
16.0
 40
16.0
 40
16.0
 40
16.0
 40
17.0
 40
17.0
 40
17.0
 40
17.0
 10
157.2543874299562
 20
-51.73827677130823
 30
0.0
 10
157.2543874299562
 20
-51.73827677130823
 30
0.0
 10
157.2543874299562
 20
-51.73827057013227
 30
0.0
 10
157.2543874299562
 20
-51.73827057013227
 30
0.0
1001
ACAD
1000
RTTcAl
1070
-26105
1071
-1023410177
1000
$$NoName$$
  0
SPLINE
  5
53DC
330
A
100
AcDbEntity
  8
001
370
     9
100
AcDbSpline
210
0.0
220
0.0
230
1.0
 70
    24
 71
     3
 72
     8
 73
     4
 74
     0
 42
0.0000000001
 43
0.0000000001
 40
17.0
 40
17.0
 40
17.0
 40
17.0
 40
18.0
 40
18.0
 40
18.0
 40
18.0
 10
157.2543874299562
 20
-51.73827057013227
 30
0.0
 10
157.2543874299562
 20
-51.73827057013227
 30
0.0
 10
157.2543812287802
 20
-51.73825954581944
 30
0.0
 10
157.2543812287802
 20
-51.73825954581944
 30
0.0
1001
ACAD
1000
RTTcAl
1070
-26105
1071
-1023410177
1000
$$NoName$$
  0
SPLINE
  5
53DD
330
A
100
AcDbEntity
  8
001
370
     9
100
AcDbSpline
210
0.0
220
0.0
230
1.0
 70
    24
 71
     3
 72
     8
 73
     4
 74
     0
 42
0.0000000001
 43
0.0000000001
 40
18.0
 40
18.0
 40
18.0
 40
18.0
 40
19.0
 40
19.0
 40
19.0
 40
19.0
 10
157.2543812287802
 20
-51.73825954581944
 30
0.0
 10
157.2543812287802
 20
-51.73825954581944
 30
0.0
 10
157.2543801952509
 20
-51.73825127758482
 30
0.0
 10
157.2543801952509
 20
-51.73825127758482
 30
0.0
1001
ACAD
1000
RTTcAl
1070
-26105
1071
-1023410177
1000
$$NoName$$
  0
SPLINE
  5
53DE
330
A
100
AcDbEntity
  8
001
370
     9
100
AcDbSpline
210
0.0
220
0.0
230
1.0
 70
    24
 71
     3
 72
     8
 73
     4
 74
     0
 42
0.0000000001
 43
0.0000000001
 40
19.0
 40
19.0
 40
19.0
 40
19.0
 40
20.0
 40
20.0
 40
20.0
 40
20.0
 10
157.2543801952509
 20
-51.73825127758482
 30
0.0
 10
157.2543801952509
 20
-51.73825127758482
 30
0.0
 10
157.2543801952509
 20
-51.73824645444796
 30
0.0
 10
157.2543801952509
 20
-51.73824645444796
 30
0.0
1001
ACAD
1000
RTTcAl
1070
-26105
1071
-1023410177
1000
$$NoName$$
  0
LINE
  5
53DF
330
A
100
AcDbEntity
  8
001
370
     9
100
AcDbLine
 10
157.3288852574036
 20
-51.81274738248339
 30
0.0
 11
157.3288649313269
 21
-51.81273360209235
 31
0.0
1001
ACAD
1000
RTTcAl
1070
-26105
1071
-1023410177
1000
$$NoName$$
  0
LINE
  5
53E0
330
A
100
AcDbEntity
  8
001
370
     9
100
AcDbLine
 10
157.3288649313269
 20
-51.81273360209235
 30
0.0
 11
157.3288594191704
 21
-51.81273360209235
 31
0.0
1001
ACAD
1000
RTTcAl
1070
-26105
1071
-1023410177
1000
$$NoName$$
  0
LINE
  5
53E1
330
A
100
AcDbEntity
  8
001
370
     9
100
AcDbLine
 10
157.3288594191704
 20
-51.81273360209235
 30
0.0
 11
157.3288452942696
 21
-51.8127315350337
 31
0.0
1001
ACAD
1000
RTTcAl
1070
-26105
1071
-1023410177
1000
$$NoName$$
  0
LINE
  5
53E2
330
A
100
AcDbEntity
  8
001
370
     9
100
AcDbLine
 10
157.3288452942696
 20
-51.8127315350337
 30
0.0
 11
157.3288387485839
 21
-51.8127315350337
 31
0.0
1001
ACAD
1000
RTTcAl
1070
-26105
1071
-1023410177
1000
$$NoName$$
  0
LINE
  5
53E3
330
A
100
AcDbEntity
  8
001
370
     9
100
AcDbLine
 10
157.3288387485839
 20
-51.8127315350337
 30
0.0
 11
157.3288249681928
 21
-51.81272051072088
 31
0.0
1001
ACAD
1000
RTTcAl
1070
-26105
1071
-1023410177
1000
$$NoName$$
  0
LINE
  5
53E4
330
A
100
AcDbEntity
  8
001
370
     9
100
AcDbLine
 10
157.3288249681928
 20
-51.81272051072088
 30
0.0
 11
157.3288104987823
 21
-51.81272051072088
 31
0.0
1001
ACAD
1000
RTTcAl
1070
-26105
1071
-1023410177
1000
$$NoName$$
  0
LINE
  5
53E5
330
A
100
AcDbEntity
  8
001
370
     9
100
AcDbLine
 10
157.3288104987823
 20
-51.81272051072088
 30
0.0
 11
157.3287984409401
 21
-51.81271155346671
 31
0.0
1001
ACAD
1000
RTTcAl
1070
-26105
1071
-1023410177
1000
$$NoName$$
  0
LINE
  5
53E6
330
A
100
AcDbEntity
  8
001
370
     9
100
AcDbLine
 10
157.3287984409401
 20
-51.81271155346671
 30
0.0
 11
157.328790861725
 21
-51.81271155346671
 31
0.0
1001
ACAD
1000
RTTcAl
1070
-26105
1071
-1023410177
1000
$$NoName$$
  0
LINE
  5
53E7
330
A
100
AcDbEntity
  8
001
370
     9
100
AcDbLine
 10
157.328790861725
 20
-51.81271155346671
 30
0.0
 11
157.328777081334
 21
-51.81270121817344
 31
0.0
1001
ACAD
1000
RTTcAl
1070
-26105
1071
-1023410177
1000
$$NoName$$
  0
LINE
  5
53E8
330
A
100
AcDbEntity
  8
001
370
     9
100
AcDbLine
 10
157.328777081334
 20
-51.81270121817344
 30
0.0
 11
157.3287460754542
 21
-51.81270121817344
 31
0.0
1001
ACAD
1000
RTTcAl
1070
-26105
1071
-1023410177
1000
$$NoName$$
  0
LINE
  5
53E9
330
A
100
AcDbEntity
  8
001
370
     9
100
AcDbLine
 10
157.3287460754542
 20
-51.81270121817344
 30
0.0
 11
157.3287384962391
 21
-51.81269432797791
 31
0.0
1001
ACAD
1000
RTTcAl
1070
-26105
1071
-1023410177
1000
$$NoName$$
  0
LINE
  5
53EA
330
A
100
AcDbEntity
  8
001
370
     9
100
AcDbLine
 10
157.3287384962391
 20
-51.81269432797791
 30
0.0
 11
157.3287236823188
 21
-51.81268537072375
 31
0.0
1001
ACAD
1000
RTTcAl
1070
-26105
1071
-1023410177
1000
$$NoName$$
  0
LINE
  5
53EB
330
A
100
AcDbEntity
  8
001
370
     9
100
AcDbLine
 10
157.3287236823188
 20
-51.81268537072375
 30
0.0
 11
157.328712658006
 21
-51.81268537072375
 31
0.0
1001
ACAD
1000
RTTcAl
1070
-26105
1071
-1023410177
1000
$$NoName$$
  0
LINE
  5
53EC
330
A
100
AcDbEntity
  8
001
370
     9
100
AcDbLine
 10
157.328712658006
 20
-51.81268537072375
 30
0.0
 11
157.3287043897713
 21
-51.81267572445002
 31
0.0
1001
ACAD
1000
RTTcAl
1070
-26105
1071
-1023410177
1000
$$NoName$$
  0
LINE
  5
53ED
330
A
100
AcDbEntity
  8
001
370
     9
100
AcDbLine
 10
157.3287043897713
 20
-51.81267572445002
 30
0.0
 11
157.3286985331051
 21
-51.81267572445002
 31
0.0
1001
ACAD
1000
RTTcAl
1070
-26105
1071
-1023410177
1000
$$NoName$$
  0
LINE
  5
53EE
330
A
100
AcDbEntity
  8
001
370
     9
100
AcDbLine
 10
157.3286985331051
 20
-51.82638445744849
 30
0.0
 11
157.3287043897713
 21
-51.82638445744849
 31
0.0
1001
ACAD
1000
RTTcAl
1070
-26105
1071
-1023410177
1000
$$NoName$$
  0
LINE
  5
53EF
330
A
100
AcDbEntity
  8
001
370
     9
100
AcDbLine
 10
157.3287043897713
 20
-51.82638445744849
 30
0.0
 11
157.3287123134962
 21
-51.82637205509657
 31
0.0
1001
ACAD
1000
RTTcAl
1070
-26105
1071
-1023410177
1000
$$NoName$$
  0
LINE
  5
53F0
330
A
100
AcDbEntity
  8
001
370
     9
100
AcDbLine
 10
157.3287123134962
 20
-51.82637205509657
 30
0.0
 11
157.3287384962391
 21
-51.82637205509657
 31
0.0
1001
ACAD
1000
RTTcAl
1070
-26105
1071
-1023410177
1000
$$NoName$$
  0
LINE
  5
53F1
330
A
100
AcDbEntity
  8
001
370
     9
100
AcDbLine
 10
157.3287384962391
 20
-51.82637205509657
 30
0.0
 11
157.3287460754542
 21
-51.82636378686195
 31
0.0
1001
ACAD
1000
RTTcAl
1070
-26105
1071
-1023410177
1000
$$NoName$$
  0
LINE
  5
53F2
330
A
100
AcDbEntity
  8
001
370
     9
100
AcDbLine
 10
157.3287460754542
 20
-51.82636378686195
 30
0.0
 11
157.3287670905505
 21
-51.82636378686195
 31
0.0
1001
ACAD
1000
RTTcAl
1070
-26105
1071
-1023410177
1000
$$NoName$$
  0
LINE
  5
53F3
330
A
100
AcDbEntity
  8
001
370
     9
100
AcDbLine
 10
157.3287670905505
 20
-51.82636378686195
 30
0.0
 11
157.328777081334
 21
-51.82636103078374
 31
0.0
1001
ACAD
1000
RTTcAl
1070
-26105
1071
-1023410177
1000
$$NoName$$
  0
LINE
  5
53F4
330
A
100
AcDbEntity
  8
001
370
     9
100
AcDbLine
 10
157.328777081334
 20
-51.82636103078374
 30
0.0
 11
157.3287929287837
 21
-51.82636103078374
 31
0.0
1001
ACAD
1000
RTTcAl
1070
-26105
1071
-1023410177
1000
$$NoName$$
  0
LINE
  5
53F5
330
A
100
AcDbEntity
  8
001
370
     9
100
AcDbLine
 10
157.3287929287837
 20
-51.82636103078374
 30
0.0
 11
157.3287984409401
 21
-51.82635000647092
 31
0.0
1001
ACAD
1000
RTTcAl
1070
-26105
1071
-1023410177
1000
$$NoName$$
  0
LINE
  5
53F6
330
A
100
AcDbEntity
  8
001
370
     9
100
AcDbLine
 10
157.3287984409401
 20
-51.82635000647092
 30
0.0
 11
157.3288104987823
 21
-51.82635000647092
 31
0.0
1001
ACAD
1000
RTTcAl
1070
-26105
1071
-1023410177
1000
$$NoName$$
  0
LINE
  5
53F7
330
A
100
AcDbEntity
  8
001
370
     9
100
AcDbLine
 10
157.3288104987823
 20
-51.82635000647092
 30
0.0
 11
157.3288249681928
 21
-51.82634104921675
 31
0.0
1001
ACAD
1000
RTTcAl
1070
-26105
1071
-1023410177
1000
$$NoName$$
  0
LINE
  5
53F8
330
A
100
AcDbEntity
  8
001
370
     9
100
AcDbLine
 10
157.3288249681928
 20
-51.82634104921675
 30
0.0
 11
157.3288387485839
 21
-51.82634104921675
 31
0.0
1001
ACAD
1000
RTTcAl
1070
-26105
1071
-1023410177
1000
$$NoName$$
  0
LINE
  5
53F9
330
A
100
AcDbEntity
  8
001
370
     9
100
AcDbLine
 10
157.3288387485839
 20
-51.82634104921675
 30
0.0
 11
157.3288387485839
 21
-51.82633622607989
 31
0.0
1001
ACAD
1000
RTTcAl
1070
-26105
1071
-1023410177
1000
$$NoName$$
  0
LINE
  5
53FA
330
A
100
AcDbEntity
  8
001
370
     9
100
AcDbLine
 10
157.3288387485839
 20
-51.82633622607989
 30
0.0
 11
157.3288452942696
 21
-51.82633622607989
 31
0.0
1001
ACAD
1000
RTTcAl
1070
-26105
1071
-1023410177
1000
$$NoName$$
  0
LINE
  5
53FB
330
A
100
AcDbEntity
  8
001
370
     9
100
AcDbLine
 10
157.3288452942696
 20
-51.82633622607989
 30
0.0
 11
157.3288594191704
 21
-51.82632520176706
 31
0.0
1001
ACAD
1000
RTTcAl
1070
-26105
1071
-1023410177
1000
$$NoName$$
  0
LINE
  5
53FC
330
A
100
AcDbEntity
  8
001
370
     9
100
AcDbLine
 10
157.3288594191704
 20
-51.82632520176706
 30
0.0
 11
157.3288852574036
 21
-51.82632520176706
 31
0.0
1001
ACAD
1000
RTTcAl
1070
-26105
1071
-1023410177
1000
$$NoName$$
  0
SPLINE
  5
53FD
330
A
100
AcDbEntity
  8
001
370
     9
100
AcDbSpline
210
0.0
220
0.0
230
1.0
 70
     8
 71
     3
 72
     8
 73
     4
 74
     0
 42
0.0000000001
 43
0.0000000001
 40
0.0
 40
0.0
 40
0.0
 40
0.0
 40
1.0
 40
1.0
 40
1.0
 40
1.0
 10
157.1662890455798
 20
-51.82633209196257
 30
0.0
 10
157.1659104293362
 20
-51.82181487978233
 30
0.0
 10
157.1659104293362
 20
-51.81727217387869
 30
0.0
 10
157.1662890455798
 20
-51.81274738248339
 30
0.0
1001
ACAD
1000
RTTcAl
1070
-26105
1071
-1023410177
1000
$$NoName$$
  0
SPLINE
  5
53FE
330
A
100
AcDbEntity
  8
001
370
     9
100
AcDbSpline
210
0.0
220
0.0
230
1.0
 70
    24
 71
     3
 72
     8
 73
     4
 74
     0
 42
0.0000000001
 43
0.0000000001
 40
1.0
 40
1.0
 40
1.0
 40
1.0
 40
2.0
 40
2.0
 40
2.0
 40
2.0
 10
157.1662890455798
 20
-51.81274738248339
 30
0.0
 10
157.1662890455798
 20
-51.81274738248339
 30
0.0
 10
157.1692035982831
 20
-51.81268261464554
 30
0.0
 10
157.1692035982831
 20
-51.81268261464554
 30
0.0
1001
ACAD
1000
RTTcAl
1070
-26105
1071
-1023410177
1000
$$NoName$$
  0
SPLINE
  5
53FF
330
A
100
AcDbEntity
  8
001
370
     9
100
AcDbSpline
210
0.0
220
0.0
230
1.0
 70
     8
 71
     3
 72
     8
 73
     4
 74
     0
 42
0.0000000001
 43
0.0000000001
 40
2.0
 40
2.0
 40
2.0
 40
2.0
 40
3.0
 40
3.0
 40
3.0
 40
3.0
 10
157.1692035982831
 20
-51.81268261464554
 30
0.0
 10
157.1725305291879
 20
-51.77465218049542
 30
0.0
 10
157.202693738098
 20
-51.74448208138986
 30
0.0
 10
157.2407276173459
 20
-51.74115756205344
 30
0.0
1001
ACAD
1000
RTTcAl
1070
-26105
1071
-1023410177
1000
$$NoName$$
  0
LINE
  5
5400
330
A
100
AcDbEntity
  8
001
370
     9
100
AcDbLine
 10
157.3148333926685
 20
-52.05258679879865
 30
0.0
 11
157.3148333926685
 21
-51.9670195277451
 31
0.0
1001
ACAD
1000
RTTcAl
1070
-26105
1071
-1023410177
1000
$$NoName$$
  0
LINE
  5
5401
330
A
100
AcDbEntity
  8
001
370
     9
100
AcDbLine
 10
157.3355808048962
 20
-52.10482688316125
 30
0.0
 11
157.3355808048962
 21
-52.17350392782557
 31
0.0
1001
ACAD
1000
RTTcAl
1070
-26105
1071
-1023410177
1000
$$NoName$$
  0
LINE
  5
5402
330
A
100
AcDbEntity
  8
001
370
     9
100
AcDbLine
 10
157.3355808048962
 20
-52.10482688316125
 30
0.0
 11
157.3355808048962
 21
-52.17350392782557
 31
0.0
1001
ACAD
1000
RTTcAl
1070
-26105
1071
-1023410177
1000
$$NoName$$
  0
LINE
  5
5403
330
A
100
AcDbEntity
  8
001
370
     9
100
AcDbLine
 10
157.520897542908
 20
-51.98478314080469
 30
0.0
 11
157.6200591697144
 21
-51.98478314080469
 31
0.0
1001
ACAD
1000
RTTcAl
1070
-26105
1071
-1023410177
1000
$$NoName$$
  0
LINE
  5
5404
330
A
100
AcDbEntity
  8
001
370
     9
100
AcDbLine
 10
157.5317378875132
 20
-52.05096863638174
 30
0.0
 11
157.5070213781585
 21
-52.05096863638174
 31
0.0
1001
ACAD
1000
RTTcAl
1070
-26105
1071
-1023410177
1000
$$NoName$$
  0
LINE
  5
5405
330
A
100
AcDbEntity
  8
001
370
     9
100
AcDbLine
 10
157.5223031427932
 20
-52.05096863638174
 30
0.0
 11
157.5317378875132
 21
-52.05096863638174
 31
0.0
1001
ACAD
1000
RTTcAl
1070
-26105
1071
-1023410177
1000
$$NoName$$
  0
LINE
  5
5406
330
A
100
AcDbEntity
  8
001
370
     9
100
AcDbLine
 10
157.5223031427932
 20
-52.05096863638174
 30
0.0
 11
157.5317378875132
 21
-52.05096863638174
 31
0.0
1001
ACAD
1000
RTTcAl
1070
-26105
1071
-1023410177
1000
$$NoName$$
  0
LINE
  5
5407
330
A
100
AcDbEntity
  8
001
370
     9
100
AcDbLine
 10
157.5065190829054
 20
-52.05096863638174
 30
0.0
 11
157.5188029234711
 21
-52.05096863638174
 31
0.0
1001
ACAD
1000
RTTcAl
1070
-26105
1071
-1023410177
1000
$$NoName$$
  0
LINE
  5
5408
330
A
100
AcDbEntity
  8
001
370
     9
100
AcDbLine
 10
157.5303205742955
 20
-52.05096863638174
 30
0.0
 11
157.5180263984365
 21
-52.05096863638174
 31
0.0
1001
ACAD
1000
RTTcAl
1070
-26105
1071
-1023410177
1000
$$NoName$$
  0
LINE
  5
5409
330
A
100
AcDbEntity
  8
001
370
     9
100
AcDbLine
 10
157.51842051762
 20
-52.0398399370942
 30
0.0
 11
157.5067753981786
 21
-52.0398399370942
 31
0.0
1001
ACAD
1000
RTTcAl
1070
-26105
1071
-1023410177
1000
$$NoName$$
  0
LINE
  5
540A
330
A
100
AcDbEntity
  8
001
370
     9
100
AcDbLine
 10
157.5304514880103
 20
-52.0398399370942
 30
0.0
 11
157.5301869045025
 21
-52.0395808657428
 31
0.0
1001
ACAD
1000
RTTcAl
1070
-26105
1071
-1023410177
1000
$$NoName$$
  0
LINE
  5
540B
330
A
100
AcDbEntity
  8
001
370
     9
100
AcDbLine
 10
157.51842051762
 20
-52.0398399370942
 30
0.0
 11
157.5304563111472
 21
-52.0398399370942
 31
0.0
1001
ACAD
1000
RTTcAl
1070
-26105
1071
-1023410177
1000
$$NoName$$
  0
LINE
  5
540C
330
A
100
AcDbEntity
  8
001
370
     9
100
AcDbLine
 10
157.5307126264204
 20
-52.05058381896217
 30
0.0
 11
157.5307126264204
 21
-52.04171579282341
 31
0.0
1001
ACAD
1000
RTTcAl
1070
-26105
1071
-1023410177
1000
$$NoName$$
  0
LINE
  5
540D
330
A
100
AcDbEntity
  8
001
370
     9
100
AcDbLine
 10
157.5307126264204
 20
-52.05058381896217
 30
0.0
 11
157.51842051762
 21
-52.05058381896217
 31
0.0
1001
ACAD
1000
RTTcAl
1070
-26105
1071
-1023410177
1000
$$NoName$$
  0
LINE
  5
540E
330
A
100
AcDbEntity
  8
001
370
     9
100
AcDbLine
 10
157.5303205742955
 20
-52.05096863638174
 30
0.0
 11
157.5307126264204
 21
-52.05058416347196
 31
0.0
1001
ACAD
1000
RTTcAl
1070
-26105
1071
-1023410177
1000
$$NoName$$
  0
LINE
  5
540F
330
A
100
AcDbEntity
  8
001
370
     9
100
AcDbLine
 10
157.5061311648978
 20
-52.05058381896217
 30
0.0
 11
157.5184163835027
 21
-52.05058381896217
 31
0.0
1001
ACAD
1000
RTTcAl
1070
-26105
1071
-1023410177
1000
$$NoName$$
  0
LINE
  5
5410
330
A
100
AcDbEntity
  8
001
370
     9
100
AcDbLine
 10
157.5065190829054
 20
-52.05096863638174
 30
0.0
 11
157.5061311648978
 21
-52.05058416347196
 31
0.0
1001
ACAD
1000
RTTcAl
1070
-26105
1071
-1023410177
1000
$$NoName$$
  0
LINE
  5
5411
330
A
100
AcDbEntity
  8
001
370
     9
100
AcDbLine
 10
157.5378191740755
 20
-52.03350853643462
 30
0.0
 11
157.51842051762
 21
-52.03350853643462
 31
0.0
1001
ACAD
1000
RTTcAl
1070
-26105
1071
-1023410177
1000
$$NoName$$
  0
LINE
  5
5412
330
A
100
AcDbEntity
  8
001
370
     9
100
AcDbLine
 10
157.5375552795873
 20
-52.03324670900502
 30
0.0
 11
157.5378191740755
 21
-52.03350853643462
 31
0.0
1001
ACAD
1000
RTTcAl
1070
-26105
1071
-1023410177
1000
$$NoName$$
  0
LINE
  5
5413
330
A
100
AcDbEntity
  8
001
370
     9
100
AcDbLine
 10
157.4990218611645
 20
-52.03350853643462
 30
0.0
 11
157.5184163835027
 21
-52.03350853643462
 31
0.0
1001
ACAD
1000
RTTcAl
1070
-26105
1071
-1023410177
1000
$$NoName$$
  0
LINE
  5
5414
330
A
100
AcDbEntity
  8
001
370
     9
100
AcDbLine
 10
157.4992705972226
 20
-52.03324670900502
 30
0.0
 11
157.4990122148907
 21
-52.03350853643462
 31
0.0
1001
ACAD
1000
RTTcAl
1070
-26105
1071
-1023410177
1000
$$NoName$$
  0
LINE
  5
5415
330
A
100
AcDbEntity
  8
001
370
     9
100
AcDbLine
 10
157.5371790749121
 20
-52.01474929012298
 30
0.0
 11
157.5184163835027
 21
-52.01474929012298
 31
0.0
1001
ACAD
1000
RTTcAl
1070
-26105
1071
-1023410177
1000
$$NoName$$
  0
LINE
  5
5416
330
A
100
AcDbEntity
  8
001
370
     9
100
AcDbLine
 10
157.5369186255216
 20
-52.01448884073247
 30
0.0
 11
157.5371790749121
 21
-52.01474929012298
 31
0.0
1001
ACAD
1000
RTTcAl
1070
-26105
1071
-1023410177
1000
$$NoName$$
  0
LINE
  5
5417
330
A
100
AcDbEntity
  8
001
370
     9
100
AcDbLine
 10
157.4996674724843
 20
-52.01474929012298
 30
0.0
 11
157.51842051762
 21
-52.01474929012298
 31
0.0
1001
ACAD
1000
RTTcAl
1070
-26105
1071
-1023410177
1000
$$NoName$$
  0
LINE
  5
5418
330
A
100
AcDbEntity
  8
001
370
     9
100
AcDbLine
 10
157.4999196536402
 20
-52.01448884073247
 30
0.0
 11
157.4996626493474
 21
-52.01474929012298
 31
0.0
1001
ACAD
1000
RTTcAl
1070
-26105
1071
-1023410177
1000
$$NoName$$
  0
LINE
  5
5419
330
A
100
AcDbEntity
  8
001
370
     9
100
AcDbLine
 10
157.5369186255216
 20
-52.01189778270872
 30
0.0
 11
157.5371790749121
 21
-52.01215754307966
 31
0.0
1001
ACAD
1000
RTTcAl
1070
-26105
1071
-1023410177
1000
$$NoName$$
  0
LINE
  5
541A
330
A
100
AcDbEntity
  8
001
370
     9
100
AcDbLine
 10
157.5371790749121
 20
-52.01216512229473
 30
0.0
 11
157.5184163835027
 21
-52.01216512229473
 31
0.0
1001
ACAD
1000
RTTcAl
1070
-26105
1071
-1023410177
1000
$$NoName$$
  0
LINE
  5
541B
330
A
100
AcDbEntity
  8
001
370
     9
100
AcDbLine
 10
157.4996674724843
 20
-52.01216443327518
 30
0.0
 11
157.51842051762
 21
-52.01216512229473
 31
0.0
1001
ACAD
1000
RTTcAl
1070
-26105
1071
-1023410177
1000
$$NoName$$
  0
LINE
  5
541C
330
A
100
AcDbEntity
  8
001
370
     9
100
AcDbLine
 10
157.4999196536402
 20
-52.01189778270872
 30
0.0
 11
157.4996626493474
 21
-52.01215754307966
 31
0.0
1001
ACAD
1000
RTTcAl
1070
-26105
1071
-1023410177
1000
$$NoName$$
  0
LINE
  5
541D
330
A
100
AcDbEntity
  8
001
370
     9
100
AcDbLine
 10
157.51842051762
 20
-52.01189778270872
 30
0.0
 11
157.4999196536402
 21
-52.01189778270872
 31
0.0
1001
ACAD
1000
RTTcAl
1070
-26105
1071
-1023410177
1000
$$NoName$$
  0
LINE
  5
541E
330
A
100
AcDbEntity
  8
001
370
     9
100
AcDbLine
 10
157.5054779743629
 20
-52.03997601845564
 30
0.0
 11
157.5054779743629
 21
-52.03519008865028
 31
0.0
1001
ACAD
1000
RTTcAl
1070
-26105
1071
-1023410177
1000
$$NoName$$
  0
LINE
  5
541F
330
A
100
AcDbEntity
  8
001
370
     9
100
AcDbLine
 10
157.4925478334577
 20
-52.03557731763828
 30
0.0
 11
157.4922880730868
 21
-52.03557731763828
 31
0.0
1001
ACAD
1000
RTTcAl
1070
-26105
1071
-1023410177
1000
$$NoName$$
  0
LINE
  5
5420
330
A
100
AcDbEntity
  8
001
370
     9
100
AcDbLine
 10
157.4925478334577
 20
-52.04217330180567
 30
0.0
 11
157.4925478334577
 21
-52.03518974414051
 31
0.0
1001
ACAD
1000
RTTcAl
1070
-26105
1071
-1023410177
1000
$$NoName$$
  0
LINE
  5
5421
330
A
100
AcDbEntity
  8
001
370
     9
100
AcDbLine
 10
157.5035438964816
 20
-52.03997601845564
 30
0.0
 11
157.5026323236148
 21
-52.03997601845564
 31
0.0
1001
ACAD
1000
RTTcAl
1070
-26105
1071
-1023410177
1000
$$NoName$$
  0
LINE
  5
5422
330
A
100
AcDbEntity
  8
001
370
     9
100
AcDbLine
 10
157.5054779743629
 20
-52.03997601845564
 30
0.0
 11
157.5035438964816
 21
-52.03997601845564
 31
0.0
1001
ACAD
1000
RTTcAl
1070
-26105
1071
-1023410177
1000
$$NoName$$
  0
LINE
  5
5423
330
A
100
AcDbEntity
  8
001
370
     9
100
AcDbLine
 10
157.5054779743629
 20
-52.03610131700727
 30
0.0
 11
157.5026323236148
 21
-52.03610131700727
 31
0.0
1001
ACAD
1000
RTTcAl
1070
-26105
1071
-1023410177
1000
$$NoName$$
  0
LINE
  5
5424
330
A
100
AcDbEntity
  8
001
370
     9
100
AcDbLine
 10
157.5054779743629
 20
-52.03519008865028
 30
0.0
 11
157.5035438964816
 21
-52.03519008865028
 31
0.0
1001
ACAD
1000
RTTcAl
1070
-26105
1071
-1023410177
1000
$$NoName$$
  0
LINE
  5
5425
330
A
100
AcDbEntity
  8
001
370
     9
100
AcDbLine
 10
157.5023732522634
 20
-52.039720392202
 30
0.0
 11
157.5023732522634
 21
-52.03634798600673
 31
0.0
1001
ACAD
1000
RTTcAl
1070
-26105
1071
-1023410177
1000
$$NoName$$
  0
LINE
  5
5426
330
A
100
AcDbEntity
  8
001
370
     9
100
AcDbLine
 10
157.5057487590467
 20
-52.04747461823561
 30
0.0
 11
157.4922942742627
 21
-52.04747461823561
 31
0.0
1001
ACAD
1000
RTTcAl
1070
-26105
1071
-1023410177
1000
$$NoName$$
  0
LINE
  5
5427
330
A
100
AcDbEntity
  8
001
370
     9
100
AcDbLine
 10
157.5057487590467
 20
-52.04217330180567
 30
0.0
 11
157.4925478334577
 21
-52.04217330180567
 31
0.0
1001
ACAD
1000
RTTcAl
1070
-26105
1071
-1023410177
1000
$$NoName$$
  0
LINE
  5
5428
330
A
100
AcDbEntity
  8
001
370
     9
100
AcDbLine
 10
157.5054779743629
 20
-52.03519008865028
 30
0.0
 11
157.4925478334577
 21
-52.03519008865028
 31
0.0
1001
ACAD
1000
RTTcAl
1070
-26105
1071
-1023410177
1000
$$NoName$$
  0
LINE
  5
5429
330
A
100
AcDbEntity
  8
001
370
     9
100
AcDbLine
 10
157.5063888582101
 20
-52.04146740127506
 30
0.0
 11
157.5063888582101
 21
-52.0401630872639
 31
0.0
1001
ACAD
1000
RTTcAl
1070
-26105
1071
-1023410177
1000
$$NoName$$
  0
LINE
  5
542A
330
A
100
AcDbEntity
  8
001
370
     9
100
AcDbLine
 10
157.5054779743629
 20
-52.0401003864847
 30
0.0
 11
157.5065190829054
 21
-52.0401003864847
 31
0.0
1001
ACAD
1000
RTTcAl
1070
-26105
1071
-1023410177
1000
$$NoName$$
  0
LINE
  5
542B
330
A
100
AcDbEntity
  8
001
370
     9
100
AcDbLine
 10
157.5063888582101
 20
-52.0401003864847
 30
0.0
 11
157.5063888582101
 21
-52.04016549883233
 31
0.0
1001
ACAD
1000
RTTcAl
1070
-26105
1071
-1023410177
1000
$$NoName$$
  0
LINE
  5
542C
330
A
100
AcDbEntity
  8
001
370
     9
100
AcDbLine
 10
157.5070213781585
 20
-52.03958637789921
 30
0.0
 11
157.5065190829054
 21
-52.0401003864847
 31
0.0
1001
ACAD
1000
RTTcAl
1070
-26105
1071
-1023410177
1000
$$NoName$$
  0
LINE
  5
542D
330
A
100
AcDbEntity
  8
001
370
     9
100
AcDbLine
 10
157.5061311648978
 20
-52.04172337203847
 30
0.0
 11
157.5063888582101
 21
-52.04146740127506
 31
0.0
1001
ACAD
1000
RTTcAl
1070
-26105
1071
-1023410177
1000
$$NoName$$
  0
LINE
  5
542E
330
A
100
AcDbEntity
  8
001
370
     9
100
AcDbLine
 10
157.5062655237104
 20
-52.03544364784526
 30
0.0
 11
157.5062655237104
 21
-52.03492412710336
 31
0.0
1001
ACAD
1000
RTTcAl
1070
-26105
1071
-1023410177
1000
$$NoName$$
  0
LINE
  5
542F
330
A
100
AcDbEntity
  8
001
370
     9
100
AcDbLine
 10
157.5062655237104
 20
-52.03544364784526
 30
0.0
 11
157.5054779743629
 21
-52.03544364784526
 31
0.0
1001
ACAD
1000
RTTcAl
1070
-26105
1071
-1023410177
1000
$$NoName$$
  0
LINE
  5
5430
330
A
100
AcDbEntity
  8
001
370
     9
100
AcDbLine
 10
157.5054779743629
 20
-52.0401003864847
 30
0.0
 11
157.5054779743629
 21
-52.03544364784526
 31
0.0
1001
ACAD
1000
RTTcAl
1070
-26105
1071
-1023410177
1000
$$NoName$$
  0
LINE
  5
5431
330
A
100
AcDbEntity
  8
001
370
     9
100
AcDbLine
 10
157.5061311648978
 20
-52.05058381896217
 30
0.0
 11
157.5061311648978
 21
-52.04171579282341
 31
0.0
1001
ACAD
1000
RTTcAl
1070
-26105
1071
-1023410177
1000
$$NoName$$
  0
LINE
  5
5432
330
A
100
AcDbEntity
  8
001
370
     9
100
AcDbLine
 10
157.5062655237104
 20
-52.03492412710336
 30
0.0
 11
157.4990218611645
 21
-52.03492412710336
 31
0.0
1001
ACAD
1000
RTTcAl
1070
-26105
1071
-1023410177
1000
$$NoName$$
  0
LINE
  5
5433
330
A
100
AcDbEntity
  8
001
370
     9
100
AcDbLine
 10
157.4990218611645
 20
-52.03492412710336
 30
0.0
 11
157.4990218611645
 21
-52.03350853643462
 31
0.0
1001
ACAD
1000
RTTcAl
1070
-26105
1071
-1023410177
1000
$$NoName$$
  0
LINE
  5
5434
330
A
100
AcDbEntity
  8
001
370
     9
100
AcDbLine
 10
157.5371790749121
 20
-52.02386777486875
 30
0.0
 11
157.5371790749121
 21
-52.01474929012298
 31
0.0
1001
ACAD
1000
RTTcAl
1070
-26105
1071
-1023410177
1000
$$NoName$$
  0
LINE
  5
5435
330
A
100
AcDbEntity
  8
001
370
     9
100
AcDbLine
 10
157.5304514880103
 20
-52.04146740127506
 30
0.0
 11
157.5307119374008
 21
-52.04172337203847
 31
0.0
1001
ACAD
1000
RTTcAl
1070
-26105
1071
-1023410177
1000
$$NoName$$
  0
LINE
  5
5436
330
A
100
AcDbEntity
  8
001
370
     9
100
AcDbLine
 10
157.5304514880103
 20
-52.0398399370942
 30
0.0
 11
157.5304514880103
 21
-52.04146740127506
 31
0.0
1001
ACAD
1000
RTTcAl
1070
-26105
1071
-1023410177
1000
$$NoName$$
  0
LINE
  5
5437
330
A
100
AcDbEntity
  8
001
370
     9
100
AcDbLine
 10
157.536397037721
 20
-52.03299590588823
 30
0.0
 11
157.536397037721
 21
-52.03325635527874
 31
0.0
1001
ACAD
1000
RTTcAl
1070
-26105
1071
-1023410177
1000
$$NoName$$
  0
LINE
  5
5438
330
A
100
AcDbEntity
  8
001
370
     9
100
AcDbLine
 10
157.5378191740755
 20
-52.03350853643462
 30
0.0
 11
157.5378191740755
 21
-52.03958637789921
 31
0.0
1001
ACAD
1000
RTTcAl
1070
-26105
1071
-1023410177
1000
$$NoName$$
  0
LINE
  5
5439
330
A
100
AcDbEntity
  8
001
370
     9
100
AcDbLine
 10
157.5365258843772
 20
-52.01448884073247
 30
0.0
 11
157.5365258843772
 21
-52.01422976938108
 31
0.0
1001
ACAD
1000
RTTcAl
1070
-26105
1071
-1023410177
1000
$$NoName$$
  0
LINE
  5
543A
330
A
100
AcDbEntity
  8
001
370
     9
100
AcDbLine
 10
157.5371790749121
 20
-52.03299590588823
 30
0.0
 11
157.5371790749121
 21
-52.0294295406892
 31
0.0
1001
ACAD
1000
RTTcAl
1070
-26105
1071
-1023410177
1000
$$NoName$$
  0
LINE
  5
543B
330
A
100
AcDbEntity
  8
001
370
     9
100
AcDbLine
 10
157.5371790749121
 20
-52.0142380376157
 30
0.0
 11
157.5371790749121
 21
-52.01216512229473
 31
0.0
1001
ACAD
1000
RTTcAl
1070
-26105
1071
-1023410177
1000
$$NoName$$
  0
LINE
  5
543C
330
A
100
AcDbEntity
  8
001
370
     9
100
AcDbLine
 10
157.5004412414408
 20
-52.03324670900502
 30
0.0
 11
157.5004412414408
 21
-52.03298763765362
 31
0.0
1001
ACAD
1000
RTTcAl
1070
-26105
1071
-1023410177
1000
$$NoName$$
  0
LINE
  5
543D
330
A
100
AcDbEntity
  8
001
370
     9
100
AcDbLine
 10
157.500310327726
 20
-52.01448884073247
 30
0.0
 11
157.500310327726
 21
-52.01422976938108
 31
0.0
1001
ACAD
1000
RTTcAl
1070
-26105
1071
-1023410177
1000
$$NoName$$
  0
LINE
  5
543E
330
A
100
AcDbEntity
  8
001
370
     9
100
AcDbLine
 10
157.4996674724843
 20
-52.03299590588823
 30
0.0
 11
157.4996674724843
 21
-52.01474929012298
 31
0.0
1001
ACAD
1000
RTTcAl
1070
-26105
1071
-1023410177
1000
$$NoName$$
  0
LINE
  5
543F
330
A
100
AcDbEntity
  8
001
370
     9
100
AcDbLine
 10
157.4996674724843
 20
-52.0142380376157
 30
0.0
 11
157.4996674724843
 21
-52.01216443327518
 31
0.0
1001
ACAD
1000
RTTcAl
1070
-26105
1071
-1023410177
1000
$$NoName$$
  0
LINE
  5
5440
330
A
100
AcDbEntity
  8
001
370
     9
100
AcDbLine
 10
157.5369186255216
 20
-52.01448884073247
 30
0.0
 11
157.4999196536402
 21
-52.01448884073247
 31
0.0
1001
ACAD
1000
RTTcAl
1070
-26105
1071
-1023410177
1000
$$NoName$$
  0
LINE
  5
5441
330
A
100
AcDbEntity
  8
001
370
     9
100
AcDbLine
 10
157.5371790749121
 20
-52.0142380376157
 30
0.0
 11
157.4996626493474
 21
-52.0142380376157
 31
0.0
1001
ACAD
1000
RTTcAl
1070
-26105
1071
-1023410177
1000
$$NoName$$
  0
LINE
  5
5442
330
A
100
AcDbEntity
  8
001
370
     9
100
AcDbLine
 10
157.5307126264204
 20
-52.04172337203847
 30
0.0
 11
157.5061332319565
 21
-52.04172337203847
 31
0.0
1001
ACAD
1000
RTTcAl
1070
-26105
1071
-1023410177
1000
$$NoName$$
  0
LINE
  5
5443
330
A
100
AcDbEntity
  8
001
370
     9
100
AcDbLine
 10
157.5304514880103
 20
-52.04146740127506
 30
0.0
 11
157.5063888582101
 21
-52.04146740127506
 31
0.0
1001
ACAD
1000
RTTcAl
1070
-26105
1071
-1023410177
1000
$$NoName$$
  0
LINE
  5
5444
330
A
100
AcDbEntity
  8
001
370
     9
100
AcDbLine
 10
157.5070213781585
 20
-52.03958637789921
 30
0.0
 11
157.5378191740755
 21
-52.03958637789921
 31
0.0
1001
ACAD
1000
RTTcAl
1070
-26105
1071
-1023410177
1000
$$NoName$$
  0
LINE
  5
5445
330
A
100
AcDbEntity
  8
001
370
     9
100
AcDbLine
 10
157.5375552795873
 20
-52.03324670900502
 30
0.0
 11
157.4992705972226
 21
-52.03324670900502
 31
0.0
1001
ACAD
1000
RTTcAl
1070
-26105
1071
-1023410177
1000
$$NoName$$
  0
LINE
  5
5446
330
A
100
AcDbEntity
  8
001
370
     9
100
AcDbLine
 10
157.5371790749121
 20
-52.03299590588823
 30
0.0
 11
157.4996626493474
 21
-52.03299590588823
 31
0.0
1001
ACAD
1000
RTTcAl
1070
-26105
1071
-1023410177
1000
$$NoName$$
  0
LINE
  5
5447
330
A
100
AcDbEntity
  8
001
370
     9
100
AcDbLine
 10
157.5314788161618
 20
-52.04287954684605
 30
0.0
 11
157.5307078032835
 21
-52.04287954684605
 31
0.0
1001
ACAD
1000
RTTcAl
1070
-26105
1071
-1023410177
1000
$$NoName$$
  0
LINE
  5
5448
330
A
100
AcDbEntity
  8
001
370
     9
100
AcDbLine
 10
157.5314788161618
 20
-52.04844234619582
 30
0.0
 11
157.5307078032835
 21
-52.04844234619582
 31
0.0
1001
ACAD
1000
RTTcAl
1070
-26105
1071
-1023410177
1000
$$NoName$$
  0
LINE
  5
5449
330
A
100
AcDbEntity
  8
001
370
     9
100
AcDbLine
 10
157.5314788161618
 20
-52.04844234619582
 30
0.0
 11
157.5314788161618
 21
-52.04287851331672
 31
0.0
1001
ACAD
1000
RTTcAl
1070
-26105
1071
-1023410177
1000
$$NoName$$
  0
LINE
  5
544A
330
A
100
AcDbEntity
  8
001
370
     9
100
AcDbLine
 10
157.5379514658294
 20
-52.0294295406892
 30
0.0
 11
157.5371790749121
 21
-52.0294295406892
 31
0.0
1001
ACAD
1000
RTTcAl
1070
-26105
1071
-1023410177
1000
$$NoName$$
  0
LINE
  5
544B
330
A
100
AcDbEntity
  8
001
370
     9
100
AcDbLine
 10
157.5379514658294
 20
-52.0294295406892
 30
0.0
 11
157.5379514658294
 21
-52.02386777486875
 31
0.0
1001
ACAD
1000
RTTcAl
1070
-26105
1071
-1023410177
1000
$$NoName$$
  0
LINE
  5
544C
330
A
100
AcDbEntity
  8
001
370
     9
100
AcDbLine
 10
157.5379514658294
 20
-52.02386777486875
 30
0.0
 11
157.5371790749121
 21
-52.02386777486875
 31
0.0
1001
ACAD
1000
RTTcAl
1070
-26105
1071
-1023410177
1000
$$NoName$$
  0
LINE
  5
544D
330
A
100
AcDbEntity
  8
001
370
     5
100
AcDbLine
 10
157.5468790921594
 20
-52.04566697544201
 30
0.0
 11
157.5318729353453
 21
-52.04566697544201
 31
0.0
1001
ACAD
1000
RTTcAl
1070
-26105
1071
-1023410177
1000
$$NoName$$
  0
LINE
  5
544E
330
A
100
AcDbEntity
  8
001
370
     5
100
AcDbLine
 10
157.5468790921594
 20
-52.02665072483763
 30
0.0
 11
157.5383407618761
 21
-52.02665072483763
 31
0.0
1001
ACAD
1000
RTTcAl
1070
-26105
1071
-1023410177
1000
$$NoName$$
  0
LINE
  5
544F
330
A
100
AcDbEntity
  8
001
370
     9
100
AcDbLine
 10
157.5318674231889
 20
-52.04566697544201
 30
0.0
 11
157.5318674231889
 21
-52.04825941150488
 31
0.0
1001
ACAD
1000
RTTcAl
1070
-26105
1071
-1023410177
1000
$$NoName$$
  0
LINE
  5
5450
330
A
100
AcDbEntity
  8
001
370
     9
100
AcDbLine
 10
157.5314788161618
 20
-52.04478847551373
 30
0.0
 11
157.5318674231889
 21
-52.04478847551373
 31
0.0
1001
ACAD
1000
RTTcAl
1070
-26105
1071
-1023410177
1000
$$NoName$$
  0
LINE
  5
5451
330
A
100
AcDbEntity
  8
001
370
     9
100
AcDbLine
 10
157.5314788161618
 20
-52.04654030772366
 30
0.0
 11
157.5318674231889
 21
-52.04654030772366
 31
0.0
1001
ACAD
1000
RTTcAl
1070
-26105
1071
-1023410177
1000
$$NoName$$
  0
LINE
  5
5452
330
A
100
AcDbEntity
  8
001
370
     9
100
AcDbLine
 10
157.5318674231889
 20
-52.04307488388892
 30
0.0
 11
157.5318674231889
 21
-52.04566697544201
 31
0.0
1001
ACAD
1000
RTTcAl
1070
-26105
1071
-1023410177
1000
$$NoName$$
  0
LINE
  5
5453
330
A
100
AcDbEntity
  8
001
370
     5
100
AcDbLine
 10
157.5468790921594
 20
-52.04307488388892
 30
0.0
 11
157.5468790921594
 21
-52.04825975601465
 31
0.0
1001
ACAD
1000
RTTcAl
1070
-26105
1071
-1023410177
1000
$$NoName$$
  0
LINE
  5
5454
330
A
100
AcDbEntity
  8
001
370
     5
100
AcDbLine
 10
157.5468790921594
 20
-52.04372531834563
 30
0.0
 11
157.5318729353453
 21
-52.04372531834563
 31
0.0
1001
ACAD
1000
RTTcAl
1070
-26105
1071
-1023410177
1000
$$NoName$$
  0
LINE
  5
5455
330
A
100
AcDbEntity
  8
001
370
     5
100
AcDbLine
 10
157.5468790921594
 20
-52.04463103454619
 30
0.0
 11
157.5318729353453
 21
-52.04463103454619
 31
0.0
1001
ACAD
1000
RTTcAl
1070
-26105
1071
-1023410177
1000
$$NoName$$
  0
LINE
  5
5456
330
A
100
AcDbEntity
  8
001
370
     5
100
AcDbLine
 10
157.5468790921594
 20
-52.04669740418142
 30
0.0
 11
157.5318729353453
 21
-52.04669740418142
 31
0.0
1001
ACAD
1000
RTTcAl
1070
-26105
1071
-1023410177
1000
$$NoName$$
  0
LINE
  5
5457
330
A
100
AcDbEntity
  8
001
370
     5
100
AcDbLine
 10
157.5318674231889
 20
-52.04307488388892
 30
0.0
 11
157.5468749580421
 21
-52.04307488388892
 31
0.0
1001
ACAD
1000
RTTcAl
1070
-26105
1071
-1023410177
1000
$$NoName$$
  0
LINE
  5
5458
330
A
100
AcDbEntity
  8
001
370
     5
100
AcDbLine
 10
157.5468790921594
 20
-52.04760828802863
 30
0.0
 11
157.5318729353453
 21
-52.04760828802863
 31
0.0
1001
ACAD
1000
RTTcAl
1070
-26105
1071
-1023410177
1000
$$NoName$$
  0
LINE
  5
5459
330
A
100
AcDbEntity
  8
001
370
     5
100
AcDbLine
 10
157.5318674231889
 20
-52.04825941150488
 30
0.0
 11
157.5468749580421
 21
-52.04825941150488
 31
0.0
1001
ACAD
1000
RTTcAl
1070
-26105
1071
-1023410177
1000
$$NoName$$
  0
LINE
  5
545A
330
A
100
AcDbEntity
  8
001
370
     5
100
AcDbLine
 10
157.5473889666276
 20
-52.04566697544201
 30
0.0
 11
157.5473889666276
 21
-52.04773300056746
 31
0.0
1001
ACAD
1000
RTTcAl
1070
-26105
1071
-1023410177
1000
$$NoName$$
  0
LINE
  5
545B
330
A
100
AcDbEntity
  8
001
370
     5
100
AcDbLine
 10
157.5473889666276
 20
-52.04359578266993
 30
0.0
 11
157.5473889666276
 21
-52.04566697544201
 31
0.0
1001
ACAD
1000
RTTcAl
1070
-26105
1071
-1023410177
1000
$$NoName$$
  0
LINE
  5
545C
330
A
100
AcDbEntity
  8
001
370
     5
100
AcDbLine
 10
157.5473889666276
 20
-52.04359578266993
 30
0.0
 11
157.5468790921594
 21
-52.04307488388892
 31
0.0
1001
ACAD
1000
RTTcAl
1070
-26105
1071
-1023410177
1000
$$NoName$$
  0
LINE
  5
545D
330
A
100
AcDbEntity
  8
001
370
     5
100
AcDbLine
 10
157.5473889666276
 20
-52.04773300056746
 30
0.0
 11
157.5468790921594
 21
-52.04825941150488
 31
0.0
1001
ACAD
1000
RTTcAl
1070
-26105
1071
-1023410177
1000
$$NoName$$
  0
LINE
  5
545E
330
A
100
AcDbEntity
  8
001
370
     9
100
AcDbLine
 10
157.5379514658294
 20
-52.02752543515837
 30
0.0
 11
157.5383407618761
 21
-52.02752543515837
 31
0.0
1001
ACAD
1000
RTTcAl
1070
-26105
1071
-1023410177
1000
$$NoName$$
  0
LINE
  5
545F
330
A
100
AcDbEntity
  8
001
370
     5
100
AcDbLine
 10
157.5468790921594
 20
-52.02859203742423
 30
0.0
 11
157.5383407618761
 21
-52.02859203742423
 31
0.0
1001
ACAD
1000
RTTcAl
1070
-26105
1071
-1023410177
1000
$$NoName$$
  0
LINE
  5
5460
330
A
100
AcDbEntity
  8
001
370
     5
100
AcDbLine
 10
157.5468790921594
 20
-52.02768356514546
 30
0.0
 11
157.5383407618761
 21
-52.02768356514546
 31
0.0
1001
ACAD
1000
RTTcAl
1070
-26105
1071
-1023410177
1000
$$NoName$$
  0
LINE
  5
5461
330
A
100
AcDbEntity
  8
001
370
     5
100
AcDbLine
 10
157.5383407618761
 20
-52.02923075854856
 30
0.0
 11
157.5468790921594
 21
-52.02923075854856
 31
0.0
1001
ACAD
1000
RTTcAl
1070
-26105
1071
-1023410177
1000
$$NoName$$
  0
LINE
  5
5462
330
A
100
AcDbEntity
  8
001
370
     9
100
AcDbLine
 10
157.5383407618761
 20
-52.02405587720633
 30
0.0
 11
157.5383407618761
 21
-52.0266510693474
 31
0.0
1001
ACAD
1000
RTTcAl
1070
-26105
1071
-1023410177
1000
$$NoName$$
  0
LINE
  5
5463
330
A
100
AcDbEntity
  8
001
370
     5
100
AcDbLine
 10
157.5468790921594
 20
-52.02470803421191
 30
0.0
 11
157.5383407618761
 21
-52.02470803421191
 31
0.0
1001
ACAD
1000
RTTcAl
1070
-26105
1071
-1023410177
1000
$$NoName$$
  0
LINE
  5
5464
330
A
100
AcDbEntity
  8
001
370
     5
100
AcDbLine
 10
157.5383407618761
 20
-52.02405587720633
 30
0.0
 11
157.5468790921594
 21
-52.02405587720633
 31
0.0
1001
ACAD
1000
RTTcAl
1070
-26105
1071
-1023410177
1000
$$NoName$$
  0
LINE
  5
5465
330
A
100
AcDbEntity
  8
001
370
     5
100
AcDbLine
 10
157.5468790921594
 20
-52.02560789374629
 30
0.0
 11
157.5383407618761
 21
-52.02560789374629
 31
0.0
1001
ACAD
1000
RTTcAl
1070
-26105
1071
-1023410177
1000
$$NoName$$
  0
LINE
  5
5466
330
A
100
AcDbEntity
  8
001
370
     9
100
AcDbLine
 10
157.5379514658294
 20
-52.02577635902666
 30
0.0
 11
157.5383407618761
 21
-52.02577635902666
 31
0.0
1001
ACAD
1000
RTTcAl
1070
-26105
1071
-1023410177
1000
$$NoName$$
  0
LINE
  5
5467
330
A
100
AcDbEntity
  8
001
370
     5
100
AcDbLine
 10
157.5468790921594
 20
-52.02405587720633
 30
0.0
 11
157.5468790921594
 21
-52.02923110305834
 31
0.0
1001
ACAD
1000
RTTcAl
1070
-26105
1071
-1023410177
1000
$$NoName$$
  0
LINE
  5
5468
330
A
100
AcDbEntity
  8
001
370
     9
100
AcDbLine
 10
157.5383407618761
 20
-52.02665072483763
 30
0.0
 11
157.5383407618761
 21
-52.02923075854856
 31
0.0
1001
ACAD
1000
RTTcAl
1070
-26105
1071
-1023410177
1000
$$NoName$$
  0
LINE
  5
5469
330
A
100
AcDbEntity
  8
001
370
     5
100
AcDbLine
 10
157.5473889666276
 20
-52.02457574245801
 30
0.0
 11
157.5473889666276
 21
-52.0266510693474
 31
0.0
1001
ACAD
1000
RTTcAl
1070
-26105
1071
-1023410177
1000
$$NoName$$
  0
LINE
  5
546A
330
A
100
AcDbEntity
  8
001
370
     5
100
AcDbLine
 10
157.5473889666276
 20
-52.02665072483763
 30
0.0
 11
157.5473889666276
 21
-52.02871881702173
 31
0.0
1001
ACAD
1000
RTTcAl
1070
-26105
1071
-1023410177
1000
$$NoName$$
  0
LINE
  5
546B
330
A
100
AcDbEntity
  8
001
370
     5
100
AcDbLine
 10
157.5473889666276
 20
-52.02457574245801
 30
0.0
 11
157.5468790921594
 21
-52.02405587720633
 31
0.0
1001
ACAD
1000
RTTcAl
1070
-26105
1071
-1023410177
1000
$$NoName$$
  0
LINE
  5
546C
330
A
100
AcDbEntity
  8
001
370
     5
100
AcDbLine
 10
157.5473889666276
 20
-52.02871950604128
 30
0.0
 11
157.5468790921594
 21
-52.02923110305834
 31
0.0
1001
ACAD
1000
RTTcAl
1070
-26105
1071
-1023410177
1000
$$NoName$$
  0
LINE
  5
546D
330
A
100
AcDbEntity
  8
001
370
     9
100
AcDbLine
 10
157.51842051762
 20
-52.01189778270872
 30
0.0
 11
157.5369186255216
 21
-52.01189778270872
 31
0.0
1001
ACAD
1000
RTTcAl
1070
-26105
1071
-1023410177
1000
$$NoName$$
  0
LINE
  5
546E
330
A
100
AcDbEntity
  8
001
370
     9
100
AcDbLine
 10
157.5317378875132
 20
-52.05096863638174
 30
0.0
 11
157.5317378875132
 21
-52.05383082359904
 31
0.0
1001
ACAD
1000
RTTcAl
1070
-26105
1071
-1023410177
1000
$$NoName$$
  0
LINE
  5
546F
330
A
100
AcDbEntity
  8
001
370
     9
100
AcDbLine
 10
157.5317378875132
 20
-52.05096863638174
 30
0.0
 11
157.5317378875132
 21
-52.05383082359904
 31
0.0
1001
ACAD
1000
RTTcAl
1070
-26105
1071
-1023410177
1000
$$NoName$$
  0
LINE
  5
5470
330
A
100
AcDbEntity
  8
001
370
     9
100
AcDbLine
 10
157.5274728564888
 20
-52.05096863638174
 30
0.0
 11
157.5274728564888
 21
-52.05383082359904
 31
0.0
1001
ACAD
1000
RTTcAl
1070
-26105
1071
-1023410177
1000
$$NoName$$
  0
LINE
  5
5471
330
A
100
AcDbEntity
  8
001
370
     9
100
AcDbLine
 10
157.5274728564888
 20
-52.05271598996457
 30
0.0
 11
157.531354103623
 21
-52.05271598996457
 31
0.0
1001
ACAD
1000
RTTcAl
1070
-26105
1071
-1023410177
1000
$$NoName$$
  0
LINE
  5
5472
330
A
100
AcDbEntity
  8
001
370
     9
100
AcDbLine
 10
157.5317378875132
 20
-52.05232910548636
 30
0.0
 11
157.531354103623
 21
-52.05271530094503
 31
0.0
1001
ACAD
1000
RTTcAl
1070
-26105
1071
-1023410177
1000
$$NoName$$
  0
LINE
  5
5473
330
A
100
AcDbEntity
  8
001
370
     9
100
AcDbLine
 10
157.531354103623
 20
-52.05271598996457
 30
0.0
 11
157.531354103623
 21
-52.05383047908927
 31
0.0
1001
ACAD
1000
RTTcAl
1070
-26105
1071
-1023410177
1000
$$NoName$$
  0
LINE
  5
5474
330
A
100
AcDbEntity
  8
001
370
     9
100
AcDbLine
 10
157.5274728564888
 20
-52.05096863638174
 30
0.0
 11
157.5274728564888
 21
-52.05383082359904
 31
0.0
1001
ACAD
1000
RTTcAl
1070
-26105
1071
-1023410177
1000
$$NoName$$
  0
LINE
  5
5475
330
A
100
AcDbEntity
  8
001
370
     9
100
AcDbLine
 10
157.5093661116925
 20
-52.05096863638174
 30
0.0
 11
157.5093661116925
 21
-52.05383082359904
 31
0.0
1001
ACAD
1000
RTTcAl
1070
-26105
1071
-1023410177
1000
$$NoName$$
  0
LINE
  5
5476
330
A
100
AcDbEntity
  8
001
370
     9
100
AcDbLine
 10
157.5070213781585
 20
-52.05096863638174
 30
0.0
 11
157.5070213781585
 21
-52.05383082359904
 31
0.0
1001
ACAD
1000
RTTcAl
1070
-26105
1071
-1023410177
1000
$$NoName$$
  0
LINE
  5
5477
330
A
100
AcDbEntity
  8
001
370
     9
100
AcDbLine
 10
157.5057487590467
 20
-52.0401003864847
 30
0.0
 11
157.5057487590467
 21
-52.05383082359904
 31
0.0
1001
ACAD
1000
RTTcAl
1070
-26105
1071
-1023410177
1000
$$NoName$$
  0
LINE
  5
5478
330
A
100
AcDbEntity
  8
001
370
     9
100
AcDbLine
 10
157.5106511331562
 20
-52.05278661446861
 30
0.0
 11
157.5106511331562
 21
-52.05096829187196
 31
0.0
1001
ACAD
1000
RTTcAl
1070
-26105
1071
-1023410177
1000
$$NoName$$
  0
LINE
  5
5479
330
A
100
AcDbEntity
  8
001
370
     9
100
AcDbLine
 10
157.5129972447294
 20
-52.05278661446861
 30
0.0
 11
157.5129972447294
 21
-52.05096829187196
 31
0.0
1001
ACAD
1000
RTTcAl
1070
-26105
1071
-1023410177
1000
$$NoName$$
  0
LINE
  5
547A
330
A
100
AcDbEntity
  8
001
370
     9
100
AcDbLine
 10
157.5124680777138
 20
-52.05096863638174
 30
0.0
 11
157.5124680777138
 21
-52.05278695897838
 31
0.0
1001
ACAD
1000
RTTcAl
1070
-26105
1071
-1023410177
1000
$$NoName$$
  0
LINE
  5
547B
330
A
100
AcDbEntity
  8
001
370
     9
100
AcDbLine
 10
157.5093661116925
 20
-52.05383047908927
 30
0.0
 11
157.5093661116925
 21
-52.05096829187196
 31
0.0
1001
ACAD
1000
RTTcAl
1070
-26105
1071
-1023410177
1000
$$NoName$$
  0
LINE
  5
547C
330
A
100
AcDbEntity
  8
001
370
     9
100
AcDbLine
 10
157.4922880730868
 20
-52.03557731763828
 30
0.0
 11
157.4922880730868
 21
-52.05411745573251
 31
0.0
1001
ACAD
1000
RTTcAl
1070
-26105
1071
-1023410177
1000
$$NoName$$
  0
SPLINE
  5
5489
330
A
100
AcDbEntity
  8
001
370
     9
100
AcDbSpline
210
0.0
220
0.0
230
1.0
 70
     8
 71
     3
 72
     8
 73
     4
 74
     0
 42
0.0000000001
 43
0.0000000001
 40
0.0
 40
0.0
 40
0.0
 40
0.0
 40
1.0
 40
1.0
 40
1.0
 40
1.0
 10
157.2509850514104
 20
-51.90103214664842
 30
0.0
 10
157.2607911776687
 20
-51.90062011295657
 30
0.0
 10
157.2704360733519
 20
-51.89845796960367
 30
0.0
 10
157.279466363595
 20
-51.89462633187726
 30
0.0
1001
ACAD
1000
RTTcAl
1070
-26105
1071
-1023410177
1000
$$NoName$$
  0
SPLINE
  5
548A
330
A
100
AcDbEntity
  8
001
370
     9
100
AcDbSpline
210
0.0
220
0.0
230
1.0
 70
     8
 71
     3
 72
     8
 73
     4
 74
     0
 42
0.0000000001
 43
0.0000000001
 40
0.0
 40
0.0
 40
0.0
 40
0.0
 40
1.0
 40
1.0
 40
1.0
 40
1.0
 10
157.1664785259565
 20
-51.82638445744849
 30
0.0
 10
157.1698092464689
 20
-51.86593004559257
 30
0.0
 10
157.2011889193973
 20
-51.89729972773744
 30
0.0
 10
157.2407272728361
 20
-51.90064216158222
 30
0.0
1001
ACAD
1000
RTTcAl
1070
-26105
1071
-1023410177
1000
$$NoName$$
  0
SPLINE
  5
548B
330
A
100
AcDbEntity
  8
001
370
     9
100
AcDbSpline
210
0.0
220
0.0
230
1.0
 70
     8
 71
     3
 72
     8
 73
     4
 74
     0
 42
0.0000000001
 43
0.0000000001
 40
0.0
 40
0.0
 40
0.0
 40
0.0
 40
1.0
 40
1.0
 40
1.0
 40
1.0
 10
157.240790318125
 20
-51.90083164195891
 30
0.0
 10
157.2419206546995
 20
-51.90092259253971
 30
0.0
 10
157.2430578814693
 20
-51.90098873841667
 30
0.0
 10
157.2441858064753
 20
-51.90104041488304
 30
0.0
1001
ACAD
1000
RTTcAl
1070
-26105
1071
-1023410177
1000
$$NoName$$
  0
SPLINE
  5
548C
330
A
100
AcDbEntity
  8
001
370
     9
100
AcDbSpline
210
0.0
220
0.0
230
1.0
 70
     8
 71
     3
 72
     8
 73
     4
 74
     0
 42
0.0000000001
 43
0.0000000001
 40
0.0
 40
0.0
 40
0.0
 40
0.0
 40
1.0
 40
1.0
 40
1.0
 40
1.0
 10
157.1692039427929
 20
-51.82638445744849
 30
0.0
 10
157.1725312182075
 20
-51.86442247081369
 30
0.0
 10
157.2026944271176
 20
-51.89458705776282
 30
0.0
 10
157.2407272728361
 20
-51.89791364415792
 30
0.0
1001
ACAD
1000
RTTcAl
1070
-26105
1071
-1023410177
1000
$$NoName$$
  0
SPLINE
  5
54D5
330
A
100
AcDbEntity
  8
001
370
     9
100
AcDbSpline
210
0.0
220
0.0
230
1.0
 70
     8
 71
     3
 72
     8
 73
     4
 74
     0
 42
0.0000000001
 43
0.0000000001
 40
0.0
 40
0.0
 40
0.0
 40
0.0
 40
1.0
 40
1.0
 40
1.0
 40
1.0
 10
157.2441889070633
 20
-51.90118028585201
 30
0.0
 10
157.2464595709956
 20
-51.90126985839372
 30
0.0
 10
157.2487261008105
 20
-51.90126985839372
 30
0.0
 10
157.2509950421939
 20
-51.90118028585201
 30
0.0
1001
ACAD
1000
RTTcAl
1070
-26105
1071
-1023410177
1000
$$NoName$$
  0
SPLINE
  5
54E2
330
A
100
AcDbEntity
  8
001
370
     9
100
AcDbSpline
210
0.0
220
0.0
230
1.0
 70
     8
 71
     3
 72
     8
 73
     4
 74
     0
 42
0.0000000001
 43
0.0000000001
 40
0.0
 40
0.0
 40
0.0
 40
0.0
 40
1.0
 40
1.0
 40
1.0
 40
1.0
 10
157.2441889070633
 20
-51.89962379068497
 30
0.0
 10
157.2463510504162
 20
-51.9006111557024
 30
0.0
 10
157.248832898841
 20
-51.9006111557024
 30
0.0
 10
157.2509950421939
 20
-51.89962379068497
 30
0.0
1001
ACAD
1000
RTTcAl
1070
-26105
1071
-1023410177
1000
$$NoName$$
  0
SPLINE
  5
54E3
330
A
100
AcDbEntity
  8
001
370
     9
100
AcDbSpline
210
0.0
220
0.0
230
1.0
 70
    11
 71
     3
 72
    17
 73
    13
 74
     0
 42
0.0000000001
 43
0.0000000001
 40
0.0
 40
0.0
 40
0.0
 40
0.0
 40
1.0
 40
1.0
 40
1.0
 40
2.0
 40
2.0
 40
2.0
 40
3.0
 40
3.0
 40
3.0
 40
4.0
 40
4.0
 40
4.0
 40
4.0
 10
157.270474313937
 20
-51.88972946992411
 30
0.0
 10
157.270474313937
 20
-51.88748946736188
 30
0.0
 10
157.2686480676155
 20
-51.88566425456971
 30
0.0
 10
157.2664032419164
 20
-51.88566425456971
 30
0.0
 10
157.2641494589631
 20
-51.88566425456971
 30
0.0
 10
157.2623270022492
 20
-51.88748946736188
 30
0.0
 10
157.2623270022492
 20
-51.88972946992411
 30
0.0
 10
157.2623270022492
 20
-51.89198394189691
 30
0.0
 10
157.2641494589631
 20
-51.8938160448846
 30
0.0
 10
157.2664032419164
 20
-51.8938160448846
 30
0.0
 10
157.2686480676155
 20
-51.8938160448846
 30
0.0
 10
157.270474313937
 20
-51.89198394189691
 30
0.0
 10
157.270474313937
 20
-51.88972946992411
 30
0.0
1001
ACAD
1000
RTTcAl
1070
-26105
1071
-1023410177
1000
$$NoName$$
  0
SPLINE
  5
54E5
330
A
100
AcDbEntity
  8
001
370
     9
100
AcDbSpline
210
0.0
220
0.0
230
1.0
 70
    11
 71
     3
 72
    17
 73
    13
 74
     0
 42
0.0000000001
 43
0.0000000001
 40
0.0
 40
0.0
 40
0.0
 40
0.0
 40
1.0
 40
1.0
 40
1.0
 40
2.0
 40
2.0
 40
2.0
 40
3.0
 40
3.0
 40
3.0
 40
4.0
 40
4.0
 40
4.0
 40
4.0
 10
157.1992462287716
 20
-51.76815128102615
 30
0.0
 10
157.1992462287716
 20
-51.7664624941052
 30
0.0
 10
157.1978816255497
 20
-51.76509685735394
 30
0.0
 10
157.1961921496091
 20
-51.76509685735394
 30
0.0
 10
157.1945040517078
 20
-51.76509685735394
 30
0.0
 10
157.1931325582903
 20
-51.7664624941052
 30
0.0
 10
157.1931325582903
 20
-51.76815128102615
 30
0.0
 10
157.1931325582903
 20
-51.76983800088844
 30
0.0
 10
157.1945040517078
 20
-51.77120363763971
 30
0.0
 10
157.1961921496091
 20
-51.77120363763971
 30
0.0
 10
157.1978816255497
 20
-51.77120363763971
 30
0.0
 10
157.1992462287716
 20
-51.76983800088844
 30
0.0
 10
157.1992462287716
 20
-51.76815128102615
 30
0.0
1001
ACAD
1000
RTTcAl
1070
-26105
1071
-1023410177
1000
$$NoName$$
  0
SPLINE
  5
54E6
330
A
100
AcDbEntity
  8
001
370
     9
100
AcDbSpline
210
0.0
220
0.0
230
1.0
 70
    11
 71
     3
 72
    17
 73
    13
 74
     0
 42
0.0000000001
 43
0.0000000001
 40
0.0
 40
0.0
 40
0.0
 40
0.0
 40
1.0
 40
1.0
 40
1.0
 40
2.0
 40
2.0
 40
2.0
 40
3.0
 40
3.0
 40
3.0
 40
4.0
 40
4.0
 40
4.0
 40
4.0
 10
157.2015654685822
 20
-51.76815128102615
 30
0.0
 10
157.2015654685822
 20
-51.76517747264148
 30
0.0
 10
157.199164235445
 20
-51.76276934930867
 30
0.0
 10
157.1961918050994
 20
-51.76276934930867
 30
0.0
 10
157.193228332008
 20
-51.76276934930867
 30
0.0
 10
157.1908181416165
 20
-51.76517747264148
 30
0.0
 10
157.1908181416165
 20
-51.76815128102615
 30
0.0
 10
157.1908181416165
 20
-51.771114065098
 30
0.0
 10
157.193228332008
 20
-51.77351116411799
 30
0.0
 10
157.1961918050994
 20
-51.77351116411799
 30
0.0
 10
157.199164235445
 20
-51.77351116411799
 30
0.0
 10
157.2015654685822
 20
-51.771114065098
 30
0.0
 10
157.2015654685822
 20
-51.76815128102615
 30
0.0
1001
ACAD
1000
RTTcAl
1070
-26105
1071
-1023410177
1000
$$NoName$$
  0
SPLINE
  5
54E7
330
A
100
AcDbEntity
  8
001
370
     9
100
AcDbSpline
210
0.0
220
0.0
230
1.0
 70
    11
 71
     3
 72
    17
 73
    13
 74
     0
 42
0.0000000001
 43
0.0000000001
 40
0.0
 40
0.0
 40
0.0
 40
0.0
 40
1.0
 40
1.0
 40
1.0
 40
2.0
 40
2.0
 40
2.0
 40
3.0
 40
3.0
 40
3.0
 40
4.0
 40
4.0
 40
4.0
 40
4.0
 10
157.3020300313608
 20
-51.87092750440026
 30
0.0
 10
157.3020300313608
 20
-51.86923733944021
 30
0.0
 10
157.3006623275508
 20
-51.86787308072806
 30
0.0
 10
157.2989742296495
 20
-51.86787308072806
 30
0.0
 10
157.2972819976308
 20
-51.86787308072806
 30
0.0
 10
157.2959146383306
 20
-51.86923733944021
 30
0.0
 10
157.2959146383306
 20
-51.87092750440026
 30
0.0
 10
157.2959146383306
 20
-51.8726094011257
 30
0.0
 10
157.2972819976308
 20
-51.87397710493561
 30
0.0
 10
157.2989742296495
 20
-51.87397710493561
 30
0.0
 10
157.3006623275508
 20
-51.87397710493561
 30
0.0
 10
157.3020300313608
 20
-51.8726094011257
 30
0.0
 10
157.3020300313608
 20
-51.87092750440026
 30
0.0
1001
ACAD
1000
RTTcAl
1070
-26105
1071
-1023410177
1000
$$NoName$$
  0
SPLINE
  5
54E8
330
A
100
AcDbEntity
  8
001
370
     9
100
AcDbSpline
210
0.0
220
0.0
230
1.0
 70
    11
 71
     3
 72
    17
 73
    13
 74
     0
 42
0.0000000001
 43
0.0000000001
 40
0.0
 40
0.0
 40
0.0
 40
0.0
 40
1.0
 40
1.0
 40
1.0
 40
2.0
 40
2.0
 40
2.0
 40
3.0
 40
3.0
 40
3.0
 40
4.0
 40
4.0
 40
4.0
 40
4.0
 10
157.1992462287716
 20
-51.87092750440026
 30
0.0
 10
157.1992462287716
 20
-51.86923733944021
 30
0.0
 10
157.1978816255497
 20
-51.86787308072806
 30
0.0
 10
157.1961921496091
 20
-51.86787308072806
 30
0.0
 10
157.1945040517078
 20
-51.86787308072806
 30
0.0
 10
157.1931325582903
 20
-51.86923733944021
 30
0.0
 10
157.1931325582903
 20
-51.87092750440026
 30
0.0
 10
157.1931325582903
 20
-51.8726094011257
 30
0.0
 10
157.1945040517078
 20
-51.87397710493561
 30
0.0
 10
157.1961921496091
 20
-51.87397710493561
 30
0.0
 10
157.1978816255497
 20
-51.87397710493561
 30
0.0
 10
157.1992462287716
 20
-51.8726094011257
 30
0.0
 10
157.1992462287716
 20
-51.87092750440026
 30
0.0
1001
ACAD
1000
RTTcAl
1070
-26105
1071
-1023410177
1000
$$NoName$$
  0
SPLINE
  5
54E9
330
A
100
AcDbEntity
  8
001
370
     9
100
AcDbSpline
210
0.0
220
0.0
230
1.0
 70
    11
 71
     3
 72
    17
 73
    13
 74
     0
 42
0.0000000001
 43
0.0000000001
 40
0.0
 40
0.0
 40
0.0
 40
0.0
 40
1.0
 40
1.0
 40
1.0
 40
2.0
 40
2.0
 40
2.0
 40
3.0
 40
3.0
 40
3.0
 40
4.0
 40
4.0
 40
4.0
 40
4.0
 10
157.2015654685822
 20
-51.87092750440026
 30
0.0
 10
157.2015654685822
 20
-51.86795300699603
 30
0.0
 10
157.199164235445
 20
-51.86554350562412
 30
0.0
 10
157.1961918050994
 20
-51.86554350562412
 30
0.0
 10
157.193228332008
 20
-51.86554350562412
 30
0.0
 10
157.1908181416165
 20
-51.86795300699603
 30
0.0
 10
157.1908181416165
 20
-51.87092750440026
 30
0.0
 10
157.1908181416165
 20
-51.873888910433
 30
0.0
 10
157.193228332008
 20
-51.87630599101999
 30
0.0
 10
157.1961918050994
 20
-51.87630599101999
 30
0.0
 10
157.199164235445
 20
-51.87630599101999
 30
0.0
 10
157.2015654685822
 20
-51.873888910433
 30
0.0
 10
157.2015654685822
 20
-51.87092750440026
 30
0.0
1001
ACAD
1000
RTTcAl
1070
-26105
1071
-1023410177
1000
$$NoName$$
  0
SPLINE
  5
54EA
330
A
100
AcDbEntity
  8
001
370
     9
100
AcDbSpline
210
0.0
220
0.0
230
1.0
 70
    11
 71
     3
 72
    17
 73
    13
 74
     0
 42
0.0000000001
 43
0.0000000001
 40
0.0
 40
0.0
 40
0.0
 40
0.0
 40
1.0
 40
1.0
 40
1.0
 40
2.0
 40
2.0
 40
2.0
 40
3.0
 40
3.0
 40
3.0
 40
4.0
 40
4.0
 40
4.0
 40
4.0
 10
157.2530386741839
 20
-51.89221338540759
 30
0.0
 10
157.2530386741839
 20
-51.88920236996714
 30
0.0
 10
157.2505988559517
 20
-51.88676599683271
 30
0.0
 10
157.2475930081579
 20
-51.88676599683271
 30
0.0
 10
157.2445788921295
 20
-51.88676599683271
 30
0.0
 10
157.2421273605649
 20
-51.88920236996714
 30
0.0
 10
157.2421273605649
 20
-51.89221338540759
 30
0.0
 10
157.2421273605649
 20
-51.89522302280895
 30
0.0
 10
157.2445788921295
 20
-51.89766835319755
 30
0.0
 10
157.2475930081579
 20
-51.89766835319755
 30
0.0
 10
157.2505988559517
 20
-51.89766835319755
 30
0.0
 10
157.2530386741839
 20
-51.89522302280895
 30
0.0
 10
157.2530386741839
 20
-51.89221338540759
 30
0.0
1001
ACAD
1000
RTTcAl
1070
-26105
1071
-1023410177
1000
$$NoName$$
  0
SPLINE
  5
54EB
330
A
100
AcDbEntity
  8
001
370
     9
100
AcDbSpline
210
0.0
220
0.0
230
1.0
 70
    11
 71
     3
 72
    17
 73
    13
 74
     0
 42
0.0000000001
 43
0.0000000001
 40
0.0
 40
0.0
 40
0.0
 40
0.0
 40
1.0
 40
1.0
 40
1.0
 40
2.0
 40
2.0
 40
2.0
 40
3.0
 40
3.0
 40
3.0
 40
4.0
 40
4.0
 40
4.0
 40
4.0
 10
157.2990303847429
 20
-51.87092750440026
 30
0.0
 10
157.2990303847429
 20
-51.87095162008457
 30
0.0
 10
157.2990042019999
 20
-51.87097435772977
 30
0.0
 10
157.298974918669
 20
-51.87097435772977
 30
0.0
 10
157.2989452908283
 20
-51.87097435772977
 30
0.0
 10
157.2989256537711
 20
-51.87095162008457
 30
0.0
 10
157.2989256537711
 20
-51.87092750440026
 30
0.0
 10
157.2989256537711
 20
-51.87090201067686
 30
0.0
 10
157.2989452908283
 20
-51.87087031577748
 30
0.0
 10
157.298974918669
 20
-51.87087031577748
 30
0.0
 10
157.2990042019999
 20
-51.87087031577748
 30
0.0
 10
157.2990303847429
 20
-51.87090201067686
 30
0.0
 10
157.2990303847429
 20
-51.87092750440026
 30
0.0
1001
ACAD
1000
RTTcAl
1070
-26105
1071
-1023410177
1000
$$NoName$$
  0
SPLINE
  5
54F0
330
A
100
AcDbEntity
  8
001
370
     9
100
AcDbSpline
210
0.0
220
0.0
230
1.0
 70
    11
 71
     3
 72
    17
 73
    13
 74
     0
 42
0.0000000001
 43
0.0000000001
 40
0.0
 40
0.0
 40
0.0
 40
0.0
 40
1.0
 40
1.0
 40
1.0
 40
2.0
 40
2.0
 40
2.0
 40
3.0
 40
3.0
 40
3.0
 40
4.0
 40
4.0
 40
4.0
 40
4.0
 10
157.1962421035266
 20
-51.76815128102615
 30
0.0
 10
157.1962421035266
 20
-51.7681705735736
 30
0.0
 10
157.1962183323521
 20
-51.76820226847297
 30
0.0
 10
157.1961921496091
 20
-51.76820226847297
 30
0.0
 10
157.1961638998075
 20
-51.76820226847297
 30
0.0
 10
157.1961477078481
 20
-51.7681705735736
 30
0.0
 10
157.1961477078481
 20
-51.76815128102615
 30
0.0
 10
157.1961477078481
 20
-51.76811751906813
 30
0.0
 10
157.1961638998075
 20
-51.76809960455979
 30
0.0
 10
157.1961921496091
 20
-51.76809960455979
 30
0.0
 10
157.1962183323521
 20
-51.76809960455979
 30
0.0
 10
157.1962421035266
 20
-51.76811751906813
 30
0.0
 10
157.1962421035266
 20
-51.76815128102615
 30
0.0
1001
ACAD
1000
RTTcAl
1070
-26105
1071
-1023410177
1000
$$NoName$$
  0
LINE
  5
54F1
330
A
100
AcDbEntity
  8
001
370
     9
100
AcDbLine
 10
157.3003284975781
 20
-51.87092750440026
 30
0.0
 11
157.3546501100061
 21
-51.87092750440026
 31
0.0
1001
ACAD
1000
RTTcAl
1070
-26105
1071
-1023410177
1000
$$NoName$$
  0
SPLINE
  5
54F2
330
A
100
AcDbEntity
  8
001
370
     9
100
AcDbSpline
210
0.0
220
0.0
230
1.0
 70
     8
 71
     3
 72
     8
 73
     4
 74
     0
 42
0.0000000001
 43
0.0000000001
 40
0.0
 40
0.0
 40
0.0
 40
0.0
 40
1.0
 40
1.0
 40
1.0
 40
1.0
 10
157.2509850514104
 20
-51.89962379068497
 30
0.0
 10
157.2550681812731
 20
-51.89774345632867
 30
0.0
 10
157.2568765130863
 20
-51.89290722809605
 30
0.0
 10
157.25499617873
 20
-51.88881445195959
 30
0.0
1001
ACAD
1000
RTTcAl
1070
-26105
1071
-1023410177
1000
$$NoName$$
  0
SPLINE
  5
54F3
330
A
100
AcDbEntity
  8
001
370
     9
100
AcDbSpline
210
0.0
220
0.0
230
1.0
 70
     8
 71
     3
 72
     8
 73
     4
 74
     0
 42
0.0000000001
 43
0.0000000001
 40
1.0
 40
1.0
 40
1.0
 40
1.0
 40
2.0
 40
2.0
 40
2.0
 40
2.0
 10
157.25499617873
 20
-51.88881445195959
 30
0.0
 10
157.2531179114324
 20
-51.88471960876448
 30
0.0
 10
157.2482823722193
 20
-51.88292609087168
 30
0.0
 10
157.2441858064753
 20
-51.88479540091515
 30
0.0
1001
ACAD
1000
RTTcAl
1070
-26105
1071
-1023410177
1000
$$NoName$$
  0
SPLINE
  5
54F4
330
A
100
AcDbEntity
  8
001
370
     9
100
AcDbSpline
210
0.0
220
0.0
230
1.0
 70
     8
 71
     3
 72
     8
 73
     4
 74
     0
 42
0.0000000001
 43
0.0000000001
 40
2.0
 40
2.0
 40
2.0
 40
2.0
 40
3.0
 40
3.0
 40
3.0
 40
3.0
 10
157.2441858064753
 20
-51.88479540091515
 30
0.0
 10
157.2400875181824
 20
-51.88667849134965
 30
0.0
 10
157.2382940002896
 20
-51.89152023173869
 30
0.0
 10
157.2401677889602
 20
-51.89560611767963
 30
0.0
1001
ACAD
1000
RTTcAl
1070
-26105
1071
-1023410177
1000
$$NoName$$
  0
SPLINE
  5
54F5
330
A
100
AcDbEntity
  8
001
370
     9
100
AcDbSpline
210
0.0
220
0.0
230
1.0
 70
     8
 71
     3
 72
     8
 73
     4
 74
     0
 42
0.0000000001
 43
0.0000000001
 40
3.0
 40
3.0
 40
3.0
 40
3.0
 40
4.0
 40
4.0
 40
4.0
 40
4.0
 10
157.2401677889602
 20
-51.89560611767963
 30
0.0
 10
157.240987033207
 20
-51.89738585518139
 30
0.0
 10
157.2424115811299
 20
-51.8988135036923
 30
0.0
 10
157.2441858064753
 20
-51.89962379068497
 30
0.0
1001
ACAD
1000
RTTcAl
1070
-26105
1071
-1023410177
1000
$$NoName$$
  0
LINE
  5
54F6
330
A
100
AcDbEntity
  8
001
370
     9
100
AcDbLine
 10
157.2441889070633
 20
-51.89962379068497
 30
0.0
 11
157.2441889070633
 21
-51.90104041488304
 31
0.0
1001
ACAD
1000
RTTcAl
1070
-26105
1071
-1023410177
1000
$$NoName$$
  0
LINE
  5
54F7
330
A
100
AcDbEntity
  8
001
370
     9
100
AcDbLine
 10
157.2509850514104
 20
-51.90103214664842
 30
0.0
 11
157.2509850514104
 21
-51.89962310166541
 31
0.0
1001
ACAD
1000
RTTcAl
1070
-26105
1071
-1023410177
1000
$$NoName$$
  0
LINE
  5
54F8
330
A
100
AcDbEntity
  8
001
370
     9
100
AcDbLine
 10
157.2509850514104
 20
-51.90118028585201
 30
0.0
 11
157.2509850514104
 21
-51.90104041488304
 31
0.0
1001
ACAD
1000
RTTcAl
1070
-26105
1071
-1023410177
1000
$$NoName$$
  0
LINE
  5
54F9
330
A
100
AcDbEntity
  8
001
370
     9
100
AcDbLine
 10
157.2441889070633
 20
-51.90103214664842
 30
0.0
 11
157.2441889070633
 21
-51.90117201761739
 31
0.0
1001
ACAD
1000
RTTcAl
1070
-26105
1071
-1023410177
1000
$$NoName$$
  0
LINE
  5
54FA
330
A
100
AcDbEntity
  8
001
370
     9
100
AcDbLine
 10
157.2407348520511
 20
-51.89792053435343
 30
0.0
 11
157.2407348520511
 21
-51.90064353962132
 31
0.0
1001
ACAD
1000
RTTcAl
1070
-26105
1071
-1023410177
1000
$$NoName$$
  0
LINE
  5
54FB
330
A
100
AcDbEntity
  8
001
370
     9
100
AcDbLine
 10
157.240790318125
 20
-51.89774345632867
 30
0.0
 11
157.2407276173459
 21
-51.89792053435343
 31
0.0
1001
ACAD
1000
RTTcAl
1070
-26105
1071
-1023410177
1000
$$NoName$$
  0
LINE
  5
54FC
330
A
100
AcDbEntity
  8
001
370
     9
100
AcDbLine
 10
157.2407348520511
 20
-51.90064216158222
 30
0.0
 11
157.2407348520511
 21
-51.90065732001236
 31
0.0
1001
ACAD
1000
RTTcAl
1070
-26105
1071
-1023410177
1000
$$NoName$$
  0
LINE
  5
54FD
330
A
100
AcDbEntity
  8
001
370
     9
100
AcDbLine
 10
157.2407348520511
 20
-51.90065732001236
 30
0.0
 11
157.2407348520511
 21
-51.90066558824697
 31
0.0
1001
ACAD
1000
RTTcAl
1070
-26105
1071
-1023410177
1000
$$NoName$$
  0
LINE
  5
54FE
330
A
100
AcDbEntity
  8
001
370
     9
100
AcDbLine
 10
157.2407348520511
 20
-51.90066558824697
 30
0.0
 11
157.2407348520511
 21
-51.90068005765755
 31
0.0
1001
ACAD
1000
RTTcAl
1070
-26105
1071
-1023410177
1000
$$NoName$$
  0
LINE
  5
54FF
330
A
100
AcDbEntity
  8
001
370
     9
100
AcDbLine
 10
157.2407348520511
 20
-51.90068005765755
 30
0.0
 11
157.2407451873444
 21
-51.90068694785307
 31
0.0
1001
ACAD
1000
RTTcAl
1070
-26105
1071
-1023410177
1000
$$NoName$$
  0
LINE
  5
5500
330
A
100
AcDbEntity
  8
001
370
     9
100
AcDbLine
 10
157.2407451873444
 20
-51.90068694785307
 30
0.0
 11
157.2407541445986
 21
-51.90069039295083
 31
0.0
1001
ACAD
1000
RTTcAl
1070
-26105
1071
-1023410177
1000
$$NoName$$
  0
LINE
  5
5501
330
A
100
AcDbEntity
  8
001
370
     9
100
AcDbLine
 10
157.2407541445986
 20
-51.90069039295083
 30
0.0
 11
157.2407541445986
 21
-51.90070417334187
 31
0.0
1001
ACAD
1000
RTTcAl
1070
-26105
1071
-1023410177
1000
$$NoName$$
  0
LINE
  5
5502
330
A
100
AcDbEntity
  8
001
370
     9
100
AcDbLine
 10
157.2407541445986
 20
-51.90070417334187
 30
0.0
 11
157.2407586232257
 21
-51.90071175255693
 31
0.0
1001
ACAD
1000
RTTcAl
1070
-26105
1071
-1023410177
1000
$$NoName$$
  0
LINE
  5
5503
330
A
100
AcDbEntity
  8
001
370
     9
100
AcDbLine
 10
157.2407586232257
 20
-51.90071175255693
 30
0.0
 11
157.2407586232257
 21
-51.90071795373289
 31
0.0
1001
ACAD
1000
RTTcAl
1070
-26105
1071
-1023410177
1000
$$NoName$$
  0
LINE
  5
5504
330
A
100
AcDbEntity
  8
001
370
     9
100
AcDbLine
 10
157.2407586232257
 20
-51.90071795373289
 30
0.0
 11
157.2407644798919
 21
-51.90072484392841
 31
0.0
1001
ACAD
1000
RTTcAl
1070
-26105
1071
-1023410177
1000
$$NoName$$
  0
LINE
  5
5505
330
A
100
AcDbEntity
  8
001
370
     9
100
AcDbLine
 10
157.2407644798919
 20
-51.90072484392841
 30
0.0
 11
157.2407644798919
 21
-51.90073380118258
 31
0.0
1001
ACAD
1000
RTTcAl
1070
-26105
1071
-1023410177
1000
$$NoName$$
  0
LINE
  5
5506
330
A
100
AcDbEntity
  8
001
370
     9
100
AcDbLine
 10
157.2407644798919
 20
-51.90073380118258
 30
0.0
 11
157.2407644798919
 21
-51.90075378274958
 31
0.0
1001
ACAD
1000
RTTcAl
1070
-26105
1071
-1023410177
1000
$$NoName$$
  0
LINE
  5
5507
330
A
100
AcDbEntity
  8
001
370
     9
100
AcDbLine
 10
157.2407644798919
 20
-51.90075378274958
 30
0.0
 11
157.2407686140092
 21
-51.90075378274958
 31
0.0
1001
ACAD
1000
RTTcAl
1070
-26105
1071
-1023410177
1000
$$NoName$$
  0
LINE
  5
5508
330
A
100
AcDbEntity
  8
001
370
     9
100
AcDbLine
 10
157.2407686140092
 20
-51.90075378274958
 30
0.0
 11
157.2407748151851
 21
-51.90077376431657
 31
0.0
1001
ACAD
1000
RTTcAl
1070
-26105
1071
-1023410177
1000
$$NoName$$
  0
LINE
  5
5509
330
A
100
AcDbEntity
  8
001
370
     9
100
AcDbLine
 10
157.2407748151851
 20
-51.90077376431657
 30
0.0
 11
157.2407748151851
 21
-51.90077996549254
 31
0.0
1001
ACAD
1000
RTTcAl
1070
-26105
1071
-1023410177
1000
$$NoName$$
  0
LINE
  5
550A
330
A
100
AcDbEntity
  8
001
370
     9
100
AcDbLine
 10
157.2407748151851
 20
-51.90077996549254
 30
0.0
 11
157.2407834279295
 21
-51.90079581294222
 31
0.0
1001
ACAD
1000
RTTcAl
1070
-26105
1071
-1023410177
1000
$$NoName$$
  0
LINE
  5
550B
330
A
100
AcDbEntity
  8
001
370
     9
100
AcDbLine
 10
157.2407834279295
 20
-51.90079581294222
 30
0.0
 11
157.240790318125
 21
-51.90079581294222
 31
0.0
1001
ACAD
1000
RTTcAl
1070
-26105
1071
-1023410177
1000
$$NoName$$
  0
LINE
  5
550C
330
A
100
AcDbEntity
  8
001
370
     9
100
AcDbLine
 10
157.240790318125
 20
-51.90079581294222
 30
0.0
 11
157.240790318125
 21
-51.9008061482355
 31
0.0
1001
ACAD
1000
RTTcAl
1070
-26105
1071
-1023410177
1000
$$NoName$$
  0
LINE
  5
550D
330
A
100
AcDbEntity
  8
001
370
     9
100
AcDbLine
 10
157.240790318125
 20
-51.9008061482355
 30
0.0
 11
157.240793418713
 21
-51.90082130666564
 31
0.0
1001
ACAD
1000
RTTcAl
1070
-26105
1071
-1023410177
1000
$$NoName$$
  0
LINE
  5
550E
330
A
100
AcDbEntity
  8
001
370
     9
100
AcDbLine
 10
157.240793418713
 20
-51.90082130666564
 30
0.0
 11
157.240793418713
 21
-51.90083164195891
 31
0.0
1001
ACAD
1000
RTTcAl
1070
-26105
1071
-1023410177
1000
$$NoName$$
  0
LINE
  5
550F
330
A
100
AcDbEntity
  8
001
370
     9
100
AcDbLine
 10
157.1662890455798
 20
-51.82633209196257
 30
0.0
 11
157.1693772312101
 21
-51.82633209196257
 31
0.0
1001
ACAD
1000
RTTcAl
1070
-26105
1071
-1023410177
1000
$$NoName$$
  0
LINE
  5
5510
330
A
100
AcDbEntity
  8
001
370
     9
100
AcDbLine
 10
157.1692039427929
 20
-51.82638445744849
 30
0.0
 11
157.1693775757198
 21
-51.82632520176706
 31
0.0
1001
ACAD
1000
RTTcAl
1070
-26105
1071
-1023410177
1000
$$NoName$$
  0
LINE
  5
5511
330
A
100
AcDbEntity
  8
001
370
     9
100
AcDbLine
 10
157.1662890455798
 20
-51.82633209196257
 30
0.0
 11
157.1663038595002
 21
-51.82633209196257
 31
0.0
1001
ACAD
1000
RTTcAl
1070
-26105
1071
-1023410177
1000
$$NoName$$
  0
LINE
  5
5512
330
A
100
AcDbEntity
  8
001
370
     9
100
AcDbLine
 10
157.1663038595002
 20
-51.82633209196257
 30
0.0
 11
157.1663131612641
 21
-51.82633622607989
 31
0.0
1001
ACAD
1000
RTTcAl
1070
-26105
1071
-1023410177
1000
$$NoName$$
  0
LINE
  5
5513
330
A
100
AcDbEntity
  8
001
370
     9
100
AcDbLine
 10
157.1663131612641
 20
-51.82633622607989
 30
0.0
 11
157.1663231520476
 21
-51.82633622607989
 31
0.0
1001
ACAD
1000
RTTcAl
1070
-26105
1071
-1023410177
1000
$$NoName$$
  0
LINE
  5
5514
330
A
100
AcDbEntity
  8
001
370
     9
100
AcDbLine
 10
157.1663231520476
 20
-51.82633622607989
 30
0.0
 11
157.1663279751845
 21
-51.82635000647092
 31
0.0
1001
ACAD
1000
RTTcAl
1070
-26105
1071
-1023410177
1000
$$NoName$$
  0
LINE
  5
5515
330
A
100
AcDbEntity
  8
001
370
     9
100
AcDbLine
 10
157.1663279751845
 20
-51.82635000647092
 30
0.0
 11
157.166337965968
 21
-51.82635000647092
 31
0.0
1001
ACAD
1000
RTTcAl
1070
-26105
1071
-1023410177
1000
$$NoName$$
  0
LINE
  5
5516
330
A
100
AcDbEntity
  8
001
370
     9
100
AcDbLine
 10
157.166337965968
 20
-51.82635000647092
 30
0.0
 11
157.1663531243981
 21
-51.82635689666643
 31
0.0
1001
ACAD
1000
RTTcAl
1070
-26105
1071
-1023410177
1000
$$NoName$$
  0
LINE
  5
5517
330
A
100
AcDbEntity
  8
001
370
     9
100
AcDbLine
 10
157.1663531243981
 20
-51.82635689666643
 30
0.0
 11
157.1663682828283
 21
-51.82635689666643
 31
0.0
1001
ACAD
1000
RTTcAl
1070
-26105
1071
-1023410177
1000
$$NoName$$
  0
LINE
  5
5518
330
A
100
AcDbEntity
  8
001
370
     9
100
AcDbLine
 10
157.1663682828283
 20
-51.82635689666643
 30
0.0
 11
157.1663734504749
 21
-51.82636103078374
 31
0.0
1001
ACAD
1000
RTTcAl
1070
-26105
1071
-1023410177
1000
$$NoName$$
  0
LINE
  5
5519
330
A
100
AcDbEntity
  8
001
370
     9
100
AcDbLine
 10
157.1663734504749
 20
-51.82636103078374
 30
0.0
 11
157.1663879198855
 21
-51.82636103078374
 31
0.0
1001
ACAD
1000
RTTcAl
1070
-26105
1071
-1023410177
1000
$$NoName$$
  0
LINE
  5
551A
330
A
100
AcDbEntity
  8
001
370
     9
100
AcDbLine
 10
157.1663879198855
 20
-51.82636103078374
 30
0.0
 11
157.1663982551788
 21
-51.82637205509657
 31
0.0
1001
ACAD
1000
RTTcAl
1070
-26105
1071
-1023410177
1000
$$NoName$$
  0
LINE
  5
551B
330
A
100
AcDbEntity
  8
001
370
     9
100
AcDbLine
 10
157.1663982551788
 20
-51.82637205509657
 30
0.0
 11
157.1664182367458
 21
-51.82637205509657
 31
0.0
1001
ACAD
1000
RTTcAl
1070
-26105
1071
-1023410177
1000
$$NoName$$
  0
LINE
  5
551C
330
A
100
AcDbEntity
  8
001
370
     9
100
AcDbLine
 10
157.1664182367458
 20
-51.82637205509657
 30
0.0
 11
157.1664289165488
 21
-51.82638239038984
 31
0.0
1001
ACAD
1000
RTTcAl
1070
-26105
1071
-1023410177
1000
$$NoName$$
  0
LINE
  5
551D
330
A
100
AcDbEntity
  8
001
370
     9
100
AcDbLine
 10
157.1664289165488
 20
-51.82638239038984
 30
0.0
 11
157.1664475200767
 21
-51.82638239038984
 31
0.0
1001
ACAD
1000
RTTcAl
1070
-26105
1071
-1023410177
1000
$$NoName$$
  0
LINE
  5
551E
330
A
100
AcDbEntity
  8
001
370
     9
100
AcDbLine
 10
157.1664475200767
 20
-51.82638239038984
 30
0.0
 11
157.1664557883113
 21
-51.82638859156581
 31
0.0
1001
ACAD
1000
RTTcAl
1070
-26105
1071
-1023410177
1000
$$NoName$$
  0
LINE
  5
551F
330
A
100
AcDbEntity
  8
001
370
     9
100
AcDbLine
 10
157.1664557883113
 20
-51.82638859156581
 30
0.0
 11
157.1664788704663
 21
-51.82638859156581
 31
0.0
1001
ACAD
1000
RTTcAl
1070
-26105
1071
-1023410177
1000
$$NoName$$
  0
LINE
  5
5520
330
A
100
AcDbEntity
  8
001
370
     9
100
AcDbLine
 10
157.2794384583032
 20
-51.89444580875475
 30
0.0
 11
157.2783821913306
 21
-51.89194053366517
 31
0.0
1001
ACAD
1000
RTTcAl
1070
-26105
1071
-1023410177
1000
$$NoName$$
  0
LINE
  5
5521
330
A
100
AcDbEntity
  8
001
370
     9
100
AcDbLine
 10
157.2783821913306
 20
-51.8919357105283
 30
0.0
 11
157.2782619574188
 21
-51.89179170544202
 31
0.0
1001
ACAD
1000
RTTcAl
1070
-26105
1071
-1023410177
1000
$$NoName$$
  0
LINE
  5
5522
330
A
100
AcDbEntity
  8
001
370
     9
100
AcDbLine
 10
157.279466363595
 20
-51.89462633187726
 30
0.0
 11
157.2794391473227
 21
-51.89444580875475
 31
0.0
1001
ACAD
1000
RTTcAl
1070
-26105
1071
-1023410177
1000
$$NoName$$
  0
LINE
  5
5523
330
A
100
AcDbEntity
  8
001
370
     9
100
AcDbLine
 10
157.1790551998318
 20
-52.05258679879865
 30
0.0
 11
157.1790551998318
 21
-51.9670195277451
 31
0.0
1001
ACAD
1000
RTTcAl
1070
-26105
1071
-1023410177
1000
$$NoName$$
  0
LINE
  5
5524
330
A
100
AcDbEntity
  8
001
370
     5
100
AcDbLine
 10
157.6071510774349
 20
-52.08666639483994
 30
0.0
 11
157.6071510774349
 21
-52.08661678543222
 31
0.0
1001
ACAD
1000
RTTcAl
1070
-25862
1071
-1037953260
1000
$$NoName$$
  0
LINE
  5
5525
330
A
100
AcDbEntity
  8
001
370
     9
100
AcDbLine
 10
157.6019999672672
 20
-52.1234720967371
 30
0.0
 11
157.6200591697144
 21
-52.1234720967371
 31
0.0
1001
ACAD
1000
RTTcAl
1070
-25862
1071
-1037953260
1000
$$NoName$$
  0
ENDSEC
  0
SECTION
  2
OBJECTS
  0
DICTIONARY
  5
19
330
0
100
AcDbDictionary
281
     1
  3
ACAD_COLOR
350
7BF
  3
ACAD_GROUP
350
1A
  3
ACAD_LAYOUT
350
105
  3
ACAD_MATERIAL
350
7AA
  3
ACAD_MLINESTYLE
350
1B
  3
ACAD_PLOTSETTINGS
350
106
  3
ACAD_PLOTSTYLENAME
350
76F
  3
ACAD_TABLESTYLE
350
7C0
  3
ACAD_VISUALSTYLE
350
7AE
  3
AcDbVariableDictionary
350
7A7
  3
DWGPROPS
350
83C
1001
ACAD
1000
TREAT_AS_HARD
1070
     0
  0
DICTIONARY
  5
802
330
7
100
AcDbDictionary
280
     1
281
     1
  3
ACAD_XREC_ROUNDTRIP
360
803
  0
DICTIONARY
  5
C88
330
2
100
AcDbDictionary
280
     1
281
     1
  3
ACAD_LAYERFILTERS
360
C93
  3
ACAD_LAYERSTATES
360
C89
  0
DICTIONARY
  5
806
330
14
100
AcDbDictionary
280
     1
281
     1
  3
ACAD_XREC_ROUNDTRIP
360
807
  0
DICTIONARY
  5
4BD4
330
4BD3
100
AcDbDictionary
280
     1
281
     1
  3
ACAD_XREC_ROUNDTRIP
360
4BD5
  0
DICTIONARY
  5
767
330
A
100
AcDbDictionary
280
     1
281
     1
  3
ACAD_LAYOUTSELFREF
360
804
  0
DICTIONARY
  5
769
330
B
100
AcDbDictionary
280
     1
281
     1
  3
ACAD_LAYOUTSELFREF
360
805
  0
DICTIONARY
  5
7BF
102
{ACAD_REACTORS
330
19
102
}
330
19
100
AcDbDictionary
281
     1
  0
DICTIONARY
  5
1A
102
{ACAD_REACTORS
330
19
102
}
330
19
100
AcDbDictionary
281
     1
1001
ACAD
1000
TREAT_AS_HARD
1070
     0
  0
DICTIONARY
  5
105
102
{ACAD_REACTORS
330
19
102
}
330
19
100
AcDbDictionary
281
     1
  3
Model
350
771
  3
ﾚｲｱｳﾄ1
350
772
1001
ACAD
1000
TREAT_AS_HARD
1070
     0
  0
DICTIONARY
  5
7AA
102
{ACAD_REACTORS
330
19
102
}
330
19
100
AcDbDictionary
281
     1
  3
ByBlock
350
7AC
  3
ByLayer
350
7AB
  3
Global
350
7AD
  0
DICTIONARY
  5
1B
102
{ACAD_REACTORS
330
19
102
}
330
19
100
AcDbDictionary
281
     1
  3
STANDARD
350
1C
1001
ACAD
1000
TREAT_AS_HARD
1070
     0
  0
DICTIONARY
  5
106
102
{ACAD_REACTORS
330
19
102
}
330
19
100
AcDbDictionary
281
     1
1001
ACAD
1000
TREAT_AS_HARD
1070
     0
  0
ACDBDICTIONARYWDFLT
  5
76F
102
{ACAD_REACTORS
330
19
102
}
330
19
100
AcDbDictionary
281
     1
  3
Normal
350
770
100
AcDbDictionaryWithDefault
340
770
1001
ACAD
1000
TREAT_AS_HARD
1070
     0
  0
DICTIONARY
  5
7C0
102
{ACAD_REACTORS
330
19
102
}
330
19
100
AcDbDictionary
281
     1
  3
Standard
350
7C1
  0
DICTIONARY
  5
7AE
102
{ACAD_REACTORS
330
19
102
}
330
19
100
AcDbDictionary
281
     1
  3
2dWireframe
350
7B4
  3
3D Hidden
350
7B6
  3
3dWireframe
350
7B5
  3
Basic
350
7B3
  3
Brighten
350
7BA
  3
ColorChange
350
7BE
  3
Conceptual
350
7B7
  3
Dim
350
7B9
  3
Facepattern
350
7BD
  3
Flat
350
7AF
  3
FlatWithEdges
350
7B0
  3
Gouraud
350
7B1
  3
GouraudWithEdges
350
7B2
  3
Linepattern
350
7BC
  3
Realistic
350
7B8
  3
Thicken
350
7BB
  0
DICTIONARY
  5
7A7
102
{ACAD_REACTORS
330
19
102
}
330
19
100
AcDbDictionary
281
     1
  3
CTABLESTYLE
350
824
  3
DIMASSOC
350
7A8
  3
INDEXCTL
350
826
  3
PROJECTNAME
350
835
  3
SORTENTS
350
825
  0
XRECORD
  5
83C
102
{ACAD_REACTORS
330
19
102
}
330
19
100
AcDbXrecord
280
     1
  1
DWGPROPS COOKIE
  2

  3

  4

  6

  7

  8
sendai
  9

300
=
301
=
302
=
303
=
304
=
305
=
306
=
307
=
308
=
309
=
 40
0.0323558217592593
 41
2444972.375
 42
2455449.586781504
  1

 90
        0
  0
XRECORD
  5
803
102
{ACAD_REACTORS
330
802
102
}
330
802
100
AcDbXrecord
280
     1
102
VTR_0.000_0.000_1.000_1.000_VISUALSTYLE
340
7B4
102
VTR_0.000_0.000_1.000_1.000_GRIDDISPLAY
 70
     3
102
VTR_0.000_0.000_1.000_1.000_GRIDMAJOR
 70
     5
102
VTR_0.000_0.000_1.000_1.000_DEFAULTLIGHTING
280
     1
102
VTR_0.000_0.000_1.000_1.000_DEFAULTLIGHTINGTYPE
 70
     1
102
VTR_0.000_0.000_1.000_1.000_BRIGHTNESS
141
0.0
102
VTR_0.000_0.000_1.000_1.000_CONTRAST
142
0.0
  0
DICTIONARY
  5
C93
102
{ACAD_REACTORS
330
C88
102
}
330
C88
100
AcDbDictionary
280
     1
281
     1
  0
DICTIONARY
  5
C89
102
{ACAD_REACTORS
330
C88
102
}
330
C88
100
AcDbDictionary
281
     1
  0
XRECORD
  5
807
102
{ACAD_REACTORS
330
806
102
}
330
806
100
AcDbXrecord
280
     1
102
MATERIAL
340
7AD
  0
XRECORD
  5
4BD5
102
{ACAD_REACTORS
330
4BD4
102
}
330
4BD4
100
AcDbXrecord
280
     1
102
MATERIAL
340
0
  0
XRECORD
  5
804
102
{ACAD_REACTORS
330
767
102
}
330
767
100
AcDbXrecord
280
     1
340
A
  0
XRECORD
  5
805
102
{ACAD_REACTORS
330
769
102
}
330
769
100
AcDbXrecord
280
     1
340
B
  0
LAYOUT
  5
771
102
{ACAD_XDICTIONARY
360
83E
102
}
102
{ACAD_REACTORS
330
105
102
}
330
105
100
AcDbPlotSettings
  1

  2
SHARP MX-2311FN SPDL2-c
  4
A4
  6
OLE1
 40
5.027083396911621
 41
5.027085304260253
 42
5.027084350585937
 43
5.027069091796875
 44
209.9733276367187
 45
296.9259948730469
 46
49.57
 47
94.22
 48
6721.381288999999
 49
13504.610177
140
86528.90362899999
141
70232.64859
142
100.0
143
1.0
 70
 11940
 72
     1
 73
     0
 74
     1
  7
プリンタ.ctb
 75
     0
147
100.0
148
-89.09548619083301
149
-1.996110235944854
100
AcDbLayout
  1
Model
 70
     1
 71
     0
 10
0.0
 20
0.0
 11
12.0
 21
9.0
 12
0.0
 22
0.0
 32
0.0
 14
0.0
 24
0.0
 34
0.0
 15
0.0
 25
0.0
 35
0.0
146
0.0
 13
0.0
 23
0.0
 33
0.0
 16
1.0
 26
0.0
 36
0.0
 17
0.0
 27
1.0
 37
0.0
 76
     0
330
A
  0
LAYOUT
  5
772
102
{ACAD_XDICTIONARY
360
840
102
}
102
{ACAD_REACTORS
330
105
102
}
330
105
100
AcDbPlotSettings
  1

  2
なし
  4

  6

 40
0.0
 41
0.0
 42
0.0
 43
0.0
 44
0.0
 45
0.0
 46
0.0
 47
0.0
 48
0.0
 49
0.0
140
0.0
141
0.0
142
1.0
143
1.0
 70
   688
 72
     0
 73
     0
 74
     5
  7
京セラレーザー.ctb
 75
    16
147
1.0
148
0.0
149
0.0
100
AcDbLayout
  1
ﾚｲｱｳﾄ1
 70
     0
 71
     1
 10
0.0
 20
0.0
 11
12.0
 21
9.0
 12
0.0
 22
0.0
 32
0.0
 14
1.000000000000000E+20
 24
1.000000000000000E+20
 34
1.000000000000000E+20
 15
-1.000000000000000E+20
 25
-1.000000000000000E+20
 35
-1.000000000000000E+20
146
0.0
 13
0.0
 23
0.0
 33
0.0
 16
1.0
 26
0.0
 36
0.0
 17
0.0
 27
1.0
 37
0.0
 76
     0
330
B
  0
ACAD_PROXY_OBJECT
  5
7AC
102
{ACAD_XDICTIONARY
360
81A
102
}
102
{ACAD_REACTORS
330
7AA
102
}
330
7AA
100
AcDbProxyObject
 90
      499
 91
      532
 95
   655383
 70
     0
 93
      574
310
41D096509313D0D2E004014040405AA6A9AA4060050101016A9AA6A9018000000000000E03F4040405AA6A9AA40650101016A9AA6A90190101016A9AA6A90194040405AA6A9AA400
 94
        0
  0
ACAD_PROXY_OBJECT
  5
7AB
102
{ACAD_XDICTIONARY
360
818
102
}
102
{ACAD_REACTORS
330
7AA
102
}
330
7AA
100
AcDbProxyObject
 90
      499
 91
      532
 95
   655383
 70
     0
 93
      574
310
41D0965310565154A004014040405AA6A9AA4060050101016A9AA6A9018000000000000E03F4040405AA6A9AA40650101016A9AA6A90190101016A9AA6A90194040405AA6A9AA400
 94
        0
  0
ACAD_PROXY_OBJECT
  5
7AD
102
{ACAD_XDICTIONARY
360
81C
102
}
102
{ACAD_REACTORS
330
7AA
102
}
330
7AA
100
AcDbProxyObject
 90
      499
 91
      532
 95
   655383
 70
     0
 93
      566
310
4191D313D090532004014040405AA6A9AA4060050101016A9AA6A9018000000000000E03F4040405AA6A9AA40650101016A9AA6A90190101016A9AA6A90194040405AA6A9AA400
 94
        0
  0
MLINESTYLE
  5
1C
102
{ACAD_REACTORS
330
1B
102
}
330
1B
100
AcDbMlineStyle
  2
STANDARD
 70
     0
  3

 62
     0
 51
90.00000000000019
 52
90.00000000000019
 71
     2
 49
0.5
 62
   256
  6
BYLAYER
 49
-0.5
 62
   256
  6
BYLAYER
  0
ACDBPLACEHOLDER
  5
770
102
{ACAD_REACTORS
330
76F
102
}
330
76F
  0
ACAD_PROXY_OBJECT
  5
7C1
102
{ACAD_XDICTIONARY
360
822
102
}
102
{ACAD_REACTORS
330
7C0
102
}
330
7C0
100
AcDbProxyObject
 90
      499
 91
      534
 95
   655383
 70
     0
 93
     1841
310
4214DD185B99185C9928B81E85EB51B8AE3F2E07A17AD46E2B8FC02B5E8DC0F42B1CFD028000000C1008070000C3001FDFF8000000C1003FBFF000000182007F7FE00000030400FEFFC00000060801FDFF8000000C1003FBFF00000018200000000000000681FA0B0000001820100E000186003FBFF000000182007F7FE000
310
00030400FEFFC00000060801FDFF8000000C1003FBFF000000182007F7FE000000304000AD7A3703D0AC73F4160000003040201C00030C007F7FE00000030400FEFFC00000060801FDFF8000000C1003FBFF000000182007F7FE00000030400FEFFC000000608000
340
17
340
17
340
17
 94
        0
  0
ACAD_PROXY_OBJECT
  5
7B4
102
{ACAD_REACTORS
330
7AE
102
}
330
7AE
100
AcDbProxyObject
 90
      499
 91
      533
 95
   655381
 70
     0
 93
      444
310
430C9915DA5C99599C985B59401049028333333333333E3BF0000000000000FB0107901411070040501600405405064090741402480A0340
 94
        0
1001
ACAD
1000
AcDbSavedByObjectVersion
1070
     0
1000
AcRTDxfName
1000
VISUALSTYLE
1000
AcRTDxfName
1000
VISUALSTYLE
  0
ACAD_PROXY_OBJECT
  5
7B6
102
{ACAD_REACTORS
330
7AE
102
}
330
7AE
100
AcDbProxyObject
 90
      499
 91
      533
 95
   655381
 70
     0
 93
      508
310
428CD108121A5919195B8010640502408333333333333E3BF0000000000000FB01079024090700405020000000000001110200405405064090740C02480A0340
 94
        0
1001
ACAD
1000
AcDbSavedByObjectVersion
1070
     0
1000
AcRTDxfName
1000
VISUALSTYLE
1000
AcRTDxfName
1000
VISUALSTYLE
  0
ACAD_PROXY_OBJECT
  5
7B5
102
{ACAD_REACTORS
330
7AE
102
}
330
7AE
100
AcDbProxyObject
 90
      499
 91
      533
 95
   655381
 70
     0
 93
      444
310
430CD915DA5C99599C985B59401059028333333333333E3BF0000000000000FB0107901411070040501600405405064090741402480A0340
 94
        0
1001
ACAD
1000
AcDbSavedByObjectVersion
1070
     0
1000
AcRTDxfName
1000
VISUALSTYLE
1000
AcRTDxfName
1000
VISUALSTYLE
  0
ACAD_PROXY_OBJECT
  5
7B3
102
{ACAD_REACTORS
330
7AE
102
}
330
7AE
100
AcDbProxyObject
 90
      499
 91
      533
 95
   655381
 70
     0
 93
      396
310
4190985CDA58C0107406404333333333333E3BF0000000000000FB0107A41107004050150841D405064090741402480A0356
 94
        0
1001
ACAD
1000
AcDbSavedByObjectVersion
1070
     0
1000
AcRTDxfName
1000
VISUALSTYLE
1000
AcRTDxfName
1000
VISUALSTYLE
  0
ACAD_PROXY_OBJECT
  5
7BA
102
{ACAD_REACTORS
330
7AE
102
}
330
7AE
100
AcDbProxyObject
 90
      499
 91
      533
 95
   655381
 70
     0
 93
      436
310
42509C9A59DA1D195B8010C409028333333333333E3BF0000000000000FB010790141107004050150841D405064090741402480A029956
 94
        0
1001
ACAD
1000
AcDbSavedByObjectVersion
1070
     0
1000
AcRTDxfName
1000
VISUALSTYLE
1000
AcRTDxfName
1000
VISUALSTYLE
  0
ACAD_PROXY_OBJECT
  5
7BE
102
{ACAD_REACTORS
330
7AE
102
}
330
7AE
100
AcDbProxyObject
 90
      499
 91
      533
 95
   655381
 70
     0
 93
      460
310
4310DBDB1BDC90DA185B99D9401104090240C333333333333E3BF0000000000000FB0108901411070040501508421405064090741402480A0354
 94
        0
1001
ACAD
1000
AcDbSavedByObjectVersion
1070
     0
1000
AcRTDxfName
1000
VISUALSTYLE
1000
AcRTDxfName
1000
VISUALSTYLE
  0
ACAD_PROXY_OBJECT
  5
7B7
102
{ACAD_REACTORS
330
7AE
102
}
330
7AE
100
AcDbProxyObject
 90
      499
 91
      533
 95
   655381
 70
     0
 93
      508
310
42D0DBDB98D95C1D1D585B0010940D028333333333333E3BF0000000000000FB0107902409070040501000000000000111010841D405064090740C02480A0340
 94
        0
1001
ACAD
1000
AcDbSavedByObjectVersion
1070
     0
1000
AcRTDxfName
1000
VISUALSTYLE
1000
AcRTDxfName
1000
VISUALSTYLE
  0
ACAD_PROXY_OBJECT
  5
7B9
102
{ACAD_REACTORS
330
7AE
102
}
330
7AE
100
AcDbProxyObject
 90
      499
 91
      533
 95
   655381
 70
     0
 93
      420
310
41111A5B4010B409028333333333333E3BF0000000000000FB010790141107004050150841D405064090741402480A02677FFFFFDB
 94
        0
1001
ACAD
1000
AcDbSavedByObjectVersion
1070
     0
1000
AcRTDxfName
1000
VISUALSTYLE
1000
AcRTDxfName
1000
VISUALSTYLE
  0
ACAD_PROXY_OBJECT
  5
7BD
102
{ACAD_REACTORS
330
7AE
102
}
330
7AE
100
AcDbProxyObject
 90
      499
 91
      533
 95
   655381
 70
     0
 93
      452
310
43119858D95C185D1D195C9B8010F409028333333333333E3BF0000000000000FB010790141107004050150841D405064090741402480A0350
 94
        0
1001
ACAD
1000
AcDbSavedByObjectVersion
1070
     0
1000
AcRTDxfName
1000
VISUALSTYLE
1000
AcRTDxfName
1000
VISUALSTYLE
  0
ACAD_PROXY_OBJECT
  5
7AF
102
{ACAD_REACTORS
330
7AE
102
}
330
7AE
100
AcDbProxyObject
 90
      499
 91
      533
 95
   655381
 70
     0
 93
      396
310
41519B185D00240901404333333333333E3BF0000000000000F9010740A41107004050150841D405064090741402480A1B50
 94
        0
1001
ACAD
1000
AcDbSavedByObjectVersion
1070
     0
1000
AcRTDxfName
1000
VISUALSTYLE
1000
AcRTDxfName
1000
VISUALSTYLE
  0
ACAD_PROXY_OBJECT
  5
7B0
102
{ACAD_REACTORS
330
7AE
102
}
330
7AE
100
AcDbProxyObject
 90
      499
 91
      533
 95
   655381
 70
     0
 93
      484
310
43919B185D15DA5D1A115919D95CC010140901404333333333333E3BF0000000000000F9010740901411070040501600405405064090741402480A1B50
 94
        0
1001
ACAD
1000
AcDbSavedByObjectVersion
1070
     0
1000
AcRTDxfName
1000
VISUALSTYLE
1000
AcRTDxfName
1000
VISUALSTYLE
  0
ACAD_PROXY_OBJECT
  5
7B1
102
{ACAD_REACTORS
330
7AE
102
}
330
7AE
100
AcDbProxyObject
 90
      499
 91
      533
 95
   655381
 70
     0
 93
      420
310
4211DBDD5C985D590010240902404333333333333E3BF0000000000000F9010740A411070040501641D405064090741402480A1B50
 94
        0
1001
ACAD
1000
AcDbSavedByObjectVersion
1070
     0
1000
AcRTDxfName
1000
VISUALSTYLE
1000
AcRTDxfName
1000
VISUALSTYLE
  0
ACAD_PROXY_OBJECT
  5
7B2
102
{ACAD_REACTORS
330
7AE
102
}
330
7AE
100
AcDbProxyObject
 90
      499
 91
      533
 95
   655381
 70
     0
 93
      508
310
4451DBDD5C985D5915DA5D1A115919D95CC010340902404333333333333E3BF0000000000000F9010740901411070040501600405405064090741402480A1B50
 94
        0
1001
ACAD
1000
AcDbSavedByObjectVersion
1070
     0
1000
AcRTDxfName
1000
VISUALSTYLE
1000
AcRTDxfName
1000
VISUALSTYLE
  0
ACAD_PROXY_OBJECT
  5
7BC
102
{ACAD_REACTORS
330
7AE
102
}
330
7AE
100
AcDbProxyObject
 90
      499
 91
      533
 95
   655381
 70
     0
 93
      452
310
43131A5B995C185D1D195C9B8010E409028333333333333E3BF0000000000000FB010790141107004050750841D405064090741402483A0350
 94
        0
1001
ACAD
1000
AcDbSavedByObjectVersion
1070
     0
1000
AcRTDxfName
1000
VISUALSTYLE
1000
AcRTDxfName
1000
VISUALSTYLE
  0
ACAD_PROXY_OBJECT
  5
7B8
102
{ACAD_REACTORS
330
7AE
102
}
330
7AE
100
AcDbProxyObject
 90
      499
 91
      533
 95
   655381
 70
     0
 93
      428
310
429499585B1A5CDD1A58C0108409028333333333333E3BF0000000000000FB01079019070040501508421405064090741402480A1B45
 94
        0
1001
ACAD
1000
AcDbSavedByObjectVersion
1070
     0
1000
AcRTDxfName
1000
VISUALSTYLE
1000
AcRTDxfName
1000
VISUALSTYLE
  0
ACAD_PROXY_OBJECT
  5
7BB
102
{ACAD_REACTORS
330
7AE
102
}
330
7AE
100
AcDbProxyObject
 90
      499
 91
      533
 95
   655381
 70
     0
 93
      420
310
42151A1A58DAD95B8010D409028333333333333E3BF0000000000000FB010790141107004050150C41D405064090741402480A0352
 94
        0
1001
ACAD
1000
AcDbSavedByObjectVersion
1070
     0
1000
AcRTDxfName
1000
VISUALSTYLE
1000
AcRTDxfName
1000
VISUALSTYLE
  0
DICTIONARYVAR
  5
824
102
{ACAD_REACTORS
330
7A7
102
}
330
7A7
100
DictionaryVariables
280
     0
  1
STANDARD
  0
DICTIONARYVAR
  5
7A8
102
{ACAD_REACTORS
330
7A7
102
}
330
7A7
100
DictionaryVariables
280
     0
  1
1
  0
DICTIONARYVAR
  5
826
102
{ACAD_REACTORS
330
7A7
102
}
330
7A7
100
DictionaryVariables
280
     0
  1
0
  0
DICTIONARYVAR
  5
835
102
{ACAD_REACTORS
330
7A7
102
}
330
7A7
100
DictionaryVariables
280
     0
  1

  0
DICTIONARYVAR
  5
825
102
{ACAD_REACTORS
330
7A7
102
}
330
7A7
100
DictionaryVariables
280
     0
  1
127
  0
DICTIONARY
  5
83E
330
771
100
AcDbDictionary
280
     1
281
     1
  3
ACAD_XREC_ROUNDTRIP
360
83F
  0
DICTIONARY
  5
840
330
772
100
AcDbDictionary
280
     1
281
     1
  3
ACAD_XREC_ROUNDTRIP
360
841
  0
DICTIONARY
  5
81A
330
7AC
100
AcDbDictionary
280
     1
281
     1
  3
ACAD_XREC_ROUNDTRIP
360
81B
  0
DICTIONARY
  5
818
330
7AB
100
AcDbDictionary
280
     1
281
     1
  3
ACAD_XREC_ROUNDTRIP
360
819
  0
DICTIONARY
  5
81C
330
7AD
100
AcDbDictionary
280
     1
281
     1
  3
ACAD_XREC_ROUNDTRIP
360
81D
  0
DICTIONARY
  5
822
330
7C1
100
AcDbDictionary
280
     1
281
     1
  3
ACAD_XREC_ROUNDTRIP
360
823
  0
XRECORD
  5
83F
102
{ACAD_REACTORS
330
83E
102
}
330
83E
100
AcDbXrecord
280
     1
102
SHADEPLOT
 70
     0
102
SHADEPLOTRESLEVEL
 70
     2
102
SHADEPLOTCUSTOMDPI
 70
   300
  0
XRECORD
  5
841
102
{ACAD_REACTORS
330
840
102
}
330
840
100
AcDbXrecord
280
     1
102
SHADEPLOT
 70
     0
102
SHADEPLOTRESLEVEL
 70
     2
102
SHADEPLOTCUSTOMDPI
 70
   300
  0
XRECORD
  5
81B
102
{ACAD_REACTORS
330
81A
102
}
330
81A
100
AcDbXrecord
280
     1
102
MATERIAL
148
0.0
149
0.0
149
0.0
 93
        0
 94
       63
282
     0
 72
     1
 77
     1
171
     1
175
     1
179
     1
273
     0
  0
XRECORD
  5
819
102
{ACAD_REACTORS
330
818
102
}
330
818
100
AcDbXrecord
280
     1
102
MATERIAL
148
0.0
149
0.0
149
0.0
 93
        0
 94
       63
282
     0
 72
     1
 77
     1
171
     1
175
     1
179
     1
273
     0
  0
XRECORD
  5
81D
102
{ACAD_REACTORS
330
81C
102
}
330
81C
100
AcDbXrecord
280
     1
102
MATERIAL
148
0.0
149
0.0
149
0.0
 93
        0
 94
       63
282
     0
 72
     1
 77
     1
171
     1
175
     1
179
     1
273
     0
  0
XRECORD
  5
823
102
{ACAD_REACTORS
330
822
102
}
330
822
100
AcDbXrecord
280
     1
102
ACAD_ROUNDTRIP_PRE2007_TABLESTYLE
 90
      512
 91
        0
  1

 92
      512
 93
        0
  2

 94
      512
 95
        0
  3

  0
ENDSEC
  0
EOF
