  0
SECTION
  2
HEADER
  9
$ACADVER
  1
AC1015
  9
$ACADMAINTVER
 70
    10
  9
$DWGCODEPAGE
  3
ANSI_932
  9
$INSBASE
 10
0.0
 20
0.0
 30
0.0
  9
$EXTMIN
 10
26.90582301805938
 20
37.22076443631755
 30
-0.0000000000000053
  9
$EXTMAX
 10
27.91290298094145
 20
38.21258561011936
 30
0.0000000000000099
  9
$LIMMIN
 10
0.0
 20
0.0
  9
$LIMMAX
 10
100.0
 20
100.0
  9
$ORTHOMODE
 70
     1
  9
$REGENMODE
 70
     1
  9
$FILLMODE
 70
     1
  9
$QTEXTMODE
 70
     0
  9
$MIRRTEXT
 70
     1
  9
$LTSCALE
 40
1.0
  9
$ATTMODE
 70
     1
  9
$TEXTSIZE
 40
0.0
  9
$TRACEWID
 40
0.05
  9
$TEXTSTYLE
  7
STANDARD
  9
$CLAYER
  8
DIM
  9
$CELTYPE
  6
CONTINUOUS
  9
$CECOLOR
 62
   256
  9
$CELTSCALE
 40
1.0
  9
$DISPSILH
 70
     0
  9
$DIMSCALE
 40
1.0
  9
$DIMASZ
 40
0.18
  9
$DIMEXO
 40
0.0625
  9
$DIMDLI
 40
0.38
  9
$DIMRND
 40
0.0
  9
$DIMDLE
 40
0.0
  9
$DIMEXE
 40
0.18
  9
$DIMTP
 40
0.0
  9
$DIMTM
 40
0.0
  9
$DIMTXT
 40
0.18
  9
$DIMCEN
 40
0.09
  9
$DIMTSZ
 40
0.0
  9
$DIMTOL
 70
     0
  9
$DIMLIM
 70
     0
  9
$DIMTIH
 70
     1
  9
$DIMTOH
 70
     1
  9
$DIMSE1
 70
     0
  9
$DIMSE2
 70
     0
  9
$DIMTAD
 70
     0
  9
$DIMZIN
 70
     0
  9
$DIMBLK
  1

  9
$DIMASO
 70
     1
  9
$DIMSHO
 70
     1
  9
$DIMPOST
  1

  9
$DIMAPOST
  1

  9
$DIMALT
 70
     0
  9
$DIMALTD
 70
     2
  9
$DIMALTF
 40
25.4
  9
$DIMLFAC
 40
1.0
  9
$DIMTOFL
 70
     0
  9
$DIMTVP
 40
0.0
  9
$DIMTIX
 70
     0
  9
$DIMSOXD
 70
     0
  9
$DIMSAH
 70
     0
  9
$DIMBLK1
  1

  9
$DIMBLK2
  1

  9
$DIMSTYLE
  2
STANDARD
  9
$DIMCLRD
 70
     0
  9
$DIMCLRE
 70
     0
  9
$DIMCLRT
 70
     0
  9
$DIMTFAC
 40
1.0
  9
$DIMGAP
 40
0.09
  9
$DIMJUST
 70
     0
  9
$DIMSD1
 70
     0
  9
$DIMSD2
 70
     0
  9
$DIMTOLJ
 70
     1
  9
$DIMTZIN
 70
     0
  9
$DIMALTZ
 70
     0
  9
$DIMALTTZ
 70
     0
  9
$DIMUPT
 70
     0
  9
$DIMDEC
 70
     4
  9
$DIMTDEC
 70
     4
  9
$DIMALTU
 70
     2
  9
$DIMALTTD
 70
     2
  9
$DIMTXSTY
  7
STANDARD
  9
$DIMAUNIT
 70
     0
  9
$DIMADEC
 70
     0
  9
$DIMALTRND
 40
0.0
  9
$DIMAZIN
 70
     0
  9
$DIMDSEP
 70
    46
  9
$DIMATFIT
 70
     3
  9
$DIMFRAC
 70
     0
  9
$DIMLDRBLK
  1

  9
$DIMLUNIT
 70
     2
  9
$DIMLWD
 70
    -2
  9
$DIMLWE
 70
    -2
  9
$DIMTMOVE
 70
     0
  9
$LUNITS
 70
     2
  9
$LUPREC
 70
     4
  9
$SKETCHINC
 40
0.1
  9
$FILLETRAD
 40
0.0
  9
$AUNITS
 70
     0
  9
$AUPREC
 70
     0
  9
$MENU
  1
acad
  9
$ELEVATION
 40
0.0
  9
$PELEVATION
 40
0.0
  9
$THICKNESS
 40
0.0
  9
$LIMCHECK
 70
     0
  9
$CHAMFERA
 40
0.0
  9
$CHAMFERB
 40
0.0
  9
$CHAMFERC
 40
0.0
  9
$CHAMFERD
 40
0.0
  9
$SKPOLY
 70
     0
  9
$TDCREATE
 40
2444972.375000000
  9
$TDUCREATE
 40
2444972.000000000
  9
$TDUPDATE
 40
2456381.495575439
  9
$TDUUPDATE
 40
2456381.120575439
  9
$TDINDWG
 40
0.0768760301
  9
$TDUSRTIMER
 40
0.0768760301
  9
$USRTIMER
 70
     1
  9
$ANGBASE
 50
0.0
  9
$ANGDIR
 70
     0
  9
$PDMODE
 70
     0
  9
$PDSIZE
 40
0.0
  9
$PLINEWID
 40
0.0
  9
$SPLFRAME
 70
     0
  9
$SPLINETYPE
 70
     6
  9
$SPLINESEGS
 70
     8
  9
$HANDSEED
  5
1454
  9
$SURFTAB1
 70
     6
  9
$SURFTAB2
 70
     6
  9
$SURFTYPE
 70
     6
  9
$SURFU
 70
     6
  9
$SURFV
 70
     6
  9
$UCSBASE
  2

  9
$UCSNAME
  2

  9
$UCSORG
 10
0.0
 20
0.0
 30
0.0
  9
$UCSXDIR
 10
1.0
 20
0.0
 30
0.0
  9
$UCSYDIR
 10
0.0
 20
1.0
 30
0.0
  9
$UCSORTHOREF
  2

  9
$UCSORTHOVIEW
 70
     0
  9
$UCSORGTOP
 10
0.0
 20
0.0
 30
0.0
  9
$UCSORGBOTTOM
 10
0.0
 20
0.0
 30
0.0
  9
$UCSORGLEFT
 10
0.0
 20
0.0
 30
0.0
  9
$UCSORGRIGHT
 10
0.0
 20
0.0
 30
0.0
  9
$UCSORGFRONT
 10
0.0
 20
0.0
 30
0.0
  9
$UCSORGBACK
 10
0.0
 20
0.0
 30
0.0
  9
$PUCSBASE
  2

  9
$PUCSNAME
  2

  9
$PUCSORG
 10
0.0
 20
0.0
 30
0.0
  9
$PUCSXDIR
 10
1.0
 20
0.0
 30
0.0
  9
$PUCSYDIR
 10
0.0
 20
1.0
 30
0.0
  9
$PUCSORTHOREF
  2

  9
$PUCSORTHOVIEW
 70
     0
  9
$PUCSORGTOP
 10
0.0
 20
0.0
 30
0.0
  9
$PUCSORGBOTTOM
 10
0.0
 20
0.0
 30
0.0
  9
$PUCSORGLEFT
 10
0.0
 20
0.0
 30
0.0
  9
$PUCSORGRIGHT
 10
0.0
 20
0.0
 30
0.0
  9
$PUCSORGFRONT
 10
0.0
 20
0.0
 30
0.0
  9
$PUCSORGBACK
 10
0.0
 20
0.0
 30
0.0
  9
$USERI1
 70
     0
  9
$USERI2
 70
     0
  9
$USERI3
 70
     0
  9
$USERI4
 70
     0
  9
$USERI5
 70
     0
  9
$USERR1
 40
0.0
  9
$USERR2
 40
0.0
  9
$USERR3
 40
0.0
  9
$USERR4
 40
0.0
  9
$USERR5
 40
0.0
  9
$WORLDVIEW
 70
     1
  9
$SHADEDGE
 70
     3
  9
$SHADEDIF
 70
    70
  9
$TILEMODE
 70
     1
  9
$MAXACTVP
 70
    16
  9
$PINSBASE
 10
0.0
 20
0.0
 30
0.0
  9
$PLIMCHECK
 70
     0
  9
$PEXTMIN
 10
1.000000000000000E+20
 20
1.000000000000000E+20
 30
1.000000000000000E+20
  9
$PEXTMAX
 10
-1.000000000000000E+20
 20
-1.000000000000000E+20
 30
-1.000000000000000E+20
  9
$PLIMMIN
 10
0.0
 20
0.0
  9
$PLIMMAX
 10
12.0
 20
9.0
  9
$UNITMODE
 70
     0
  9
$VISRETAIN
 70
     0
  9
$PLINEGEN
 70
     1
  9
$PSLTSCALE
 70
     0
  9
$TREEDEPTH
 70
  3020
  9
$CMLSTYLE
  2
STANDARD
  9
$CMLJUST
 70
     0
  9
$CMLSCALE
 40
1.0
  9
$PROXYGRAPHICS
 70
     1
  9
$MEASUREMENT
 70
     0
  9
$CELWEIGHT
370
    -1
  9
$ENDCAPS
280
     0
  9
$JOINSTYLE
280
     0
  9
$LWDISPLAY
290
     0
  9
$INSUNITS
 70
     0
  9
$HYPERLINKBASE
  1

  9
$STYLESHEET
  1
プリンタ.ctb
  9
$XEDIT
290
     1
  9
$CEPSNTYPE
380
     0
  9
$PSTYLEMODE
290
     1
  9
$FINGERPRINTGUID
  2
{7E5E7D33-40A8-4612-AA41-990508750287}
  9
$VERSIONGUID
  2
{F7378708-ACB3-443A-B15E-C99C40B37FB0}
  9
$EXTNAMES
290
     1
  9
$PSVPSCALE
 40
0.0
  9
$OLESTARTUP
290
     0
  0
ENDSEC
  0
SECTION
  2
CLASSES
  0
CLASS
  1
LWPOLYLINE
  2
AcDbPolyline
  3
AutoCAD 2000
 90
    32768
280
     0
281
     1
  0
CLASS
  1
IMAGE
  2
AcDbRasterImage
  3
ISM
 90
    32895
280
     0
281
     1
  0
CLASS
  1
OLE2FRAME
  2
AcDbOle2Frame
  3
AutoCAD 2000
 90
    32768
280
     0
281
     1
  0
CLASS
  1
HATCH
  2
AcDbHatch
  3
AutoCAD 2000
 90
    32768
280
     0
281
     1
  0
CLASS
  1
DICTIONARYVAR
  2
AcDbDictionaryVar
  3
AutoCAD 2000
 90
        0
280
     0
281
     0
  0
CLASS
  1
RASTERVARIABLES
  2
AcDbRasterVariables
  3
ISM
 90
    32768
280
     0
281
     0
  0
CLASS
  1
IMAGEDEF
  2
AcDbRasterImageDef
  3
ISM
 90
    32768
280
     0
281
     0
  0
CLASS
  1
IMAGEDEF_REACTOR
  2
AcDbRasterImageDefReactor
  3
ISM
 90
    32769
280
     0
281
     0
  0
CLASS
  1
IDBUFFER
  2
AcDbIdBuffer
  3
AutoCAD 2000
 90
    32768
280
     0
281
     0
  0
CLASS
  1
SPATIAL_FILTER
  2
AcDbSpatialFilter
  3
AutoCAD 2000
 90
    32768
280
     0
281
     0
  0
CLASS
  1
XRECORD
  2
AcDbXrecord
  3
AutoCAD 2000
 90
    32768
280
     0
281
     0
  0
CLASS
  1
SORTENTSTABLE
  2
AcDbSortentsTable
  3
AutoCAD 2000
 90
    32768
280
     0
281
     0
  0
CLASS
  1
LAYER_INDEX
  2
AcDbLayerIndex
  3
AutoCAD 2000
 90
    32768
280
     0
281
     0
  0
CLASS
  1
SPATIAL_INDEX
  2
AcDbSpatialIndex
  3
AutoCAD 2000
 90
    32768
280
     0
281
     0
  0
CLASS
  1
OBJECT_PTR
  2
CAseDLPNTableRecord
  3
"ASE-LPNTableRecord"
 90
    32768
280
     0
281
     0
  0
CLASS
  1
LAYOUT
  2
AcDbLayout
  3
AutoCAD 2000
 90
        0
280
     0
281
     0
  0
CLASS
  1
PLOTSETTINGS
  2
AcDbPlotSettings
  3
AutoCAD 2000
 90
    32768
280
     0
281
     0
  0
CLASS
  1
ACDBDICTIONARYWDFLT
  2
AcDbDictionaryWithDefault
  3
AutoCAD 2000
 90
        0
280
     0
281
     0
  0
CLASS
  1
ACDBPLACEHOLDER
  2
AcDbPlaceHolder
  3
AutoCAD 2000
 90
        0
280
     0
281
     0
  0
CLASS
  1
VBA_PROJECT
  2
AcDbVbaProject
  3
acad
 90
    32768
280
     0
281
     0
  0
CLASS
  1
WIPEOUT
  2
AcDbWipeout
  3
"WipeOut|Product Desc: Object Enabler for WipeOut entity^I^I^I^I^I^I|Company: Autodesk, Inc.^I^I^I^I^I^I|WEB Address: www.autodesk.com"
 90
    32895
280
     0
281
     1
  0
CLASS
  1
WIPEOUTVARIABLES
  2
AcDbWipeoutVariables
  3
"WipeOut|Product Desc:     WipeOut Dbx Application|Company:          Autodesk, Inc.|WEB Address:      www.autodesk.com"
 90
    32768
280
     0
281
     0
  0
CLASS
  1
RTEXT
  2
RText
  3
RText|AutoCAD Express Tool|expresstools@autodesk.com
 90
    32768
280
     0
281
     1
  0
CLASS
  1
ARCALIGNEDTEXT
  2
AcDbArcAlignedText
  3
ATEXT|AutoCAD Express Tool|expresstools@autodesk.com
 90
    32768
280
     0
281
     1
  0
CLASS
  1
LONG_TRANSACTION
  2
AcDbLongTransaction
  3
AutoCAD 2000
 90
    32768
280
     0
281
     0
  0
CLASS
  1
LWPOLYLINE
  2
AcDbPolyline
  3
AutoCAD 2000
 90
    32768
280
     0
281
     1
  0
CLASS
  1
HATCH
  2
AcDbHatch
  3
AutoCAD 2000
 90
    32768
280
     0
281
     1
  0
CLASS
  1
XRECORD
  2
AcDbXrecord
  3
AutoCAD 2000
 90
    32768
280
     0
281
     0
  0
CLASS
  1
LONG_TRANSACTION
  2
AcDbLongTransaction
  3
AutoCAD 2000
 90
    32768
280
     0
281
     0
  0
CLASS
  1
LWPOLYLINE
  2
AcDbPolyline
  3
AutoCAD 2000
 90
    32768
280
     0
281
     1
  0
CLASS
  1
HATCH
  2
AcDbHatch
  3
AutoCAD 2000
 90
    32768
280
     0
281
     1
  0
CLASS
  1
XRECORD
  2
AcDbXrecord
  3
AutoCAD 2000
 90
    32768
280
     0
281
     0
  0
CLASS
  1
MATERIAL
  2
AcDbMaterial
  3
ObjectDBX Classes
 90
        0
280
     0
281
     0
  0
CLASS
  1
VISUALSTYLE
  2
AcDbVisualStyle
  3
ObjectDBX Classes
 90
     4095
280
     0
281
     0
  0
CLASS
  1
TABLESTYLE
  2
AcDbTableStyle
  3
ObjectDBX Classes
 90
     2047
280
     0
281
     0
  0
ENDSEC
  0
SECTION
  2
TABLES
  0
TABLE
  2
VPORT
  5
7
102
{ACAD_XDICTIONARY
360
802
102
}
330
0
100
AcDbSymbolTable
 70
     2
  0
VPORT
  5
1453
330
7
100
AcDbSymbolTableRecord
100
AcDbViewportTableRecord
  2
*Active
 70
     0
 10
0.0
 20
0.0
 11
1.0
 21
1.0
 12
27.40936299950041
 22
37.71667502321845
 13
0.0
 23
0.0
 14
1.0
 24
1.0
 15
0.0
 25
0.0
 16
0.0
 26
0.0
 36
1.0
 17
0.0
 27
0.0
 37
0.0
 40
1.000074886759932
 41
1.747222222222222
 42
50.0
 43
0.0
 44
0.0
 50
0.0
 51
0.0
 71
     0
 72
   100
 73
     1
 74
     0
 75
     0
 76
     0
 77
     0
 78
     0
281
     0
 65
     1
110
0.0
120
0.0
130
0.0
111
1.0
121
0.0
131
0.0
112
0.0
122
1.0
132
0.0
 79
     0
146
0.0
  0
ENDTAB
  0
TABLE
  2
LTYPE
  5
4
330
0
100
AcDbSymbolTable
 70
     2
  0
LTYPE
  5
11
330
4
100
AcDbSymbolTableRecord
100
AcDbLinetypeTableRecord
  2
BYBLOCK
 70
     0
  3

 72
    65
 73
     0
 40
0.0
  0
LTYPE
  5
12
330
4
100
AcDbSymbolTableRecord
100
AcDbLinetypeTableRecord
  2
BYLAYER
 70
     0
  3

 72
    65
 73
     0
 40
0.0
  0
LTYPE
  5
13
330
4
100
AcDbSymbolTableRecord
100
AcDbLinetypeTableRecord
  2
CONTINUOUS
 70
     0
  3
Solid line
 72
    65
 73
     0
 40
0.0
  0
LTYPE
  5
D30
330
4
100
AcDbSymbolTableRecord
100
AcDbLinetypeTableRecord
  2
CENTER2
 70
     0
  3
Center (.5x) ___ _ ___ _ ___ _ ___ _ ___ _ ___
 72
    65
 73
     4
 40
28.575
 49
19.05
 74
     0
 49
-3.174999999999999
 74
     0
 49
3.174999999999999
 74
     0
 49
-3.174999999999999
 74
     0
  0
ENDTAB
  0
TABLE
  2
LAYER
  5
2
102
{ACAD_XDICTIONARY
360
C88
102
}
330
0
100
AcDbSymbolTable
 70
     5
  0
LAYER
  5
14
102
{ACAD_XDICTIONARY
360
806
102
}
330
2
100
AcDbSymbolTableRecord
100
AcDbLayerTableRecord
  2
0
 70
     0
 62
     7
  6
CONTINUOUS
370
    -3
390
770
  0
LAYER
  5
8A5
330
2
100
AcDbSymbolTableRecord
100
AcDbLayerTableRecord
  2
DIM
 70
     0
 62
     3
  6
CONTINUOUS
370
    -3
390
770
  0
LAYER
  5
8A6
330
2
100
AcDbSymbolTableRecord
100
AcDbLayerTableRecord
  2
DEFPOINTS
 70
     0
 62
     7
  6
CONTINUOUS
290
     0
370
    -3
390
770
  0
LAYER
  5
C94
330
2
100
AcDbSymbolTableRecord
100
AcDbLayerTableRecord
  2
001
 70
     0
 62
     7
  6
CONTINUOUS
370
    -3
390
770
  0
LAYER
  5
C95
330
2
100
AcDbSymbolTableRecord
100
AcDbLayerTableRecord
  2
002
 70
     0
 62
     7
  6
CONTINUOUS
370
    -3
390
770
  0
ENDTAB
  0
TABLE
  2
STYLE
  5
3
330
0
100
AcDbSymbolTable
 70
     1
  0
STYLE
  5
17
330
3
100
AcDbSymbolTableRecord
100
AcDbTextStyleTableRecord
  2
STANDARD
 70
     0
 40
0.0
 41
0.8
 50
0.0
 71
     0
 42
0.0
  3
txt.shx
  4
extfont.shx
  0
ENDTAB
  0
TABLE
  2
VIEW
  5
5
330
0
100
AcDbSymbolTable
 70
     0
  0
ENDTAB
  0
TABLE
  2
UCS
  5
6
330
0
100
AcDbSymbolTable
 70
     0
  0
ENDTAB
  0
TABLE
  2
APPID
  5
8
330
0
100
AcDbSymbolTable
 70
    17
  0
APPID
  5
16
330
8
100
AcDbSymbolTableRecord
100
AcDbRegAppTableRecord
  2
ACAD
 70
     0
  0
APPID
  5
8AA
330
8
100
AcDbSymbolTableRecord
100
AcDbRegAppTableRecord
  2
ACAD_DSTYLE_DIMRADIAL_EXTENSION
 70
     0
  0
APPID
  5
D4A
330
8
100
AcDbSymbolTableRecord
100
AcDbRegAppTableRecord
  2
DCO15
 70
     0
  0
APPID
  5
D4B
330
8
100
AcDbSymbolTableRecord
100
AcDbRegAppTableRecord
  2
ACAD_EXEMPT_FROM_CAD_STANDARDS
 70
     0
  0
APPID
  5
D4C
330
8
100
AcDbSymbolTableRecord
100
AcDbRegAppTableRecord
  2
ACAD_DSTYLE_DIMTEXT_FILL
 70
     0
  0
APPID
  5
D4D
330
8
100
AcDbSymbolTableRecord
100
AcDbRegAppTableRecord
  2
ACAD_DSTYLE_DIMEXT_LENGTH
 70
     0
  0
APPID
  5
D4E
330
8
100
AcDbSymbolTableRecord
100
AcDbRegAppTableRecord
  2
ACAD_DSTYLE_DIMEXT_ENABLED
 70
     0
  0
APPID
  5
D4F
330
8
100
AcDbSymbolTableRecord
100
AcDbRegAppTableRecord
  2
ACAD_DSTYLE_DIM_LINETYPE
 70
     0
  0
APPID
  5
D50
330
8
100
AcDbSymbolTableRecord
100
AcDbRegAppTableRecord
  2
ACAD_DSTYLE_DIM_EXT1_LINETYPE
 70
     0
  0
APPID
  5
D51
330
8
100
AcDbSymbolTableRecord
100
AcDbRegAppTableRecord
  2
ACAD_DSTYLE_DIM_EXT2_LINETYPE
 70
     0
  0
APPID
  5
D52
330
8
100
AcDbSymbolTableRecord
100
AcDbRegAppTableRecord
  2
ACAD_DSTYLE_DIMJOGGED_JOGANGLE_SYMBOL
 70
     0
  0
APPID
  5
D53
330
8
100
AcDbSymbolTableRecord
100
AcDbRegAppTableRecord
  2
ACAD_DSTYLE_DIMARC_LENGTH_SYMBOL
 70
     0
  0
APPID
  5
D54
330
8
100
AcDbSymbolTableRecord
100
AcDbRegAppTableRecord
  2
ACAD_PSEXT
 70
     0
  0
APPID
  5
D55
330
8
100
AcDbSymbolTableRecord
100
AcDbRegAppTableRecord
  2
ACAD_MLEADERVER
 70
     0
  0
APPID
  5
D56
330
8
100
AcDbSymbolTableRecord
100
AcDbRegAppTableRecord
  2
ACAD_DSTYLE_DIMJAG
 70
     0
  0
APPID
  5
D57
330
8
100
AcDbSymbolTableRecord
100
AcDbRegAppTableRecord
  2
ACAD_DSTYLE_DIMTALN
 70
     0
  0
APPID
  5
D58
330
8
100
AcDbSymbolTableRecord
100
AcDbRegAppTableRecord
  2
AcadStringInfo
 70
     0
  0
ENDTAB
  0
TABLE
  2
DIMSTYLE
  5
9
330
0
100
AcDbSymbolTable
 70
     1
100
AcDbDimStyleTable
 71
     0
  0
DIMSTYLE
105
18
330
9
100
AcDbSymbolTableRecord
100
AcDbDimStyleTableRecord
  2
STANDARD
 70
     0
340
17
  0
ENDTAB
  0
TABLE
  2
BLOCK_RECORD
  5
1
330
0
100
AcDbSymbolTable
 70
     1
  0
BLOCK_RECORD
  5
A
102
{ACAD_XDICTIONARY
360
767
102
}
330
1
100
AcDbSymbolTableRecord
100
AcDbBlockTableRecord
  2
*MODEL_SPACE
340
771
  0
BLOCK_RECORD
  5
B
102
{ACAD_XDICTIONARY
360
769
102
}
330
1
100
AcDbSymbolTableRecord
100
AcDbBlockTableRecord
  2
*PAPER_SPACE
340
772
  0
BLOCK_RECORD
  5
D2D
330
1
100
AcDbSymbolTableRecord
100
AcDbBlockTableRecord
  2
SDI2HDMI BOARD
340
0
102
{BLKREFS
331
12CF
102
}
  0
ENDTAB
  0
ENDSEC
  0
SECTION
  2
BLOCKS
  0
BLOCK
  5
D
330
A
100
AcDbEntity
  8
0
100
AcDbBlockBegin
  2
*MODEL_SPACE
 70
     0
 10
0.0
 20
0.0
 30
0.0
  3
*MODEL_SPACE
  1

  0
ENDBLK
  5
E
330
A
100
AcDbEntity
  8
0
100
AcDbBlockEnd
  0
BLOCK
  5
F
330
B
100
AcDbEntity
 67
     1
  8
0
100
AcDbBlockBegin
  2
*PAPER_SPACE
 70
     0
 10
0.0
 20
0.0
 30
0.0
  3
*PAPER_SPACE
  1

  0
ENDBLK
  5
10
330
B
100
AcDbEntity
 67
     1
  8
0
100
AcDbBlockEnd
  0
BLOCK
  5
D2E
330
D2D
100
AcDbEntity
  8
0
100
AcDbBlockBegin
  2
SDI2HDMI BOARD
 70
     0
 10
0.0
 20
0.0
 30
0.0
  3
SDI2HDMI BOARD
  1

  0
ENDBLK
  5
D2F
330
D2D
100
AcDbEntity
  8
0
100
AcDbBlockEnd
  0
ENDSEC
  0
SECTION
  2
ENTITIES
  0
LINE
  5
A6
330
A
100
AcDbEntity
  8
002
100
AcDbLine
 10
26.91171358990991
 20
38.125018121402
 30
0.0
 11
27.91171358990991
 21
38.125018121402
 31
0.0
  0
LINE
  5
A5
330
A
100
AcDbEntity
  8
002
100
AcDbLine
 10
27.11171393625185
 20
38.20501877945167
 30
0.0
 11
27.11171393625185
 21
38.125018121402
 31
0.0
  0
LINE
  5
A3
330
A
100
AcDbEntity
  8
002
100
AcDbLine
 10
27.81171428259378
 20
37.46502451044143
 30
0.0
 11
27.81171428259378
 21
37.22501829457296
 31
0.0
  0
LINE
  5
A2
330
A
100
AcDbEntity
  8
002
100
AcDbLine
 10
27.01171376308088
 20
37.46502451044143
 30
0.0
 11
27.01171376308088
 21
37.22501829457296
 31
0.0
  0
LINE
  5
A0
330
A
100
AcDbEntity
  8
002
100
AcDbLine
 10
27.01171376308088
 20
37.42502374848917
 30
0.0
 11
27.81171428259378
 21
37.42502374848917
 31
0.0
  0
LINE
  5
9F
330
A
100
AcDbEntity
  8
002
100
AcDbLine
 10
27.01171376308088
 20
37.38502471824659
 30
0.0
 11
27.81171428259378
 21
37.38502471824659
 31
0.0
  0
LINE
  5
9E
330
A
100
AcDbEntity
  8
002
100
AcDbLine
 10
27.16671390161765
 20
37.34502395629434
 30
0.0
 11
27.81171428259378
 21
37.34502395629433
 31
0.0
  0
LINE
  5
9D
330
A
100
AcDbEntity
  8
002
100
AcDbLine
 10
27.16671390161765
 20
37.46502451044143
 30
0.0
 11
27.16671390161765
 21
37.2250268655666
 31
0.0
  0
LINE
  5
9C
330
A
100
AcDbEntity
  8
002
100
AcDbLine
 10
27.01171376308088
 20
37.46502451044143
 30
0.0
 11
27.81171428259378
 21
37.46502451044143
 31
0.0
  0
TEXT
  5
26B
330
A
100
AcDbEntity
  8
002
  6
Continuous
100
AcDbText
 10
27.18821567488837
 20
37.39252817252276
 30
0.0
 40
0.024999993243562
  1
１ｃｈ
 41
0.7
100
AcDbText
  0
TEXT
  5
4D4
330
A
100
AcDbEntity
  8
002
  6
Continuous
100
AcDbText
 10
27.72654138356493
 20
38.08251850237812
 30
0.0
 40
0.024999993243562
  1
SDI2HDMI
 41
0.8
100
AcDbText
  0
TEXT
  5
4D5
330
A
100
AcDbEntity
  8
002
  6
Continuous
100
AcDbText
 10
27.20549207653419
 20
38.14501850237812
 30
0.0
 40
0.0399999901963199
  1
ＨＤ－ＳＤＩ→ＨＤＭＩコンバーター
 41
0.8
100
AcDbText
  0
TEXT
  5
4D7
330
A
100
AcDbEntity
  8
002
  6
Continuous
100
AcDbText
 10
27.18337987560045
 20
37.43252720276534
 30
0.0
 40
0.024999993243562
  1
ＤＣ１２Ｖ　最大４Ｗ／約３３０ｍＡ
 41
0.7
100
AcDbText
  0
TEXT
  5
4D9
330
A
100
AcDbEntity
  8
002
  6
Continuous
100
AcDbText
 10
27.18782604020984
 20
37.3525274105705
 30
0.0
 40
0.024999993243562
  1
６０Ｈｚ：１９２０×１０８０ｐ３０、１９２０×１０８０ｉ６０、１２８０×７２０ｐ６０、１２８０×７２０ｐ３０
 41
0.35
100
AcDbText
  0
TEXT
  5
4DA
330
A
100
AcDbEntity
  8
002
  6
Continuous
100
AcDbText
 10
27.03084049652227
 20
37.39252817252276
 30
0.0
 40
0.024999993243562
  1
ＨＤ－ＳＤＩ（ＢＮＣ）入力
 41
0.35
100
AcDbText
  0
TEXT
  5
4DC
330
A
100
AcDbEntity
  8
002
  6
Continuous
100
AcDbText
 10
27.03084049652227
 20
37.3525274105705
 30
0.0
 40
0.024999993243562
  1
解像度
 41
0.8
100
AcDbText
  0
TEXT
  5
4DD
330
A
100
AcDbEntity
  8
002
  6
Continuous
100
AcDbText
 10
27.03084049652227
 20
37.43252720276534
 30
0.0
 40
0.024999993243562
  1
消費電力
 41
0.8
100
AcDbText
  0
LINE
  5
651
330
A
100
AcDbEntity
  8
002
100
AcDbLine
 10
27.01171376308088
 20
37.26502589580918
 30
0.0
 11
27.81171428259378
 21
37.26502589580918
 31
0.0
  0
TEXT
  5
67A
330
A
100
AcDbEntity
  8
002
  6
Continuous
100
AcDbText
 10
27.18782644729766
 20
37.27252937129098
 30
0.0
 40
0.0249999769310372
  1
１ｃｈ
 41
0.7
100
AcDbText
  0
TEXT
  5
67B
330
A
100
AcDbEntity
  8
002
  6
Continuous
100
AcDbText
 10
27.18782644729766
 20
37.23252688649243
 30
0.0
 40
0.0249999769310372
  1
１０８０ｐ６０、１０８０ｐ６０ＲＢ、１０８０ｉ６０、７２０ｐ６０
 41
0.6
100
AcDbText
  0
TEXT
  5
67D
330
A
100
AcDbEntity
  8
002
  6
Continuous
100
AcDbText
 10
27.03084100604334
 20
37.27252850543671
 30
0.0
 40
0.0249999769310372
  1
ＨＤＭＩ出力
 41
0.75
100
AcDbText
  0
TEXT
  5
67F
330
A
100
AcDbEntity
  8
002
  6
Continuous
100
AcDbText
 10
27.03084100604334
 20
37.23252863543926
 30
0.0
 40
0.0249999769310372
  1
解像度
 41
0.8
100
AcDbText
  0
LINE
  5
689
330
A
100
AcDbEntity
  8
002
100
AcDbLine
 10
27.01171376308088
 20
37.2250268655666
 30
0.0
 11
27.81171428259378
 21
37.2250268655666
 31
0.0
  0
LINE
  5
74E
330
A
100
AcDbEntity
  8
002
100
AcDbLine
 10
27.01171376308088
 20
37.30502492605175
 30
0.0
 11
27.81171428259378
 21
37.30502492605175
 31
0.0
  0
TEXT
  5
C8F
330
A
100
AcDbEntity
  8
002
100
AcDbText
 10
27.03620429585779
 20
38.15888832294596
 30
0.0
 40
0.0192
  1
HDMI
 41
0.8
 72
     4
 11
27.0618042958578
 21
38.16848832294597
 31
0.0
100
AcDbText
  0
LINE
  5
F47
330
A
100
AcDbEntity
  8
002
100
AcDbLine
 10
26.97825223437099
 20
38.182672794771
 30
0.0
 11
27.02625223437099
 21
38.182672794771
 31
0.0
  0
LINE
  5
F49
330
A
100
AcDbEntity
  8
002
100
AcDbLine
 10
26.97825223437099
 20
38.154672794771
 30
0.0
 11
27.02625223437099
 21
38.154672794771
 31
0.0
  0
LINE
  5
F4A
330
A
100
AcDbEntity
  8
002
100
AcDbLine
 10
26.97825223437099
 20
38.182672794771
 30
0.0
 11
26.97825223437099
 21
38.154672794771
 31
0.0
  0
LINE
  5
F4B
330
A
100
AcDbEntity
  8
002
100
AcDbLine
 10
27.02625223437099
 20
38.182672794771
 30
0.0
 11
27.02625223437099
 21
38.154672794771
 31
0.0
  0
TEXT
  5
F4C
330
A
100
AcDbEntity
  8
002
100
AcDbText
 10
26.93251113105876
 20
38.14616038027848
 30
0.0
 40
0.0192
  1
SDI
 41
0.8
 72
     4
 11
26.95043113105876
 21
38.15576038027847
 31
0.0
100
AcDbText
  0
TEXT
  5
F4D
330
A
100
AcDbEntity
  8
002
100
AcDbText
 10
26.93763113105876
 20
38.16995980093657
 30
0.0
 40
0.0192
  1
HD
 41
0.8
 72
     4
 11
26.95043113105876
 21
38.17955980093657
 31
0.0
100
AcDbText
  0
TEXT
  5
F50
330
A
100
AcDbEntity
  8
002
100
AcDbText
 10
26.99040945244783
 20
38.15412095347737
 30
0.0
 40
0.03
  1
→
 41
0.8
 72
     4
 11
27.00160945244783
 21
38.16812095347737
 31
0.0
100
AcDbText
  0
SPLINE
  5
10E9
330
A
100
AcDbEntity
  8
001
  6
Continuous
370
    15
100
AcDbSpline
210
0.0
220
0.0
230
1.0
 70
    24
 71
     1
 72
     4
 73
     2
 74
     0
 42
0.0000000001
 43
0.0000000001
 40
0.0
 40
0.0
 40
1.0
 40
1.0
 10
27.19764034239874
 20
37.91052812120273
 30
0.0
 10
27.14014033763037
 20
37.91052812120273
 30
0.0
  0
SPLINE
  5
10EA
330
A
100
AcDbEntity
  8
001
  6
Continuous
370
    15
100
AcDbSpline
210
0.0
220
0.0
230
1.0
 70
    24
 71
     1
 72
     4
 73
     2
 74
     0
 42
0.0000000001
 43
0.0000000001
 40
0.0
 40
0.0
 40
1.0
 40
1.0
 10
27.14014033763037
 20
37.86302812738671
 30
0.0
 10
27.19764034239874
 20
37.86302812738671
 30
0.0
  0
LINE
  5
10EB
330
A
100
AcDbEntity
  8
001
  6
Continuous
370
    15
100
AcDbLine
 10
27.23514034388886
 20
37.93337812057092
 30
0.0
 11
27.24514032690153
 21
37.93337812057092
 31
0.0
  0
LINE
  5
10EC
330
A
100
AcDbEntity
  8
001
  6
Continuous
370
    15
100
AcDbLine
 10
27.23514034388886
 20
37.95837813398197
 30
0.0
 11
27.24514032690153
 21
37.95837813398197
 31
0.0
  0
LINE
  5
10ED
330
A
100
AcDbEntity
  8
001
  6
Continuous
370
    15
100
AcDbLine
 10
27.24514032690153
 20
37.93337812057092
 30
0.0
 11
27.24514032690153
 21
37.93690481564357
 31
0.0
  0
LINE
  5
10EE
330
A
100
AcDbEntity
  8
001
  6
Continuous
370
    15
100
AcDbLine
 10
27.24514032690153
 20
37.95637811875298
 30
0.0
 11
27.24514032690153
 21
37.95837813398197
 31
0.0
  0
LINE
  5
10EF
330
A
100
AcDbEntity
  8
001
  6
Continuous
370
    15
100
AcDbLine
 10
27.23514034388886
 20
37.93337812057092
 30
0.0
 11
27.23514034388886
 21
37.95837813398197
 31
0.0
  0
LINE
  5
10F0
330
A
100
AcDbEntity
  8
001
  6
Continuous
370
    15
100
AcDbLine
 10
27.23514034388886
 20
37.72787812739938
 30
0.0
 11
27.24514032690153
 21
37.72787812739938
 31
0.0
  0
LINE
  5
10F1
330
A
100
AcDbEntity
  8
001
  6
Continuous
370
    15
100
AcDbLine
 10
27.24514032690153
 20
37.93337812057092
 30
0.0
 11
27.24514032690153
 21
37.72787812739938
 31
0.0
  0
LINE
  5
10F2
330
A
100
AcDbEntity
  8
001
  6
Continuous
370
    15
100
AcDbLine
 10
27.23514034388886
 20
37.93337812057092
 30
0.0
 11
27.23514034388886
 21
37.72787812739938
 31
0.0
  0
LINE
  5
10F3
330
A
100
AcDbEntity
  8
001
  6
Continuous
370
    15
100
AcDbLine
 10
27.23514034388886
 20
37.70287812562987
 30
0.0
 11
27.24514032690153
 21
37.70287812562987
 31
0.0
  0
LINE
  5
10F4
330
A
100
AcDbEntity
  8
001
  6
Continuous
370
    15
100
AcDbLine
 10
27.24514032690153
 20
37.70287812562987
 30
0.0
 11
27.24514032690153
 21
37.70487812688902
 31
0.0
  0
LINE
  5
10F5
330
A
100
AcDbEntity
  8
001
  6
Continuous
370
    15
100
AcDbLine
 10
27.24514032690153
 20
37.72435144396826
 30
0.0
 11
27.24514032690153
 21
37.72787812739938
 31
0.0
  0
LINE
  5
10F6
330
A
100
AcDbEntity
  8
001
  6
Continuous
370
    15
100
AcDbLine
 10
27.23514034388886
 20
37.70287812562987
 30
0.0
 11
27.23514034388886
 21
37.72787812739938
 31
0.0
  0
CIRCLE
  5
10F7
330
A
100
AcDbEntity
  8
001
  6
Continuous
370
    15
100
AcDbCircle
 10
27.16460204701147
 20
37.88677812742609
 30
0.0
 40
0.005
  0
LINE
  5
10F8
330
A
100
AcDbEntity
  8
001
  6
Continuous
370
    15
100
AcDbLine
 10
27.19764034239874
 20
37.86302812738671
 30
0.0
 11
27.22264033718333
 21
37.86302812738671
 31
0.0
  0
LINE
  5
10F9
330
A
100
AcDbEntity
  8
001
  6
Continuous
370
    15
100
AcDbLine
 10
27.19764034239874
 20
37.86302812738671
 30
0.0
 11
27.19764034239874
 21
37.91052812120273
 31
0.0
  0
LINE
  5
10FA
330
A
100
AcDbEntity
  8
001
  6
Continuous
370
    15
100
AcDbLine
 10
27.19764034239874
 20
37.91052812120273
 30
0.0
 11
27.22264033718333
 21
37.91052812120273
 31
0.0
  0
LINE
  5
10FB
330
A
100
AcDbEntity
  8
001
  6
Continuous
370
    15
100
AcDbLine
 10
27.14014033763037
 20
37.86302812738671
 30
0.0
 11
27.14014033763037
 21
37.91052812120273
 31
0.0
  0
LINE
  5
10FC
330
A
100
AcDbEntity
  8
001
  6
Continuous
370
    15
100
AcDbLine
 10
27.70239033554421
 20
37.92211695915415
 30
0.0
 11
27.24514032690153
 21
37.92211695915415
 31
0.0
  0
LINE
  5
10FD
330
A
100
AcDbEntity
  8
001
  6
Continuous
370
    15
100
AcDbLine
 10
27.70239033554421
 20
37.9196392872031
 30
0.0
 11
27.24514032690153
 21
37.9196392872031
 31
0.0
  0
LINE
  5
10FE
330
A
100
AcDbEntity
  8
001
  6
Continuous
370
    15
100
AcDbLine
 10
27.70239033554421
 20
37.92711696928694
 30
0.0
 11
27.24514032690153
 21
37.92711696928694
 31
0.0
  0
LINE
  5
10FF
330
A
100
AcDbEntity
  8
001
  6
Continuous
370
    15
100
AcDbLine
 10
27.70239033554421
 20
37.92463929733589
 30
0.0
 11
27.24514032690153
 21
37.92463929733589
 31
0.0
  0
LINE
  5
1100
330
A
100
AcDbEntity
  8
001
  6
Continuous
370
    15
100
AcDbLine
 10
27.70239033554421
 20
37.91711696764782
 30
0.0
 11
27.24514032690153
 21
37.91711696764782
 31
0.0
  0
LINE
  5
1101
330
A
100
AcDbEntity
  8
001
  6
Continuous
370
    15
100
AcDbLine
 10
27.70239033554421
 20
37.91463929569676
 30
0.0
 11
27.24514032690153
 21
37.91463929569676
 31
0.0
  0
LINE
  5
1102
330
A
100
AcDbEntity
  8
001
  6
Continuous
370
    15
100
AcDbLine
 10
27.70239033554421
 20
37.74161696658797
 30
0.0
 11
27.24514032690153
 21
37.74161696658797
 31
0.0
  0
LINE
  5
1103
330
A
100
AcDbEntity
  8
001
  6
Continuous
370
    15
100
AcDbLine
 10
27.70239033554421
 20
37.73913928823407
 30
0.0
 11
27.24514032690153
 21
37.73913928823407
 31
0.0
  0
LINE
  5
1104
330
A
100
AcDbEntity
  8
001
  6
Continuous
370
    15
100
AcDbLine
 10
27.70239033554421
 20
37.74661696653442
 30
0.0
 11
27.24514032690153
 21
37.74661696653442
 31
0.0
  0
LINE
  5
1105
330
A
100
AcDbEntity
  8
001
  6
Continuous
370
    15
100
AcDbLine
 10
27.70239033554421
 20
37.74413928836242
 30
0.0
 11
27.24514032690153
 21
37.74413928836242
 31
0.0
  0
LINE
  5
1106
330
A
100
AcDbEntity
  8
001
  6
Continuous
370
    15
100
AcDbLine
 10
27.70239033554421
 20
37.75038668179281
 30
0.0
 11
27.24514032690153
 21
37.75038668179281
 31
0.0
  0
LINE
  5
1107
330
A
100
AcDbEntity
  8
001
  6
Continuous
370
    15
100
AcDbLine
 10
27.70239033554421
 20
37.74917522291747
 30
0.0
 11
27.24514032690153
 21
37.74917522291747
 31
0.0
  0
LINE
  5
1108
330
A
100
AcDbEntity
  8
001
  6
Continuous
370
    15
100
AcDbLine
 10
27.70239033554421
 20
37.9120810270901
 30
0.0
 11
27.24514032690153
 21
37.9120810270901
 31
0.0
  0
LINE
  5
1109
330
A
100
AcDbEntity
  8
001
  6
Continuous
370
    15
100
AcDbLine
 10
27.70239033554421
 20
37.91086958131149
 30
0.0
 11
27.24514032690153
 21
37.91086958131149
 31
0.0
  0
LINE
  5
110A
330
A
100
AcDbEntity
  8
001
  6
Continuous
370
    15
100
AcDbLine
 10
27.70239033554421
 20
37.73661696635048
 30
0.0
 11
27.24514032690153
 21
37.73661696635048
 31
0.0
  0
LINE
  5
110B
330
A
100
AcDbEntity
  8
001
  6
Continuous
370
    15
100
AcDbLine
 10
27.70239033554421
 20
37.73413928799659
 30
0.0
 11
27.24514032690153
 21
37.73413928799659
 31
0.0
  0
LINE
  5
110C
330
A
100
AcDbEntity
  8
001
  6
Continuous
370
    15
100
AcDbLine
 10
27.70239033554421
 20
37.94387813067391
 30
0.0
 11
27.24514032690153
 21
37.94387813067391
 31
0.0
  0
LINE
  5
110D
330
A
100
AcDbEntity
  8
001
  6
Continuous
370
    15
100
AcDbLine
 10
27.70239033554421
 20
37.93087813413098
 30
0.0
 11
27.24514032690153
 21
37.93087813413098
 31
0.0
  0
LINE
  5
110E
330
A
100
AcDbEntity
  8
001
  6
Continuous
370
    15
100
AcDbLine
 10
27.24514032690153
 20
37.94387813067391
 30
0.0
 11
27.24514032690153
 21
37.93690481564357
 31
0.0
  0
LINE
  5
110F
330
A
100
AcDbEntity
  8
001
  6
Continuous
370
    15
100
AcDbLine
 10
27.70239033554421
 20
37.94387813067391
 30
0.0
 11
27.70239033554421
 21
37.93690481564357
 31
0.0
  0
LINE
  5
1110
330
A
100
AcDbEntity
  8
001
  6
Continuous
370
    15
100
AcDbLine
 10
27.70239033554421
 20
37.95637811875298
 30
0.0
 11
27.24514032690153
 21
37.95637811875298
 31
0.0
  0
LINE
  5
1111
330
A
100
AcDbEntity
  8
001
  6
Continuous
370
    15
100
AcDbLine
 10
27.24514032690153
 20
37.95637811875298
 30
0.0
 11
27.24514032690153
 21
37.94387813067391
 31
0.0
  0
LINE
  5
1112
330
A
100
AcDbEntity
  8
001
  6
Continuous
370
    15
100
AcDbLine
 10
27.70239033554421
 20
37.95637811875298
 30
0.0
 11
27.70239033554421
 21
37.94387813067391
 31
0.0
  0
LINE
  5
1113
330
A
100
AcDbEntity
  8
001
  6
Continuous
370
    15
100
AcDbLine
 10
27.70239033554421
 20
37.92963928884223
 30
0.0
 11
27.24514032690153
 21
37.92963928884223
 31
0.0
  0
LINE
  5
1114
330
A
100
AcDbEntity
  8
001
  6
Continuous
370
    15
100
AcDbLine
 10
27.70239033554421
 20
37.71737812660962
 30
0.0
 11
27.24514032690153
 21
37.71737812660962
 31
0.0
  0
LINE
  5
1115
330
A
100
AcDbEntity
  8
001
  6
Continuous
370
    15
100
AcDbLine
 10
27.70239033554421
 20
37.70487812688902
 30
0.0
 11
27.24514032690153
 21
37.70487812688902
 31
0.0
  0
LINE
  5
1116
330
A
100
AcDbEntity
  8
001
  6
Continuous
370
    15
100
AcDbLine
 10
27.24514032690153
 20
37.70487812688902
 30
0.0
 11
27.24514032690153
 21
37.71737812660962
 31
0.0
  0
LINE
  5
1117
330
A
100
AcDbEntity
  8
001
  6
Continuous
370
    15
100
AcDbLine
 10
27.70239033554421
 20
37.70487812688902
 30
0.0
 11
27.70239033554421
 21
37.71737812660962
 31
0.0
  0
LINE
  5
1118
330
A
100
AcDbEntity
  8
001
  6
Continuous
370
    15
100
AcDbLine
 10
27.70239033554421
 20
37.731616966113
 30
0.0
 11
27.24514032690153
 21
37.731616966113
 31
0.0
  0
LINE
  5
1119
330
A
100
AcDbEntity
  8
001
  6
Continuous
370
    15
100
AcDbLine
 10
27.70239033554421
 20
37.73037812780916
 30
0.0
 11
27.24514032690153
 21
37.73037812780916
 31
0.0
  0
LINE
  5
111A
330
A
100
AcDbEntity
  8
001
  6
Continuous
370
    15
100
AcDbLine
 10
27.24514032690153
 20
37.72435144396826
 30
0.0
 11
27.24514032690153
 21
37.71737812660962
 31
0.0
  0
LINE
  5
111B
330
A
100
AcDbEntity
  8
001
  6
Continuous
370
    15
100
AcDbLine
 10
27.70239033554421
 20
37.72435144396826
 30
0.0
 11
27.70239033554421
 21
37.71737812660962
 31
0.0
  0
LINE
  5
111C
330
A
100
AcDbEntity
  8
001
  6
Continuous
370
    15
100
AcDbLine
 10
27.70239033554421
 20
37.74860500262679
 30
0.0
 11
27.24514032690153
 21
37.74860500262679
 31
0.0
  0
LINE
  5
111D
330
A
100
AcDbEntity
  8
001
  6
Continuous
370
    15
100
AcDbLine
 10
27.70239033554421
 20
37.91265125727608
 30
0.0
 11
27.24514032690153
 21
37.91265125727608
 31
0.0
  0
LINE
  5
111E
330
A
100
AcDbEntity
  8
001
  6
Continuous
370
    15
100
AcDbLine
 10
27.70239033554421
 20
37.92265125891521
 30
0.0
 11
27.24514032690153
 21
37.92265125891521
 31
0.0
  0
LINE
  5
111F
330
A
100
AcDbEntity
  8
001
  6
Continuous
370
    15
100
AcDbLine
 10
27.70239033554421
 20
37.91910500606849
 30
0.0
 11
27.24514032690153
 21
37.91910500606849
 31
0.0
  0
LINE
  5
1120
330
A
100
AcDbEntity
  8
001
  6
Continuous
370
    15
100
AcDbLine
 10
27.70239033554421
 20
37.92410499757483
 30
0.0
 11
27.24514032690153
 21
37.92410499757483
 31
0.0
  0
LINE
  5
1121
330
A
100
AcDbEntity
  8
001
  6
Continuous
370
    15
100
AcDbLine
 10
27.70239033554421
 20
37.92765125042155
 30
0.0
 11
27.24514032690153
 21
37.92765125042155
 31
0.0
  0
LINE
  5
1122
330
A
100
AcDbEntity
  8
001
  6
Continuous
370
    15
100
AcDbLine
 10
27.70239033554421
 20
37.91765124878242
 30
0.0
 11
27.24514032690153
 21
37.91765124878242
 31
0.0
  0
LINE
  5
1123
330
A
100
AcDbEntity
  8
001
  6
Continuous
370
    15
100
AcDbLine
 10
27.70239033554421
 20
37.92910500770762
 30
0.0
 11
27.24514032690153
 21
37.92910500770762
 31
0.0
  0
LINE
  5
1124
330
A
100
AcDbEntity
  8
001
  6
Continuous
370
    15
100
AcDbLine
 10
27.70239033554421
 20
37.9141049959357
 30
0.0
 11
27.24514032690153
 21
37.9141049959357
 31
0.0
  0
LINE
  5
1125
330
A
100
AcDbEntity
  8
001
  6
Continuous
370
    15
100
AcDbLine
 10
27.70239033554421
 20
37.7371512521417
 30
0.0
 11
27.24514032690153
 21
37.7371512521417
 31
0.0
  0
LINE
  5
1126
330
A
100
AcDbEntity
  8
001
  6
Continuous
370
    15
100
AcDbLine
 10
27.70239033554421
 20
37.73360500220537
 30
0.0
 11
27.24514032690153
 21
37.73360500220537
 31
0.0
  0
LINE
  5
1127
330
A
100
AcDbEntity
  8
001
  6
Continuous
370
    15
100
AcDbLine
 10
27.70239033554421
 20
37.7471512520346
 30
0.0
 11
27.24514032690153
 21
37.7471512520346
 31
0.0
  0
LINE
  5
1128
330
A
100
AcDbEntity
  8
001
  6
Continuous
370
    15
100
AcDbLine
 10
27.70239033554421
 20
37.73860500244285
 30
0.0
 11
27.24514032690153
 21
37.73860500244285
 31
0.0
  0
LINE
  5
1129
330
A
100
AcDbEntity
  8
001
  6
Continuous
370
    15
100
AcDbLine
 10
27.70239033554421
 20
37.73215125190422
 30
0.0
 11
27.24514032690153
 21
37.73215125190422
 31
0.0
  0
LINE
  5
112A
330
A
100
AcDbEntity
  8
001
  6
Continuous
370
    15
100
AcDbLine
 10
27.70239033554421
 20
37.74215125208815
 30
0.0
 11
27.24514032690153
 21
37.74215125208815
 31
0.0
  0
LINE
  5
112B
330
A
100
AcDbEntity
  8
001
  6
Continuous
370
    15
100
AcDbLine
 10
27.70239033554421
 20
37.74360500268034
 30
0.0
 11
27.24514032690153
 21
37.74360500268034
 31
0.0
  0
LINE
  5
112C
330
A
100
AcDbEntity
  8
001
  6
Continuous
370
    15
100
AcDbLine
 10
27.70239033554421
 20
37.69987812606945
 30
0.0
 11
27.24514032690153
 21
37.69987812606945
 31
0.0
  0
LINE
  5
112D
330
A
100
AcDbEntity
  8
001
  6
Continuous
370
    15
100
AcDbLine
 10
27.24514032690153
 20
37.69987812606945
 30
0.0
 11
27.24514032690153
 21
37.70287812562987
 31
0.0
  0
LINE
  5
112E
330
A
100
AcDbEntity
  8
001
  6
Continuous
370
    15
100
AcDbLine
 10
27.70239033554421
 20
37.69987812606945
 30
0.0
 11
27.70239033554421
 21
37.70287812562987
 31
0.0
  0
LINE
  5
112F
330
A
100
AcDbEntity
  8
001
  6
Continuous
370
    15
100
AcDbLine
 10
27.47376533122287
 20
37.96137812888577
 30
0.0
 11
27.24514032690153
 21
37.96137812888577
 31
0.0
  0
LINE
  5
1130
330
A
100
AcDbEntity
  8
001
  6
Continuous
370
    15
100
AcDbLine
 10
27.70239033554421
 20
37.96137812888577
 30
0.0
 11
27.47376533122287
 21
37.96137812888577
 31
0.0
  0
LINE
  5
1131
330
A
100
AcDbEntity
  8
001
  6
Continuous
370
    15
100
AcDbLine
 10
27.24514032690153
 20
37.96137812888577
 30
0.0
 11
27.24514032690153
 21
37.95837813398197
 31
0.0
  0
LINE
  5
1132
330
A
100
AcDbEntity
  8
001
  6
Continuous
370
    15
100
AcDbLine
 10
27.70239033554421
 20
37.96137812888577
 30
0.0
 11
27.70239033554421
 21
37.95837813398197
 31
0.0
  0
LINE
  5
1133
330
A
100
AcDbEntity
  8
001
  6
Continuous
370
    15
100
AcDbLine
 10
27.48626533792839
 20
37.67233600715503
 30
0.0
 11
27.48626533792839
 21
37.68733600495711
 31
0.0
  0
ARC
  5
1134
330
A
100
AcDbEntity
  8
001
  6
Continuous
370
    15
100
AcDbCircle
 10
27.47376533584223
 20
37.68733600709733
 30
0.0
 40
0.0125000000000009
100
AcDbArc
 50
0.0
 51
180.0
  0
LINE
  5
1135
330
A
100
AcDbEntity
  8
001
  6
Continuous
370
    15
100
AcDbLine
 10
27.46126533383058
 20
37.68733600495711
 30
0.0
 11
27.46126533383058
 21
37.67233600715503
 31
0.0
  0
LINE
  5
1136
330
A
100
AcDbEntity
  8
001
  6
Continuous
370
    15
100
AcDbLine
 10
27.46126533383058
 20
37.67233600715503
 30
0.0
 11
27.45880745248423
 21
37.66987812580868
 31
0.0
  0
LINE
  5
1137
330
A
100
AcDbEntity
  8
001
  6
Continuous
370
    15
100
AcDbLine
 10
27.45880745248423
 20
37.66987812580868
 30
0.0
 11
27.25014033703432
 21
37.66987812580868
 31
0.0
  0
LINE
  5
1138
330
A
100
AcDbEntity
  8
001
  6
Continuous
370
    15
100
AcDbLine
 10
27.24514032690153
 20
37.67487812662825
 30
0.0
 11
27.25014033703432
 21
37.66987812580868
 31
0.0
  0
LINE
  5
1139
330
A
100
AcDbEntity
  8
001
  6
Continuous
370
    15
100
AcDbLine
 10
27.69739033472465
 20
37.66987812580868
 30
0.0
 11
27.48872321461813
 21
37.66987812580868
 31
0.0
  0
LINE
  5
113A
330
A
100
AcDbEntity
  8
001
  6
Continuous
370
    15
100
AcDbLine
 10
27.48872321461813
 20
37.66987812580868
 30
0.0
 11
27.48626533792839
 21
37.67233600715503
 31
0.0
  0
LINE
  5
113B
330
A
100
AcDbEntity
  8
001
  6
Continuous
370
    15
100
AcDbLine
 10
27.69739033472465
 20
37.66987812580868
 30
0.0
 11
27.70239033554421
 21
37.67487812662825
 31
0.0
  0
LINE
  5
113C
330
A
100
AcDbEntity
  8
001
  6
Continuous
370
    15
100
AcDbLine
 10
27.24514032690153
 20
37.67487812662825
 30
0.0
 11
27.24514032690153
 21
37.69987812606945
 31
0.0
  0
LINE
  5
113D
330
A
100
AcDbEntity
  8
001
  6
Continuous
370
    15
100
AcDbLine
 10
27.70239033554421
 20
37.67487812662825
 30
0.0
 11
27.70239033554421
 21
37.69987812606945
 31
0.0
  0
LINE
  5
113E
330
A
100
AcDbEntity
  8
001
  6
Continuous
370
    15
100
AcDbLine
 10
27.46126533383058
 20
37.97387813559129
 30
0.0
 11
27.46126533383058
 21
37.98887812873676
 31
0.0
  0
LINE
  5
113F
330
A
100
AcDbEntity
  8
001
  6
Continuous
370
    15
100
AcDbLine
 10
27.45876533807741
 20
37.99137813380315
 30
0.0
 11
27.25014033703432
 21
37.99137813380315
 31
0.0
  0
LINE
  5
1140
330
A
100
AcDbEntity
  8
001
  6
Continuous
370
    15
100
AcDbLine
 10
27.46126533383058
 20
37.98887812873676
 30
0.0
 11
27.45876533807741
 21
37.99137813380315
 31
0.0
  0
ARC
  5
1141
330
A
100
AcDbEntity
  8
001
  6
Continuous
370
    15
100
AcDbCircle
 10
27.47376533584223
 20
37.97387812742606
 30
0.0
 40
0.0124999999999997
100
AcDbArc
 50
180.0
 51
270.0
  0
LINE
  5
1142
330
A
100
AcDbEntity
  8
001
  6
Continuous
370
    15
100
AcDbLine
 10
27.25014033703432
 20
37.99137813380315
 30
0.0
 11
27.24514032690153
 21
37.98637812367037
 31
0.0
  0
LINE
  5
1143
330
A
100
AcDbEntity
  8
001
  6
Continuous
370
    15
100
AcDbLine
 10
27.24514032690153
 20
37.98637812367037
 30
0.0
 11
27.24514032690153
 21
37.96137812888577
 31
0.0
  0
LINE
  5
1144
330
A
100
AcDbEntity
  8
001
  6
Continuous
370
    15
100
AcDbLine
 10
27.69739033472465
 20
37.99137813380315
 30
0.0
 11
27.48876533368156
 21
37.99137813380315
 31
0.0
  0
LINE
  5
1145
330
A
100
AcDbEntity
  8
001
  6
Continuous
370
    15
100
AcDbLine
 10
27.48876533368156
 20
37.99137813380315
 30
0.0
 11
27.48626533792839
 21
37.98887812873676
 31
0.0
  0
LINE
  5
1146
330
A
100
AcDbEntity
  8
001
  6
Continuous
370
    15
100
AcDbLine
 10
27.70239033554421
 20
37.98637812367037
 30
0.0
 11
27.69739033472465
 21
37.99137813380315
 31
0.0
  0
LINE
  5
1147
330
A
100
AcDbEntity
  8
001
  6
Continuous
370
    15
100
AcDbLine
 10
27.48626533792839
 20
37.98887812873676
 30
0.0
 11
27.48626533792839
 21
37.97387813559129
 31
0.0
  0
ARC
  5
1148
330
A
100
AcDbEntity
  8
001
  6
Continuous
370
    15
100
AcDbCircle
 10
27.47376533584223
 20
37.97387812742606
 30
0.0
 40
0.0124999999999997
100
AcDbArc
 50
270.0
 51
0.0
  0
LINE
  5
1149
330
A
100
AcDbEntity
  8
001
  6
Continuous
370
    15
100
AcDbLine
 10
27.70239033554421
 20
37.98637812367037
 30
0.0
 11
27.70239033554421
 21
37.96137812888577
 31
0.0
  0
LINE
  5
114A
330
A
100
AcDbEntity
  8
001
  6
Continuous
370
    15
100
AcDbLine
 10
27.22764032868967
 20
37.88677812895134
 30
0.0
 11
27.23514034388886
 21
37.88677812895134
 31
0.0
  0
LINE
  5
114B
330
A
100
AcDbEntity
  8
001
  6
Continuous
370
    15
100
AcDbLine
 10
27.22764032868967
 20
37.9218135528858
 30
0.0
 11
27.22764032868967
 21
37.88677812895134
 31
0.0
  0
LINE
  5
114C
330
A
100
AcDbEntity
  8
001
  6
Continuous
370
    15
100
AcDbLine
 10
27.22764032868967
 20
37.9218135528858
 30
0.0
 11
27.23514034388886
 21
37.9218135528858
 31
0.0
  0
LINE
  5
114D
330
A
100
AcDbEntity
  8
001
  6
Continuous
370
    15
100
AcDbLine
 10
27.22764032868967
 20
37.88677812895134
 30
0.0
 11
27.22264033718333
 21
37.88677812895134
 31
0.0
  0
LINE
  5
114E
330
A
100
AcDbEntity
  8
001
  6
Continuous
370
    15
100
AcDbLine
 10
27.22264033718333
 20
37.88677812895134
 30
0.0
 11
27.22264033718333
 21
37.91681356137946
 31
0.0
  0
LINE
  5
114F
330
A
100
AcDbEntity
  8
001
  6
Continuous
370
    15
100
AcDbLine
 10
27.22764032868967
 20
37.9218135528858
 30
0.0
 11
27.22264033718333
 21
37.91681356137946
 31
0.0
  0
LINE
  5
1150
330
A
100
AcDbEntity
  8
001
  6
Continuous
370
    15
100
AcDbLine
 10
27.22764032868967
 20
37.88677812895134
 30
0.0
 11
27.22764032868967
 21
37.85174270501688
 31
0.0
  0
LINE
  5
1151
330
A
100
AcDbEntity
  8
001
  6
Continuous
370
    15
100
AcDbLine
 10
27.22764032868967
 20
37.85174270501688
 30
0.0
 11
27.22264033718333
 21
37.85674269652322
 31
0.0
  0
LINE
  5
1152
330
A
100
AcDbEntity
  8
001
  6
Continuous
370
    15
100
AcDbLine
 10
27.22264033718333
 20
37.85674269652322
 30
0.0
 11
27.22264033718333
 21
37.88677812895134
 31
0.0
  0
LINE
  5
1153
330
A
100
AcDbEntity
  8
001
  6
Continuous
370
    15
100
AcDbLine
 10
27.22764032868967
 20
37.85174270501688
 30
0.0
 11
27.23514034388886
 21
37.85174270501688
 31
0.0
  0
LINE
  5
1154
330
A
100
AcDbEntity
  8
001
  6
Continuous
370
    15
100
AcDbLine
 10
27.71239033718334
 20
37.93337812057092
 30
0.0
 11
27.70239033554421
 21
37.93337812057092
 31
0.0
  0
LINE
  5
1155
330
A
100
AcDbEntity
  8
001
  6
Continuous
370
    15
100
AcDbLine
 10
27.71239033718334
 20
37.72787812739938
 30
0.0
 11
27.70239033554421
 21
37.72787812739938
 31
0.0
  0
LINE
  5
1156
330
A
100
AcDbEntity
  8
001
  6
Continuous
370
    15
100
AcDbLine
 10
27.70239033554421
 20
37.72787812739938
 30
0.0
 11
27.70239033554421
 21
37.93337812057092
 31
0.0
  0
LINE
  5
1157
330
A
100
AcDbEntity
  8
001
  6
Continuous
370
    15
100
AcDbLine
 10
27.71239033718334
 20
37.72787812739938
 30
0.0
 11
27.71239033718334
 21
37.93337812057092
 31
0.0
  0
LINE
  5
1158
330
A
100
AcDbEntity
  8
001
  6
Continuous
370
    15
100
AcDbLine
 10
27.71239033718334
 20
37.95837813398197
 30
0.0
 11
27.70239033554421
 21
37.95837813398197
 31
0.0
  0
LINE
  5
1159
330
A
100
AcDbEntity
  8
001
  6
Continuous
370
    15
100
AcDbLine
 10
27.70239033554421
 20
37.93337812057092
 30
0.0
 11
27.70239033554421
 21
37.93690481564357
 31
0.0
  0
LINE
  5
115A
330
A
100
AcDbEntity
  8
001
  6
Continuous
370
    15
100
AcDbLine
 10
27.70239033554421
 20
37.95637811875298
 30
0.0
 11
27.70239033554421
 21
37.95837813398197
 31
0.0
  0
LINE
  5
115B
330
A
100
AcDbEntity
  8
001
  6
Continuous
370
    15
100
AcDbLine
 10
27.71239033718334
 20
37.93337812057092
 30
0.0
 11
27.71239033718334
 21
37.95837813398197
 31
0.0
  0
LINE
  5
115C
330
A
100
AcDbEntity
  8
001
  6
Continuous
370
    15
100
AcDbLine
 10
27.71239033718334
 20
37.70287812562987
 30
0.0
 11
27.70239033554421
 21
37.70287812562987
 31
0.0
  0
LINE
  5
115D
330
A
100
AcDbEntity
  8
001
  6
Continuous
370
    15
100
AcDbLine
 10
27.70239033554421
 20
37.70287812562987
 30
0.0
 11
27.70239033554421
 21
37.70487812688902
 31
0.0
  0
LINE
  5
115E
330
A
100
AcDbEntity
  8
001
  6
Continuous
370
    15
100
AcDbLine
 10
27.70239033554421
 20
37.72435144396826
 30
0.0
 11
27.70239033554421
 21
37.72787812739938
 31
0.0
  0
LINE
  5
115F
330
A
100
AcDbEntity
  8
001
  6
Continuous
370
    15
100
AcDbLine
 10
27.71239033718334
 20
37.70287812562987
 30
0.0
 11
27.71239033718334
 21
37.72787812739938
 31
0.0
  0
MTEXT
  5
1160
330
A
100
AcDbEntity
  8
001
100
AcDbMText
 10
27.64584830306731
 20
37.87473833214664
 30
0.0
 40
0.008
 41
0.0742120000000068
 71
     1
 72
     1
  1
{\fMonospac821 BT|b1|i0|c0|p49;HDMI}
 73
     1
 44
1.0
1001
ACAD
1000
MTEXTBEGIN
1070
    73
1070
     1
1070
    44
1040
1.0
1070
    74
1070
     0
1000
MTEXTEND
  0
LINE
  5
1161
330
A
100
AcDbEntity
  8
001
100
AcDbLine
 10
27.68292953775071
 20
37.8747198412618
 30
0.0
 11
27.6917617621781
 21
37.87150517446786
 31
0.0
  0
LINE
  5
1162
330
A
100
AcDbEntity
  8
001
100
AcDbLine
 10
27.68292953775071
 20
37.86659906095652
 30
0.0
 11
27.6917617621781
 21
37.86981372775044
 31
0.0
  0
ARC
  5
1163
330
A
100
AcDbEntity
  8
001
100
AcDbCircle
 10
27.69145394404911
 20
37.87065945110915
 30
0.0
 40
0.0009000000000004
100
AcDbArc
 50
289.9999999999892
 51
70.00000000001076
  0
ARC
  5
1164
330
A
100
AcDbEntity
  8
001
100
AcDbCircle
 10
27.68262171962171
 20
37.87387411790309
 30
0.0
 40
0.0009000000000004
100
AcDbArc
 50
70.00000000001076
 51
180.0
  0
ARC
  5
1165
330
A
100
AcDbEntity
  8
001
100
AcDbCircle
 10
27.68262171962171
 20
37.86744478431523
 30
0.0
 40
0.0009000000000033
100
AcDbArc
 50
180.0
 51
289.9999999999892
  0
HATCH
  5
1166
330
A
100
AcDbEntity
  8
001
100
AcDbHatch
 10
0.0
 20
0.0
 30
0.0
210
0.0
220
0.0
230
1.0
  2
SOLID
 70
     1
 71
     0
 91
        1
 92
        7
 72
     1
 73
     1
 93
        8
 10
27.69176176217809
 20
37.86981372775044
 42
0.7002075382097597
 10
27.69176176217809
 20
37.87150517446785
 42
0.0
 10
27.68292953775071
 20
37.87471984126179
 42
0.0874886635289107
 10
27.6826217196217
 20
37.87477411790308
 42
0.414213562370303
 10
27.68172171962171
 20
37.87387411790308
 42
0.0
 10
27.68172171962171
 20
37.86744478431523
 42
0.5575380688093248
 10
27.68302421567236
 20
37.8666398017507
 42
-0.0286544630266739
 10
27.68292953775069
 20
37.86659906095652
 42
0.0
 97
        0
 75
     0
 76
     1
 47
0.001
 98
        1
 10
27.68550159168809
 20
37.87044523946926
  0
LINE
  5
1167
330
A
100
AcDbEntity
  8
001
100
AcDbLine
 10
27.71239033718334
 20
37.79062813380315
 30
0.0
 11
27.71239033718334
 21
37.95662813380317
 31
0.0
  0
MTEXT
  5
1168
330
A
100
AcDbEntity
  8
001
100
AcDbMText
 10
27.6581044107041
 20
37.76171882808072
 30
0.0
 40
0.008
 41
0.0742120000000068
 71
     1
 72
     1
  1
{\fMonospac821 BT|b0|i0|c0|p49;\W1.2;Mode}
 73
     1
 44
1.0
1001
ACAD
1000
MTEXTBEGIN
1070
    73
1070
     1
1070
    44
1040
1.0
1070
    74
1070
     0
1000
MTEXTEND
  0
MTEXT
  5
1169
330
A
100
AcDbEntity
  8
001
100
AcDbMText
 10
27.68715431709388
 20
37.77111750941467
 30
0.0
 40
0.0075
 41
0.0742120000000068
 71
     1
 72
     1
  1
{\fMonospac821 BT|b0|i0|c0|p49;1}
 73
     1
 44
1.0
1001
ACAD
1000
MTEXTBEGIN
1070
    73
1070
     1
1070
    44
1040
1.0
1070
    74
1070
     0
1000
MTEXTEND
  0
MTEXT
  5
116A
330
A
100
AcDbEntity
  8
001
100
AcDbMText
 10
27.67935179834431
 20
37.81637395965397
 30
0.0
 40
0.0075
 41
0.0742120000000023
 71
     1
 72
     1
  1
{\fMonospac821 BT|b0|i0|c0|p49;On}
 73
     1
 44
1.0
1001
ACAD
1000
MTEXTBEGIN
1070
    73
1070
     1
1070
    44
1040
1.0
1070
    74
1070
     0
1000
MTEXTEND
  0
MTEXT
  5
116B
330
A
100
AcDbEntity
  8
001
100
AcDbMText
 10
27.65702801599902
 20
37.81644007356626
 30
0.0
 40
0.0075
 41
0.0742120000000023
 71
     1
 72
     1
  1
{\fMonospac821 BT|b0|i0|c0|p49;Off}
 73
     1
 44
1.0
1001
ACAD
1000
MTEXTBEGIN
1070
    73
1070
     1
1070
    44
1040
1.0
1070
    74
1070
     0
1000
MTEXTEND
  0
LWPOLYLINE
  5
116C
330
A
100
AcDbEntity
  8
001
100
AcDbPolyline
 90
        8
 70
     1
 43
0.001
 10
27.67933135188399
 20
37.76432661443033
 10
27.65913587465056
 20
37.76432661443033
 42
-0.4142135623730951
 10
27.65763587465056
 20
37.76582661443033
 10
27.65763587465056
 20
37.80209602229028
 42
-0.4142135623730951
 10
27.65913587465056
 20
37.80359602229028
 10
27.67933135188398
 20
37.80359602229028
 42
-0.4142135623729723
 10
27.68083135188398
 20
37.80209602229028
 10
27.68083135188398
 20
37.76582661443032
 42
-0.4142135623731656
  0
MTEXT
  5
116D
330
A
100
AcDbEntity
  8
001
100
AcDbMText
 10
27.68596239132581
 20
37.78212225421557
 30
0.0
 40
0.0075
 41
0.0742120000000068
 71
     1
 72
     1
  1
{\fMonospac821 BT|b0|i0|c0|p49;2}
 73
     1
 44
1.0
1001
ACAD
1000
MTEXTBEGIN
1070
    73
1070
     1
1070
    44
1040
1.0
1070
    74
1070
     0
1000
MTEXTEND
  0
MTEXT
  5
116E
330
A
100
AcDbEntity
  8
001
100
AcDbMText
 10
27.68596239132581
 20
37.79295768359748
 30
0.0
 40
0.0075
 41
0.0742120000000068
 71
     1
 72
     1
  1
{\fMonospac821 BT|b0|i0|c0|p49;3}
 73
     1
 44
1.0
1001
ACAD
1000
MTEXTBEGIN
1070
    73
1070
     1
1070
    44
1040
1.0
1070
    74
1070
     0
1000
MTEXTEND
  0
MTEXT
  5
116F
330
A
100
AcDbEntity
  8
001
100
AcDbMText
 10
27.68596239132581
 20
37.80480891809718
 30
0.0
 40
0.0075
 41
0.0742120000000068
 71
     1
 72
     1
  1
{\fMonospac821 BT|b0|i0|c0|p49;4}
 73
     1
 44
1.0
1001
ACAD
1000
MTEXTBEGIN
1070
    73
1070
     1
1070
    44
1040
1.0
1070
    74
1070
     0
1000
MTEXTEND
  0
MTEXT
  5
1170
330
A
100
AcDbEntity
  8
001
100
AcDbMText
 10
27.26763278640768
 20
37.77540620694888
 30
0.0
 40
0.008
 41
0.0742119999999977
 71
     1
 72
     1
  1
{\fMonospac821 BT|b0|i0|c0|p49;DC12V}
 73
     1
 44
1.0
1001
ACAD
1000
MTEXTBEGIN
1070
    73
1070
     1
1070
    44
1040
1.0
1070
    74
1070
     0
1000
MTEXTEND
  0
MTEXT
  5
1171
330
A
100
AcDbEntity
  8
001
100
AcDbMText
 10
27.25374716595875
 20
37.89195768337433
 30
0.0
 40
0.008
 41
0.0742119999999977
 71
     1
 72
     1
  1
{\fMonospac821 BT|b1|i0|c0|p49;SDI}
 73
     1
 44
1.0
1001
ACAD
1000
MTEXTBEGIN
1070
    73
1070
     1
1070
    44
1040
1.0
1070
    74
1070
     0
1000
MTEXTEND
  0
LINE
  5
1172
330
A
100
AcDbEntity
  8
001
100
AcDbLine
 10
27.28070794857171
 20
37.8903092650404
 30
0.0
 11
27.28070794857171
 21
37.88516579817011
 31
0.0
  0
LINE
  5
1173
330
A
100
AcDbEntity
  8
001
100
AcDbLine
 10
27.28167420307491
 20
37.89098584372736
 30
0.0
 11
27.28873998261682
 21
37.88841411029221
 31
0.0
  0
LINE
  5
1174
330
A
100
AcDbEntity
  8
001
100
AcDbLine
 10
27.28167420307491
 20
37.88448921948314
 30
0.0
 11
27.28873998261682
 21
37.88706095291828
 31
0.0
  0
ARC
  5
1175
330
A
100
AcDbEntity
  8
001
100
AcDbCircle
 10
27.28849372811363
 20
37.88773753160525
 30
0.0
 40
0.0007200000000003
100
AcDbArc
 50
289.9999999999892
 51
70.00000000001076
  0
ARC
  5
1176
330
A
100
AcDbEntity
  8
001
100
AcDbCircle
 10
27.2814279485717
 20
37.8903092650404
 30
0.0
 40
0.0007200000000003
100
AcDbArc
 50
70.00000000001076
 51
180.0
  0
ARC
  5
1177
330
A
100
AcDbEntity
  8
001
100
AcDbCircle
 10
27.2814279485717
 20
37.88516579817011
 30
0.0
 40
0.0007200000000026
100
AcDbArc
 50
180.0
 51
289.9999999999892
  0
HATCH
  5
1178
330
A
100
AcDbEntity
  8
001
100
AcDbHatch
 10
0.0
 20
0.0
 30
0.0
210
0.0
220
0.0
230
1.0
  2
SOLID
 70
     1
 71
     0
 91
        1
 92
        7
 72
     1
 73
     1
 93
        8
 10
27.28873998261682
 20
37.88706095291828
 42
0.7002075382029405
 10
27.28873998261682
 20
37.88841411029221
 42
0.0
 10
27.28167420307491
 20
37.89098584372736
 42
0.2060211481439024
 10
27.28110595478295
 20
37.89095325261792
 42
0.284079043841136
 10
27.28070794857171
 20
37.89030926504039
 42
0.0
 10
27.28070794857171
 20
37.88516579817011
 42
0.4879283649269303
 10
27.28160257422175
 20
37.88446729557
 42
0.0260276718187153
 10
27.28167420307491
 20
37.88448921948313
 42
0.0
 97
        0
 75
     0
 76
     1
 47
0.001
 98
        1
 10
27.28373184622481
 20
37.88756616229333
  0
MTEXT
  5
1179
330
A
100
AcDbEntity
  8
001
100
AcDbMText
 10
27.27892896324906
 20
37.80806987047689
 30
0.0
 40
0.0065
 41
0.0742119999999977
 71
     1
 72
     1
  1
{\fMonospac821 BT|b0|i0|c0|p49;Link}
 73
     1
 44
1.0
1001
ACAD
1000
MTEXTBEGIN
1070
    73
1070
     1
1070
    44
1040
1.0
1070
    74
1070
     0
1000
MTEXTEND
  0
MTEXT
  5
117A
330
A
100
AcDbEntity
  8
001
100
AcDbMText
 10
27.25352920936726
 20
37.80785598008064
 30
0.0
 40
0.0065
 41
0.0742119999999977
 71
     1
 72
     1
  1
{\fMonospac821 BT|b0|i0|c0|p49;PWR}
 73
     1
 44
1.0
1001
ACAD
1000
MTEXTBEGIN
1070
    73
1070
     1
1070
    44
1040
1.0
1070
    74
1070
     0
1000
MTEXTEND
  0
LWPOLYLINE
  5
117B
330
A
100
AcDbEntity
  8
001
100
AcDbPolyline
 90
        3
 70
     0
 43
0.0007
 10
27.26254799299773
 20
37.81871338607916
 42
0.7117976980889792
 10
27.25414799299775
 20
37.81871338607916
 42
1.404893557094636
 10
27.26254799299773
 20
37.81871338607916
  0
LWPOLYLINE
  5
117C
330
A
100
AcDbEntity
  8
001
100
AcDbPolyline
 90
        3
 70
     0
 43
0.0007
 10
27.28802550247416
 20
37.81871338607916
 42
0.7117976980889792
 10
27.27962550247417
 20
37.81871338607916
 42
1.404893557094636
 10
27.28802550247416
 20
37.81871338607916
  0
MTEXT
  5
117D
330
A
100
AcDbEntity
  8
001
100
AcDbMText
 10
27.25692798709277
 20
37.81984237706669
 30
0.0
 40
0.00525
 41
0.0519484000000048
 71
     1
 72
     1
  1
{\fMonospac821 BT|b0|i0|c0|p49;R}
 73
     1
 44
1.0
1001
ACAD
1000
MTEXTBEGIN
1070
    73
1070
     1
1070
    44
1040
1.0
1070
    74
1070
     0
1000
MTEXTEND
  0
MTEXT
  5
117E
330
A
100
AcDbEntity
  8
001
100
AcDbMText
 10
27.28165107194401
 20
37.81996127808075
 30
0.0
 40
0.00525
 41
0.0519483999999984
 71
     1
 72
     1
  1
{\fMonospac821 BT|b0|i0|c0|p49;G}
 73
     1
 44
1.0
1001
ACAD
1000
MTEXTBEGIN
1070
    73
1070
     1
1070
    44
1040
1.0
1070
    74
1070
     0
1000
MTEXTEND
  0
LWPOLYLINE
  5
117F
330
A
100
AcDbEntity
  8
001
100
AcDbPolyline
 90
        3
 70
     0
 43
0.0007
 10
27.26262817577641
 20
37.78285931628398
 42
0.7117976980889792
 10
27.25422817577641
 20
37.78285931628398
 42
1.404893557094636
 10
27.26262817577641
 20
37.78285931628398
  0
MTEXT
  5
1180
330
A
100
AcDbEntity
  8
001
100
AcDbMText
 10
27.25674716179481
 20
37.78398830727152
 30
0.0
 40
0.00525
 41
0.0519484000000048
 71
     1
 72
     1
  1
{\fMonospac821 BT|b0|i0|c0|p49;+}
 73
     1
 44
1.0
1001
ACAD
1000
MTEXTBEGIN
1070
    73
1070
     1
1070
    44
1040
1.0
1070
    74
1070
     0
1000
MTEXTEND
  0
LWPOLYLINE
  5
1181
330
A
100
AcDbEntity
  8
001
100
AcDbPolyline
 90
        3
 70
     0
 43
0.0007
 10
27.26262817577641
 20
37.762862118435
 42
0.7117976980889792
 10
27.25422817577641
 20
37.762862118435
 42
1.404893557094636
 10
27.26262817577641
 20
37.762862118435
  0
MTEXT
  5
1182
330
A
100
AcDbEntity
  8
001
100
AcDbMText
 10
27.25623207424075
 20
37.76820073713949
 30
0.0
 40
0.00525
 41
0.0519484000000048
 71
     1
 72
     1
  1
{\fMonospac821 BT|b0|i0|c0|p49;_}
 73
     1
 44
1.0
1001
ACAD
1000
MTEXTBEGIN
1070
    73
1070
     1
1070
    44
1040
1.0
1070
    74
1070
     0
1000
MTEXTEND
  0
LINE
  5
1183
330
A
100
AcDbEntity
  8
001
100
AcDbLine
 10
27.66309512480033
 20
37.78646131836031
 30
0.0
 11
27.66659512480034
 21
37.78646131836031
 31
0.0
  0
ARC
  5
1184
330
A
100
AcDbEntity
  8
001
100
AcDbCircle
 10
27.66309512480033
 20
37.7872113183603
 30
0.0
 40
0.00075
100
AcDbArc
 50
180.0
 51
270.0
  0
LINE
  5
1185
330
A
100
AcDbEntity
  8
001
100
AcDbLine
 10
27.66309512480033
 20
37.79146131836031
 30
0.0
 11
27.66659512480034
 21
37.79146131836031
 31
0.0
  0
ARC
  5
1186
330
A
100
AcDbEntity
  8
001
100
AcDbCircle
 10
27.66659512480034
 20
37.79071131836031
 30
0.0
 40
0.00075
100
AcDbArc
 50
0.0000000001042204
 51
90.0
  0
LINE
  5
1187
330
A
100
AcDbEntity
  8
001
100
AcDbLine
 10
27.66309512480033
 20
37.79646131836031
 30
0.0
 11
27.66659512480034
 21
37.79646131836031
 31
0.0
  0
ARC
  5
1188
330
A
100
AcDbEntity
  8
001
100
AcDbCircle
 10
27.66659512480034
 20
37.79721131836031
 30
0.0
 40
0.00075
100
AcDbArc
 50
270.0
 51
359.9999999998958
  0
LINE
  5
1189
330
A
100
AcDbEntity
  8
001
100
AcDbLine
 10
27.66309512480033
 20
37.80146131836031
 30
0.0
 11
27.66659512480034
 21
37.8014613183603
 31
0.0
  0
LINE
  5
118A
330
A
100
AcDbEntity
  8
001
100
AcDbLine
 10
27.66234512480032
 20
37.7872113183603
 30
0.0
 11
27.66234512480032
 21
37.79071131836031
 31
0.0
  0
ARC
  5
118B
330
A
100
AcDbEntity
  8
001
100
AcDbCircle
 10
27.66309512480033
 20
37.79071131836031
 30
0.0
 40
0.00075
100
AcDbArc
 50
90.0
 51
180.0
  0
LINE
  5
118C
330
A
100
AcDbEntity
  8
001
100
AcDbLine
 10
27.66234512480032
 20
37.79721131836031
 30
0.0
 11
27.66234512480032
 21
37.80071131836031
 31
0.0
  0
ARC
  5
118D
330
A
100
AcDbEntity
  8
001
100
AcDbCircle
 10
27.66309512480033
 20
37.79721131836031
 30
0.0
 40
0.00075
100
AcDbArc
 50
180.0
 51
270.0
  0
ARC
  5
118E
330
A
100
AcDbEntity
  8
001
100
AcDbCircle
 10
27.66309512480033
 20
37.80071131836031
 30
0.0
 40
0.00075
100
AcDbArc
 50
90.0
 51
180.0
  0
LINE
  5
118F
330
A
100
AcDbEntity
  8
001
100
AcDbLine
 10
27.66734512480033
 20
37.7872113183603
 30
0.0
 11
27.66734512480033
 21
37.79071131836031
 31
0.0
  0
ARC
  5
1190
330
A
100
AcDbEntity
  8
001
100
AcDbCircle
 10
27.66659512480034
 20
37.7872113183603
 30
0.0
 40
0.00075
100
AcDbArc
 50
270.0
 51
0.0
  0
LINE
  5
1191
330
A
100
AcDbEntity
  8
001
100
AcDbLine
 10
27.66734512480033
 20
37.79721131836031
 30
0.0
 11
27.66734512480033
 21
37.8007113183603
 31
0.0
  0
ARC
  5
1192
330
A
100
AcDbEntity
  8
001
100
AcDbCircle
 10
27.66659512480034
 20
37.8007113183603
 30
0.0
 40
0.00075
100
AcDbArc
 50
0.0
 51
90.0
  0
LINE
  5
1193
330
A
100
AcDbEntity
  8
001
100
AcDbLine
 10
27.66309512480033
 20
37.7814613183603
 30
0.0
 11
27.66659512480034
 21
37.7814613183603
 31
0.0
  0
ARC
  5
1194
330
A
100
AcDbEntity
  8
001
100
AcDbCircle
 10
27.66309512480033
 20
37.78071131836031
 30
0.0
 40
0.00075
100
AcDbArc
 50
90.0
 51
180.0
  0
LINE
  5
1195
330
A
100
AcDbEntity
  8
001
100
AcDbLine
 10
27.66309512480033
 20
37.77646131836031
 30
0.0
 11
27.66659512480034
 21
37.77646131836031
 31
0.0
  0
ARC
  5
1196
330
A
100
AcDbEntity
  8
001
100
AcDbCircle
 10
27.66659512480034
 20
37.77721131836031
 30
0.0
 40
0.00075
100
AcDbArc
 50
270.0
 51
0.0
  0
LINE
  5
1197
330
A
100
AcDbEntity
  8
001
100
AcDbLine
 10
27.66309512480033
 20
37.77146131836031
 30
0.0
 11
27.66659512480034
 21
37.77146131836031
 31
0.0
  0
ARC
  5
1198
330
A
100
AcDbEntity
  8
001
100
AcDbCircle
 10
27.66659512480034
 20
37.77071131836031
 30
0.0
 40
0.00075
100
AcDbArc
 50
0.0
 51
90.0
  0
LINE
  5
1199
330
A
100
AcDbEntity
  8
001
100
AcDbLine
 10
27.66309512480033
 20
37.76646131836031
 30
0.0
 11
27.66659512480034
 21
37.76646131836032
 31
0.0
  0
LINE
  5
119A
330
A
100
AcDbEntity
  8
001
100
AcDbLine
 10
27.66234512480032
 20
37.78071131836031
 30
0.0
 11
27.66234512480032
 21
37.77721131836031
 31
0.0
  0
ARC
  5
119B
330
A
100
AcDbEntity
  8
001
100
AcDbCircle
 10
27.66309512480033
 20
37.77721131836031
 30
0.0
 40
0.00075
100
AcDbArc
 50
180.0
 51
270.0
  0
LINE
  5
119C
330
A
100
AcDbEntity
  8
001
100
AcDbLine
 10
27.66234512480032
 20
37.77071131836031
 30
0.0
 11
27.66234512480032
 21
37.76721131836031
 31
0.0
  0
ARC
  5
119D
330
A
100
AcDbEntity
  8
001
100
AcDbCircle
 10
27.66309512480033
 20
37.77071131836031
 30
0.0
 40
0.00075
100
AcDbArc
 50
90.0
 51
180.0
  0
ARC
  5
119E
330
A
100
AcDbEntity
  8
001
100
AcDbCircle
 10
27.66309512480033
 20
37.76721131836031
 30
0.0
 40
0.00075
100
AcDbArc
 50
180.0
 51
270.0
  0
LINE
  5
119F
330
A
100
AcDbEntity
  8
001
100
AcDbLine
 10
27.66734512480033
 20
37.78071131836031
 30
0.0
 11
27.66734512480033
 21
37.77721131836031
 31
0.0
  0
ARC
  5
11A0
330
A
100
AcDbEntity
  8
001
100
AcDbCircle
 10
27.66659512480034
 20
37.78071131836031
 30
0.0
 40
0.00075
100
AcDbArc
 50
0.0
 51
90.0
  0
LINE
  5
11A1
330
A
100
AcDbEntity
  8
001
100
AcDbLine
 10
27.66734512480033
 20
37.77071131836031
 30
0.0
 11
27.66734512480033
 21
37.76721131836032
 31
0.0
  0
ARC
  5
11A2
330
A
100
AcDbEntity
  8
001
100
AcDbCircle
 10
27.66659512480034
 20
37.76721131836032
 30
0.0
 40
0.00075
100
AcDbArc
 50
270.0
 51
0.0
  0
MTEXT
  5
11A3
102
{ACAD_XDICTIONARY
360
11A4
102
}
330
A
100
AcDbEntity
  8
001
100
AcDbMText
 10
27.31735413446608
 20
37.79683208398111
 30
0.0
 40
0.01
 41
0.3123658724444488
 71
     1
 72
     5
  1
{\fMonospac821 BT|b1|i0|c0|p49;\T0.95;     HD-SDI to HDMI Converter}
 73
     1
 44
1.0
1001
ACAD
1000
MTEXTBEGIN
1070
    73
1070
     1
1070
    44
1040
1.0
1070
    74
1070
     0
1000
MTEXTEND
  0
POLYLINE
  5
11A7
330
A
100
AcDbEntity
  8
001
370
     0
100
AcDb2dPolyline
 66
     1
 10
0.0
 20
0.0
 30
0.0
  0
VERTEX
  5
11A8
330
11A7
100
AcDbEntity
  8
001
370
     0
100
AcDbVertex
100
AcDb2dVertex
 10
27.40580090206905
 20
37.83866981221265
 30
0.0
  0
VERTEX
  5
11A9
330
11A7
100
AcDbEntity
  8
001
370
     0
100
AcDbVertex
100
AcDb2dVertex
 10
27.4114656437563
 20
37.83866981221265
 30
0.0
  0
VERTEX
  5
11AA
330
11A7
100
AcDbEntity
  8
001
370
     0
100
AcDbVertex
100
AcDb2dVertex
 10
27.4135045826619
 20
37.82966569696096
 30
0.0
  0
VERTEX
  5
11AB
330
11A7
100
AcDbEntity
  8
001
370
     0
100
AcDbVertex
100
AcDb2dVertex
 10
27.4164894665191
 20
37.83866981221265
 30
0.0
  0
VERTEX
  5
11AC
330
11A7
100
AcDbEntity
  8
001
370
     0
100
AcDbVertex
100
AcDb2dVertex
 10
27.42213369419949
 20
37.83866981221265
 30
0.0
  0
VERTEX
  5
11AD
330
11A7
100
AcDbEntity
  8
001
370
     0
100
AcDbVertex
100
AcDb2dVertex
 10
27.42512547996554
 20
37.82967796702115
 30
0.0
  0
VERTEX
  5
11AE
330
11A7
100
AcDbEntity
  8
001
370
     0
100
AcDbVertex
100
AcDb2dVertex
 10
27.42716729466649
 20
37.83866981221265
 30
0.0
  0
VERTEX
  5
11AF
330
11A7
100
AcDbEntity
  8
001
370
     0
100
AcDbVertex
100
AcDb2dVertex
 10
27.43280251152144
 20
37.83866981221265
 30
0.0
  0
VERTEX
  5
11B0
330
11A7
100
AcDbEntity
  8
001
370
     0
100
AcDbVertex
100
AcDb2dVertex
 10
27.42854825159522
 20
37.82258644739921
 30
0.0
  0
VERTEX
  5
11B1
330
11A7
100
AcDbEntity
  8
001
370
     0
100
AcDbVertex
100
AcDb2dVertex
 10
27.42270022588412
 20
37.82258644739921
 30
0.0
  0
VERTEX
  5
11B2
330
11A7
100
AcDbEntity
  8
001
370
     0
100
AcDbVertex
100
AcDb2dVertex
 10
27.41931445615465
 20
37.8327126979978
 30
0.0
  0
VERTEX
  5
11B3
330
11A7
100
AcDbEntity
  8
001
370
     0
100
AcDbVertex
100
AcDb2dVertex
 10
27.41594325712163
 20
37.82258644739921
 30
0.0
  0
VERTEX
  5
11B4
330
11A7
100
AcDbEntity
  8
001
370
     0
100
AcDbVertex
100
AcDb2dVertex
 10
27.41009484797114
 20
37.82258644739921
 30
0.0
  0
VERTEX
  5
11B5
330
11A7
100
AcDbEntity
  8
001
370
     0
100
AcDbVertex
100
AcDb2dVertex
 10
27.40580090206905
 20
37.83866981221265
 30
0.0
  0
SEQEND
  5
11B6
330
11A7
100
AcDbEntity
  8
001
370
     0
  0
HATCH
  5
11B7
330
A
100
AcDbEntity
  8
001
100
AcDbHatch
 10
0.0
 20
0.0
 30
0.0
210
0.0
220
0.0
230
1.0
  2
SOLID
 70
     1
 71
     0
 91
        1
 92
        1
 93
       13
 72
     1
 10
27.40580090206905
 20
37.83866981221266
 11
27.41146564375631
 21
37.83866981221266
 72
     1
 10
27.41146564375629
 20
37.83866981221266
 11
27.4135045826619
 21
37.82966569696098
 72
     1
 10
27.4135045826619
 20
37.82966569696098
 11
27.41648946651911
 21
37.83866981221266
 72
     1
 10
27.4164894665191
 20
37.83866981221266
 11
27.42213369419948
 21
37.83866981221266
 72
     1
 10
27.42213369419948
 20
37.83866981221266
 11
27.42512547996554
 21
37.82967796702116
 72
     1
 10
27.42512547996554
 20
37.82967796702116
 11
27.42716729466649
 21
37.83866981221266
 72
     1
 10
27.42716729466649
 20
37.83866981221266
 11
27.43280251152144
 21
37.83866981221266
 72
     1
 10
27.43280251152144
 20
37.83866981221266
 11
27.42854825159522
 21
37.82258644739922
 72
     1
 10
27.42854825159521
 20
37.82258644739922
 11
27.4227002258841
 21
37.82258644739922
 72
     1
 10
27.42270022588412
 20
37.82258644739922
 11
27.41931445615465
 21
37.83271269799782
 72
     1
 10
27.41931445615465
 20
37.83271269799782
 11
27.41594325712163
 21
37.82258644739922
 72
     1
 10
27.41594325712163
 20
37.82258644739922
 11
27.41009484797115
 21
37.82258644739922
 72
     1
 10
27.41009484797114
 20
37.82258644739922
 11
27.40580090206905
 21
37.83866981221266
 97
        0
 75
     2
 76
     1
 98
        0
  0
POLYLINE
  5
11B8
330
A
100
AcDbEntity
  8
001
370
     0
100
AcDb2dPolyline
 66
     1
 10
0.0
 20
0.0
 30
0.0
  0
VERTEX
  5
11B9
330
11B8
100
AcDbEntity
  8
001
370
     0
100
AcDbVertex
100
AcDb2dVertex
 10
27.43379561951682
 20
37.83866981221265
 30
0.0
  0
VERTEX
  5
11BA
330
11B8
100
AcDbEntity
  8
001
370
     0
100
AcDbVertex
100
AcDb2dVertex
 10
27.44977813977321
 20
37.83866981221265
 30
0.0
  0
VERTEX
  5
11BB
330
11B8
100
AcDbEntity
  8
001
370
     0
100
AcDbVertex
100
AcDb2dVertex
 10
27.44977813977321
 20
37.83523572912124
 30
0.0
  0
VERTEX
  5
11BC
330
11B8
100
AcDbEntity
  8
001
370
     0
100
AcDbVertex
100
AcDb2dVertex
 10
27.43977248085977
 20
37.83523572912124
 30
0.0
  0
VERTEX
  5
11BD
330
11B8
100
AcDbEntity
  8
001
370
     0
100
AcDbVertex
100
AcDb2dVertex
 10
27.43977248085977
 20
37.83267972221108
 30
0.0
  0
VERTEX
  5
11BE
330
11B8
100
AcDbEntity
  8
001
370
     0
100
AcDbVertex
100
AcDb2dVertex
 10
27.44905363106383
 20
37.83267972221108
 30
0.0
  0
VERTEX
  5
11BF
330
11B8
100
AcDbEntity
  8
001
370
     0
100
AcDbVertex
100
AcDb2dVertex
 10
27.44905363106383
 20
37.82939959003094
 30
0.0
  0
VERTEX
  5
11C0
330
11B8
100
AcDbEntity
  8
001
370
     0
100
AcDbVertex
100
AcDb2dVertex
 10
27.43977248085977
 20
37.82939959003094
 30
0.0
  0
VERTEX
  5
11C1
330
11B8
100
AcDbEntity
  8
001
370
     0
100
AcDbVertex
100
AcDb2dVertex
 10
27.43977248085977
 20
37.82622892979389
 30
0.0
  0
VERTEX
  5
11C2
330
11B8
100
AcDbEntity
  8
001
370
     0
100
AcDbVertex
100
AcDb2dVertex
 10
27.45006744478577
 20
37.82622892979389
 30
0.0
  0
VERTEX
  5
11C3
330
11B8
100
AcDbEntity
  8
001
370
     0
100
AcDbVertex
100
AcDb2dVertex
 10
27.45006744478577
 20
37.82258644739921
 30
0.0
  0
VERTEX
  5
11C4
330
11B8
100
AcDbEntity
  8
001
370
     0
100
AcDbVertex
100
AcDb2dVertex
 10
27.43379561951682
 20
37.82258644739921
 30
0.0
  0
VERTEX
  5
11C5
330
11B8
100
AcDbEntity
  8
001
370
     0
100
AcDbVertex
100
AcDb2dVertex
 10
27.43379561951682
 20
37.83866981221265
 30
0.0
  0
SEQEND
  5
11C6
330
11B8
100
AcDbEntity
  8
001
370
     0
  0
HATCH
  5
11C7
330
A
100
AcDbEntity
  8
001
100
AcDbHatch
 10
0.0
 20
0.0
 30
0.0
210
0.0
220
0.0
230
1.0
  2
SOLID
 70
     1
 71
     0
 91
        1
 92
        1
 93
       12
 72
     1
 10
27.43379561951682
 20
37.83866981221266
 11
27.44977813977321
 21
37.83866981221266
 72
     1
 10
27.44977813977321
 20
37.83866981221266
 11
27.44977813977321
 21
37.83523572912125
 72
     1
 10
27.44977813977321
 20
37.83523572912125
 11
27.43977248085977
 21
37.83523572912125
 72
     1
 10
27.43977248085977
 20
37.83523572912125
 11
27.43977248085977
 21
37.8326797222111
 72
     1
 10
27.43977248085977
 20
37.83267972221109
 11
27.44905363106383
 21
37.83267972221109
 72
     1
 10
27.44905363106383
 20
37.83267972221109
 11
27.44905363106383
 21
37.82939959003094
 72
     1
 10
27.44905363106383
 20
37.82939959003095
 11
27.43977248085977
 21
37.82939959003095
 72
     1
 10
27.43977248085977
 20
37.82939959003095
 11
27.43977248085977
 21
37.82622892979391
 72
     1
 10
27.43977248085977
 20
37.82622892979391
 11
27.45006744478577
 21
37.82622892979391
 72
     1
 10
27.45006744478577
 20
37.82622892979391
 11
27.45006744478577
 21
37.82258644739922
 72
     1
 10
27.45006744478577
 20
37.82258644739922
 11
27.43379561951682
 21
37.82258644739922
 72
     1
 10
27.43379561951682
 20
37.82258644739922
 11
27.43379561951682
 21
37.83866981221266
 97
        0
 75
     2
 76
     1
 98
        0
  0
SPLINE
  5
11C8
330
A
100
AcDbEntity
  8
001
370
     0
100
AcDbSpline
210
0.0
220
0.0
230
1.0
 70
    11
 71
     3
 72
    44
 73
    40
 74
     0
 42
0.0000000001
 43
0.0000000001
 40
0.0
 40
0.0
 40
0.0
 40
0.0
 40
1.0
 40
1.0
 40
1.0
 40
2.0
 40
2.0
 40
2.0
 40
3.0
 40
3.0
 40
3.0
 40
4.0
 40
4.0
 40
4.0
 40
5.0
 40
5.0
 40
5.0
 40
6.0
 40
6.0
 40
6.0
 40
7.0
 40
7.0
 40
7.0
 40
8.0
 40
8.0
 40
8.0
 40
9.0
 40
9.0
 40
9.0
 40
10.0
 40
10.0
 40
10.0
 40
11.0
 40
11.0
 40
11.0
 40
12.0
 40
12.0
 40
12.0
 40
13.0
 40
13.0
 40
13.0
 40
13.0
 10
27.45155710677887
 20
37.83867000393235
 30
0.0
 10
27.45155710677887
 20
37.83867000393235
 30
0.0
 10
27.46272132778036
 20
37.83867000393235
 30
0.0
 10
27.46272132778036
 20
37.83867000393235
 30
0.0
 10
27.46458177565436
 20
37.83867000393235
 30
0.0
 10
27.46601047078596
 20
37.83828598939281
 30
0.0
 10
27.46700664629641
 20
37.83751796031374
 30
0.0
 10
27.46800320524622
 20
37.83674993123467
 30
0.0
 10
27.46850052612268
 20
37.83579900157114
 30
0.0
 10
27.46850052612268
 20
37.83466497960343
 30
0.0
 10
27.46850052612268
 20
37.83371481681863
 30
0.0
 10
27.46814546125637
 20
37.83289885781702
 30
0.0
 10
27.46743418120562
 20
37.83221882807577
 30
0.0
 10
27.46696063357075
 20
37.83176541100838
 30
0.0
 10
27.46626699173148
 20
37.83140727862703
 30
0.0
 10
27.46535440600599
 20
37.83114385577265
 30
0.0
 10
27.46674092280574
 20
37.83086586222182
 30
0.0
 10
27.46776125499715
 20
37.83038848019313
 30
0.0
 10
27.46841501914083
 20
37.82971228484569
 30
0.0
 10
27.46906878328452
 20
37.82903570605887
 30
0.0
 10
27.46939585707606
 20
37.828185237513
 30
0.0
 10
27.46939585707606
 20
37.82716126264748
 30
0.0
 10
27.46939585707606
 20
37.82632766543436
 30
0.0
 10
27.4691631093721
 20
37.82557765800619
 30
0.0
 10
27.46869838084299
 20
37.82491258240078
 30
0.0
 10
27.46823288543511
 20
37.82424673991661
 30
0.0
 10
27.46759637606355
 20
37.82372008592753
 30
0.0
 10
27.46678923616767
 20
37.82333262043358
 30
0.0
 10
27.46628884777618
 20
37.82309105362389
 30
0.0
 10
27.46553423907542
 20
37.82291563010733
 30
0.0
 10
27.46452502662606
 20
37.82280596644452
 30
0.0
 10
27.46318222191568
 20
37.82265968432087
 30
0.0
 10
27.46229110879549
 20
37.82258663911889
 30
0.0
 10
27.46185245414424
 20
37.82258663911889
 30
0.0
 10
27.46185245414424
 20
37.82258663911889
 30
0.0
 10
27.45155710677887
 20
37.82258663911889
 30
0.0
 10
27.45155710677887
 20
37.82258663911889
 30
0.0
 10
27.45155710677887
 20
37.82258663911889
 30
0.0
 10
27.45155710677887
 20
37.83867000393235
 30
0.0
 10
27.45155710677887
 20
37.83867000393235
 30
0.0
  0
SPLINE
  5
11C9
330
A
100
AcDbEntity
  8
001
370
     0
100
AcDbSpline
210
0.0
220
0.0
230
1.0
 70
    11
 71
     3
 72
    26
 73
    22
 74
     0
 42
0.0000000001
 43
0.0000000001
 40
0.0
 40
0.0
 40
0.0
 40
0.0
 40
1.0
 40
1.0
 40
1.0
 40
2.0
 40
2.0
 40
2.0
 40
3.0
 40
3.0
 40
3.0
 40
4.0
 40
4.0
 40
4.0
 40
5.0
 40
5.0
 40
5.0
 40
6.0
 40
6.0
 40
6.0
 40
7.0
 40
7.0
 40
7.0
 40
7.0
 10
27.45757403753705
 20
37.83236146752531
 30
0.0
 10
27.45757403753705
 20
37.83236146752531
 30
0.0
 10
27.46016723806712
 20
37.83236146752531
 30
0.0
 10
27.46016723806712
 20
37.83236146752531
 30
0.0
 10
27.46109746200412
 20
37.83236146752531
 30
0.0
 10
27.46174509111771
 20
37.8324949044297
 30
0.0
 10
27.46210935852916
 20
37.83276196995818
 30
0.0
 10
27.46247400937997
 20
37.83302884376699
 30
0.0
 10
27.46265537620693
 20
37.83341477550343
 30
0.0
 10
27.46265537620693
 20
37.8339193817281
 30
0.0
 10
27.46265537620693
 20
37.83438736949196
 30
0.0
 10
27.46247400937997
 20
37.83475336238062
 30
0.0
 10
27.46210935852916
 20
37.83501640179562
 30
0.0
 10
27.46174509111771
 20
37.83527944121061
 30
0.0
 10
27.46111088238243
 20
37.83541153607718
 30
0.0
 10
27.46020673232331
 20
37.83541153607718
 30
0.0
 10
27.46020673232331
 20
37.83541153607718
 30
0.0
 10
27.45757403753705
 20
37.83541153607718
 30
0.0
 10
27.45757403753705
 20
37.83541153607718
 30
0.0
 10
27.45757403753705
 20
37.83541153607718
 30
0.0
 10
27.45757403753705
 20
37.83236146752531
 30
0.0
 10
27.45757403753705
 20
37.83236146752531
 30
0.0
  0
SPLINE
  5
11CA
330
A
100
AcDbEntity
  8
001
370
     0
100
AcDbSpline
210
0.0
220
0.0
230
1.0
 70
    11
 71
     3
 72
    26
 73
    22
 74
     0
 42
0.0000000001
 43
0.0000000001
 40
0.0
 40
0.0
 40
0.0
 40
0.0
 40
1.0
 40
1.0
 40
1.0
 40
2.0
 40
2.0
 40
2.0
 40
3.0
 40
3.0
 40
3.0
 40
4.0
 40
4.0
 40
4.0
 40
5.0
 40
5.0
 40
5.0
 40
6.0
 40
6.0
 40
6.0
 40
7.0
 40
7.0
 40
7.0
 40
7.0
 10
27.45757403753705
 20
37.82604219481561
 30
0.0
 10
27.45757403753705
 20
37.82604219481561
 30
0.0
 10
27.46061471182412
 20
37.82604219481561
 30
0.0
 10
27.46061471182412
 20
37.82604219481561
 30
0.0
 10
27.46164156248498
 20
37.82604219481561
 30
0.0
 10
27.46236549603529
 20
37.82619422852997
 30
0.0
 10
27.46278727935381
 20
37.8264977207996
 30
0.0
 10
27.46320829579356
 20
37.82680121306924
 30
0.0
 10
27.46341918745281
 20
37.82720880913066
 30
0.0
 10
27.46341918745281
 20
37.82772070070358
 30
0.0
 10
27.46341918745281
 20
37.82819635725504
 30
0.0
 10
27.46321059642983
 20
37.82857826287798
 30
0.0
 10
27.46279341438389
 20
37.82886737617085
 30
0.0
 10
27.46237699921671
 20
37.82915629774402
 30
0.0
 10
27.46164616375756
 20
37.82930066267077
 30
0.0
 10
27.46060167488518
 20
37.82930066267077
 30
0.0
 10
27.46060167488518
 20
37.82930066267077
 30
0.0
 10
27.45757403753705
 20
37.82930066267077
 30
0.0
 10
27.45757403753705
 20
37.82930066267077
 30
0.0
 10
27.45757403753705
 20
37.82930066267077
 30
0.0
 10
27.45757403753705
 20
37.82604219481561
 30
0.0
 10
27.45757403753705
 20
37.82604219481561
 30
0.0
  0
HATCH
  5
11CB
330
A
100
AcDbEntity
  8
001
100
AcDbHatch
 10
0.0
 20
0.0
 30
0.0
210
0.0
220
0.0
230
1.0
  2
SOLID
 70
     1
 71
     0
 91
        3
 92
        1
 93
        1
 72
     4
 94
        3
 73
     0
 74
     1
 95
       40
 96
       40
 40
0.0
 40
0.0
 40
0.0
 40
1.0
 40
1.0
 40
1.0
 40
2.0
 40
2.0
 40
2.0
 40
3.0
 40
3.0
 40
3.0
 40
4.0
 40
4.0
 40
4.0
 40
5.0
 40
5.0
 40
5.0
 40
6.0
 40
6.0
 40
6.0
 40
7.0
 40
7.0
 40
7.0
 40
8.0
 40
8.0
 40
8.0
 40
9.0
 40
9.0
 40
9.0
 40
10.0
 40
10.0
 40
10.0
 40
11.0
 40
11.0
 40
11.0
 40
12.0
 40
12.0
 40
12.0
 40
13.0
 10
27.45155710677887
 20
37.82258663911891
 10
27.45155710677887
 20
37.82258663911891
 10
27.45155710677887
 20
37.83867000393235
 10
27.45155710677887
 20
37.83867000393235
 10
27.45155710677887
 20
37.83867000393235
 10
27.46272132778036
 20
37.83867000393235
 10
27.46272132778036
 20
37.83867000393235
 10
27.46458177565436
 20
37.83867000393235
 10
27.46601047078596
 20
37.83828598939282
 10
27.46700664629641
 20
37.83751796031376
 10
27.46800320524622
 20
37.8367499312347
 10
27.46850052612268
 20
37.83579900157114
 10
27.46850052612268
 20
37.83466497960345
 10
27.46850052612268
 20
37.83371481681865
 10
27.46814546125637
 20
37.83289885781703
 10
27.46743418120562
 20
37.83221882807578
 10
27.46696063357075
 20
37.83176541100839
 10
27.46626699173148
 20
37.83140727862704
 10
27.46535440600599
 20
37.83114385577267
 10
27.46674092280574
 20
37.83086586222183
 10
27.46776125499715
 20
37.83038848019315
 10
27.46841501914083
 20
37.82971228484571
 10
27.46906878328451
 20
37.82903570605888
 10
27.46939585707606
 20
37.82818523751302
 10
27.46939585707606
 20
37.8271612626475
 10
27.46939585707606
 20
37.82632766543438
 10
27.4691631093721
 20
37.8255776580062
 10
27.468698380843
 20
37.82491258240079
 10
27.46823288543511
 20
37.82424673991662
 10
27.46759637606355
 20
37.82372008592755
 10
27.46678923616767
 20
37.8233326204336
 10
27.46628884777618
 20
37.82309105362391
 10
27.46553423907542
 20
37.82291563010735
 10
27.46452502662606
 20
37.82280596644454
 10
27.46318222191568
 20
37.82265968432088
 10
27.46229110879549
 20
37.82258663911891
 10
27.46185245414424
 20
37.82258663911891
 10
27.46185245414424
 20
37.82258663911891
 10
27.45155710677887
 20
37.82258663911891
 10
27.45155710677887
 20
37.82258663911891
 97
        0
 92
        1
 93
        1
 72
     4
 94
        3
 73
     0
 74
     1
 95
       22
 96
       22
 40
0.0
 40
0.0
 40
0.0
 40
1.0
 40
1.0
 40
1.0
 40
2.0
 40
2.0
 40
2.0
 40
3.0
 40
3.0
 40
3.0
 40
4.0
 40
4.0
 40
4.0
 40
5.0
 40
5.0
 40
5.0
 40
6.0
 40
6.0
 40
6.0
 40
7.0
 10
27.46016723806711
 20
37.83236146752532
 10
27.46109746200412
 20
37.83236146752532
 10
27.46174509111771
 20
37.83249490442972
 10
27.46210935852916
 20
37.83276196995822
 10
27.46247400937997
 20
37.83302884376702
 10
27.46265537620693
 20
37.83341477550344
 10
27.46265537620693
 20
37.83391938172813
 10
27.46265537620693
 20
37.83438736949198
 10
27.46247400937997
 20
37.83475336238064
 10
27.46210935852916
 20
37.83501640179563
 10
27.46174509111771
 20
37.83527944121063
 10
27.46111088238243
 20
37.8354115360772
 10
27.46020673232331
 20
37.8354115360772
 10
27.46020673232331
 20
37.8354115360772
 10
27.45757403753705
 20
37.8354115360772
 10
27.45757403753705
 20
37.8354115360772
 10
27.45757403753705
 20
37.8354115360772
 10
27.45757403753705
 20
37.83236146752532
 10
27.45757403753705
 20
37.83236146752532
 10
27.45757403753705
 20
37.83236146752532
 10
27.46016723806711
 20
37.83236146752532
 10
27.46016723806711
 20
37.83236146752532
 97
        0
 92
        1
 93
        1
 72
     4
 94
        3
 73
     0
 74
     1
 95
       22
 96
       22
 40
0.0
 40
0.0
 40
0.0
 40
1.0
 40
1.0
 40
1.0
 40
2.0
 40
2.0
 40
2.0
 40
3.0
 40
3.0
 40
3.0
 40
4.0
 40
4.0
 40
4.0
 40
5.0
 40
5.0
 40
5.0
 40
6.0
 40
6.0
 40
6.0
 40
7.0
 10
27.46061471182411
 20
37.82604219481562
 10
27.46164156248498
 20
37.82604219481562
 10
27.46236549603529
 20
37.82619422852997
 10
27.46278727935381
 20
37.82649772079961
 10
27.46320829579356
 20
37.82680121306926
 10
27.46341918745281
 20
37.82720880913068
 10
27.46341918745281
 20
37.8277207007036
 10
27.46341918745281
 20
37.82819635725506
 10
27.46321059642983
 20
37.82857826287799
 10
27.46279341438389
 20
37.82886737617087
 10
27.46237699921671
 20
37.82915629774405
 10
27.46164616375756
 20
37.82930066267078
 10
27.46060167488518
 20
37.82930066267078
 10
27.46060167488518
 20
37.82930066267078
 10
27.45757403753705
 20
37.82930066267078
 10
27.45757403753705
 20
37.82930066267078
 10
27.45757403753705
 20
37.82930066267078
 10
27.45757403753705
 20
37.82604219481562
 10
27.45757403753705
 20
37.82604219481562
 10
27.45757403753705
 20
37.82604219481562
 10
27.46061471182411
 20
37.82604219481562
 10
27.46061471182411
 20
37.82604219481562
 97
        0
 75
     2
 76
     1
 98
        0
  0
HATCH
  5
11CC
330
A
100
AcDbEntity
  8
001
 48
2.0
370
    -3
100
AcDbHatch
 10
0.0
 20
0.0
 30
0.0
210
0.0
220
0.0
230
1.0
  2
SOLID
 70
     1
 71
     0
 91
        1
 92
        5
 93
       26
 72
     4
 94
        3
 73
     0
 74
     0
 95
        8
 96
        4
 40
9.0
 40
9.0
 40
9.0
 40
9.0
 40
10.0
 40
10.0
 40
10.0
 40
10.0
 10
27.47487788989851
 20
37.83816520598797
 10
27.47320149292713
 20
37.83749188643589
 10
27.471928474184
 20
37.83650683066749
 10
27.47105960054787
 20
37.83520869664493
 72
     4
 94
        3
 73
     0
 74
     0
 95
        8
 96
        4
 40
8.0
 40
8.0
 40
8.0
 40
8.0
 40
9.0
 40
9.0
 40
9.0
 40
9.0
 10
27.47105960054787
 20
37.83520869664493
 10
27.47019072691175
 20
37.83391017918299
 10
27.46975667353306
 20
37.83238351528969
 10
27.46975667353306
 20
37.83062812980594
 72
     4
 94
        3
 73
     0
 74
     0
 95
        8
 96
        4
 40
7.0
 40
7.0
 40
7.0
 40
7.0
 40
8.0
 40
8.0
 40
8.0
 40
8.0
 10
27.46975667353306
 20
37.83062812980594
 10
27.46975667353306
 20
37.82896055194032
 10
27.47015353329184
 20
37.82748296828771
 10
27.47094763624878
 20
37.82619595400719
 72
     4
 94
        3
 73
     0
 74
     0
 95
        8
 96
        4
 40
6.0
 40
6.0
 40
6.0
 40
6.0
 40
7.0
 40
7.0
 40
7.0
 40
7.0
 10
27.47094763624878
 20
37.82619595400719
 10
27.47174212264509
 20
37.82490855628729
 10
27.47286138219666
 20
37.82393941325318
 10
27.47430503146409
 20
37.82328890834423
 72
     4
 94
        3
 73
     0
 74
     0
 95
        8
 96
        4
 40
5.0
 40
5.0
 40
5.0
 40
5.0
 40
6.0
 40
6.0
 40
6.0
 40
6.0
 10
27.47430503146409
 20
37.82328890834423
 10
27.47574868073153
 20
37.82263744483683
 10
27.477615647075
 20
37.82231228824219
 10
27.47990631393387
 20
37.82231228824219
 72
     4
 94
        3
 73
     0
 74
     0
 95
        8
 96
        4
 40
4.0
 40
4.0
 40
4.0
 40
4.0
 40
5.0
 40
5.0
 40
5.0
 40
5.0
 10
27.47990631393387
 20
37.82231228824219
 10
27.48176752868662
 20
37.82231228824219
 10
27.48337567344828
 20
37.82249346334946
 10
27.4847315150976
 20
37.82285543012462
 72
     4
 94
        3
 73
     0
 74
     0
 95
        8
 96
        4
 40
3.0
 40
3.0
 40
3.0
 40
3.0
 40
4.0
 40
4.0
 40
4.0
 40
4.0
 10
27.4847315150976
 20
37.82285543012462
 10
27.48608774018628
 20
37.82321739689977
 10
27.48764757158601
 20
37.82389896039854
 10
27.48941177617552
 20
37.82490146265876
 72
     4
 94
        3
 73
     0
 74
     0
 95
       11
 96
        7
 40
1.5
 40
1.5
 40
1.5
 40
1.5
 40
2.5
 40
2.5
 40
2.5
 40
3.0
 40
3.0
 40
3.0
 40
3.0
 10
27.48941177617552
 20
37.82490146265876
 10
27.48941177617552
 20
37.82490146265876
 10
27.48941177617552
 20
37.83175812566017
 10
27.48941177617552
 20
37.83175812566017
 10
27.48941177617552
 20
37.83175812566017
 10
27.48710788065801
 20
37.83175812566017
 10
27.48480398514051
 20
37.83175812566017
 72
     4
 94
        3
 73
     0
 74
     0
 95
       11
 96
        7
 40
0.5
 40
0.5
 40
0.5
 40
0.5
 40
1.0
 40
1.0
 40
1.0
 40
1.5
 40
1.5
 40
1.5
 40
1.5
 10
27.48480398514051
 20
37.83175812566017
 10
27.482500089623
 20
37.83175812566017
 10
27.4801961941055
 20
37.83175812566017
 10
27.4801961941055
 20
37.83175812566017
 10
27.4801961941055
 20
37.83175812566017
 10
27.4801961941055
 20
37.83092160472177
 10
27.4801961941055
 20
37.83008508378336
 72
     4
 94
        3
 73
     0
 74
     0
 95
       11
 96
        7
 40
24.749985
 40
24.749985
 40
24.749985
 40
24.749985
 40
25.249985
 40
25.249985
 40
25.249985
 40
25.5
 40
25.5
 40
25.5
 40
25.5
 10
27.4801961941055
 20
37.83008508378336
 10
27.4801961941055
 20
37.82924856284497
 10
27.4801961941055
 20
37.82841204190656
 10
27.4801961941055
 20
37.82841204190656
 10
27.4801961941055
 20
37.82841204190656
 10
27.48044555548332
 20
37.82841204190656
 10
27.4808195900692
 20
37.82841204190656
 72
     4
 94
        3
 73
     0
 74
     0
 95
        8
 96
        4
 40
24.49999
 40
24.49999
 40
24.49999
 40
24.49999
 40
24.749985
 40
24.749985
 40
24.749985
 40
24.749985
 10
27.4808195900692
 20
37.82841204190656
 10
27.48119359473411
 20
37.82841204190656
 10
27.48169225266139
 20
37.82841204190656
 10
27.48219090560221
 20
37.82841204190656
 72
     4
 94
        3
 73
     0
 74
     0
 95
        8
 96
        4
 40
24.249995
 40
24.249995
 40
24.249995
 40
24.249995
 40
24.3749925
 40
24.3749925
 40
24.3749925
 40
24.3749925
 10
27.48292329899254
 20
37.82841204190656
 10
27.48315704068865
 20
37.82841204190656
 10
27.48337519885704
 20
37.82841204190656
 10
27.48356219121665
 20
37.82841204190656
 72
     4
 94
        3
 73
     0
 74
     0
 95
        8
 96
        4
 40
24.00146481445313
 40
24.00146481445313
 40
24.00146481445313
 40
24.00146481445313
 40
24.0019530859375
 40
24.0019530859375
 40
24.0019530859375
 40
24.0019530859375
 10
27.48418545182714
 20
37.82841204190656
 10
27.48418545942096
 20
37.82841204190656
 10
27.48418546606743
 20
37.82841204190656
 10
27.48418547176557
 20
37.82841204190656
 72
     4
 94
        3
 73
     0
 74
     0
 95
        8
 96
        4
 40
23.00002
 40
23.00002
 40
23.00002
 40
23.00002
 40
24.0
 40
24.0
 40
24.0
 40
24.0
 10
27.48418549741982
 20
37.82841204190656
 10
27.48418549741982
 20
37.82841204190656
 10
27.48418549741982
 20
37.82689809207263
 10
27.48418549741982
 20
37.82689803151463
 72
     4
 94
        3
 73
     0
 74
     0
 95
       11
 96
        7
 40
22.0
 40
22.0
 40
22.0
 40
22.0
 40
22.00002
 40
22.00002
 40
22.00002
 40
23.00002
 40
23.00002
 40
23.00002
 40
23.00002
 10
27.48418549741982
 20
37.82689803151463
 10
27.48418549741982
 20
37.82689803151342
 10
27.48418549741982
 20
37.82689803151281
 10
27.48418549741982
 20
37.82689803151281
 10
27.48340404796244
 20
37.8265099908598
 10
27.48271078956256
 20
37.82623602342246
 10
27.48210495534144
 20
37.82607497888266
 72
     4
 94
        3
 73
     0
 74
     0
 95
        8
 96
        4
 40
21.0
 40
21.0
 40
21.0
 40
21.0
 40
22.0
 40
22.0
 40
22.0
 40
22.0
 10
27.48210495534144
 20
37.82607497888266
 10
27.48149950455969
 20
37.82591450950193
 10
27.4808633786275
 20
37.82583398723204
 10
27.4801961941055
 20
37.82583398723204
 72
     4
 94
        3
 73
     0
 74
     0
 95
        8
 96
        4
 40
20.0
 40
20.0
 40
20.0
 40
20.0
 40
21.0
 40
21.0
 40
21.0
 40
21.0
 10
27.4801961941055
 20
37.82583398723204
 10
27.47879203909425
 20
37.82583398723204
 10
27.47769693622366
 20
37.82620688202953
 10
27.47691165237247
 20
37.82695305506392
 72
     4
 94
        3
 73
     0
 74
     0
 95
        8
 96
        4
 40
19.0
 40
19.0
 40
19.0
 40
19.0
 40
20.0
 40
20.0
 40
20.0
 40
20.0
 10
27.47691165237247
 20
37.82695305506392
 10
27.47612598508191
 20
37.82769903637861
 10
27.47573334315632
 20
37.82894253028944
 10
27.47573334315632
 20
37.83068315335704
 72
     4
 94
        3
 73
     0
 74
     0
 95
        8
 96
        4
 40
18.0
 40
18.0
 40
18.0
 40
18.0
 40
19.0
 40
19.0
 40
19.0
 40
19.0
 10
27.47573334315632
 20
37.83068315335704
 10
27.47573334315632
 20
37.83232120639038
 10
27.47612176724872
 20
37.83351907101493
 10
27.47689861543354
 20
37.83427617207165
 72
     4
 94
        3
 73
     0
 74
     0
 95
        8
 96
        4
 40
17.0
 40
17.0
 40
17.0
 40
17.0
 40
18.0
 40
18.0
 40
18.0
 40
18.0
 10
27.47689861543354
 20
37.83427617207165
 10
27.47767546361835
 20
37.8350326979693
 10
27.47871765185444
 20
37.83541134435751
 10
27.48002518014181
 20
37.83541134435751
 72
     4
 94
        3
 73
     0
 74
     0
 95
        8
 96
        4
 40
16.0
 40
16.0
 40
16.0
 40
16.0
 40
17.0
 40
17.0
 40
17.0
 40
17.0
 10
27.48002518014181
 20
37.83541134435751
 10
27.4809028728837
 20
37.83541134435751
 10
27.48162488923711
 20
37.83525029981771
 10
27.48219084576266
 20
37.83492878589719
 72
     4
 94
        3
 73
     0
 74
     0
 95
        8
 96
        4
 40
15.0
 40
15.0
 40
15.0
 40
15.0
 40
16.0
 40
16.0
 40
16.0
 40
16.0
 10
27.48219084576266
 20
37.83492878589719
 10
27.48275641884884
 20
37.8346066968176
 10
27.48315864675895
 20
37.83414235172787
 10
27.48339561229608
 20
37.8335351754689
 72
     4
 94
        3
 73
     0
 74
     0
 95
       11
 96
        7
 40
13.0
 40
13.0
 40
13.0
 40
13.0
 40
14.0
 40
14.0
 40
14.0
 40
15.0
 40
15.0
 40
15.0
 40
15.0
 10
27.48339561229608
 20
37.8335351754689
 10
27.48339561229608
 20
37.8335351754689
 10
27.48914873676051
 20
37.83439120388578
 10
27.48914873676051
 20
37.83439120388578
 10
27.488797506288
 20
37.83542974944777
 10
27.48827296121554
 20
37.83628731162217
 10
27.4875751015431
 20
37.8369636986893
 72
     4
 94
        3
 73
     0
 74
     0
 95
        8
 96
        4
 40
12.0
 40
12.0
 40
12.0
 40
12.0
 40
13.0
 40
13.0
 40
13.0
 40
13.0
 10
27.4875751015431
 20
37.8369636986893
 10
27.48687762531003
 20
37.83764027747613
 10
27.48599993256817
 20
37.83813894039043
 10
27.48494240675686
 20
37.83846141290938
 72
     4
 94
        3
 73
     0
 74
     0
 95
        8
 96
        4
 40
11.0
 40
11.0
 40
11.0
 40
11.0
 40
12.0
 40
12.0
 40
12.0
 40
12.0
 10
27.48494240675686
 20
37.83846141290938
 10
27.48388488094553
 20
37.83878331026928
 10
27.48228977312282
 20
37.83894377965001
 10
27.4801570832887
 20
37.83894377965001
 72
     4
 94
        3
 73
     0
 74
     0
 95
        8
 96
        4
 40
10.0
 40
10.0
 40
10.0
 40
10.0
 40
11.0
 40
11.0
 40
11.0
 40
11.0
 10
27.4801570832887
 20
37.83894377965001
 10
27.47794502150281
 20
37.83894377965001
 10
27.47618541818588
 20
37.83868438290912
 10
27.47487788989851
 20
37.83816520598797
 97
        0
 75
     0
 76
     1
 47
0.0602368287933475
 98
        1
 10
27.47657982921173
 20
37.83675689817163
1001
ACAD
1010
0.0
1020
0.0
1030
0.0
  0
SPLINE
  5
11CD
330
A
100
AcDbEntity
  8
001
370
     0
100
AcDbSpline
210
0.0
220
0.0
230
1.0
 70
    11
 71
     3
 72
    80
 73
    76
 74
     0
 42
0.0000000001
 43
0.0000000001
 40
0.0
 40
0.0
 40
0.0
 40
0.0
 40
1.0
 40
1.0
 40
1.0
 40
2.0
 40
2.0
 40
2.0
 40
3.0
 40
3.0
 40
3.0
 40
4.0
 40
4.0
 40
4.0
 40
5.0
 40
5.0
 40
5.0
 40
6.0
 40
6.0
 40
6.0
 40
7.0
 40
7.0
 40
7.0
 40
8.0
 40
8.0
 40
8.0
 40
9.0
 40
9.0
 40
9.0
 40
10.0
 40
10.0
 40
10.0
 40
11.0
 40
11.0
 40
11.0
 40
12.0
 40
12.0
 40
12.0
 40
13.0
 40
13.0
 40
13.0
 40
14.0
 40
14.0
 40
14.0
 40
15.0
 40
15.0
 40
15.0
 40
16.0
 40
16.0
 40
16.0
 40
17.0
 40
17.0
 40
17.0
 40
18.0
 40
18.0
 40
18.0
 40
19.0
 40
19.0
 40
19.0
 40
20.0
 40
20.0
 40
20.0
 40
21.0
 40
21.0
 40
21.0
 40
22.0
 40
22.0
 40
22.0
 40
23.0
 40
23.0
 40
23.0
 40
24.0
 40
24.0
 40
24.0
 40
25.0
 40
25.0
 40
25.0
 40
25.0
 10
27.4801961941055
 20
37.82841204190655
 30
0.0
 10
27.4801961941055
 20
37.82841204190655
 30
0.0
 10
27.4801961941055
 20
37.83175812566015
 30
0.0
 10
27.4801961941055
 20
37.83175812566015
 30
0.0
 10
27.4801961941055
 20
37.83175812566015
 30
0.0
 10
27.48941177617552
 20
37.83175812566015
 30
0.0
 10
27.48941177617552
 20
37.83175812566015
 30
0.0
 10
27.48941177617552
 20
37.83175812566015
 30
0.0
 10
27.48941177617552
 20
37.82490146265873
 30
0.0
 10
27.48941177617552
 20
37.82490146265873
 30
0.0
 10
27.48764757158601
 20
37.82389896039851
 30
0.0
 10
27.48608774018628
 20
37.82321739689975
 30
0.0
 10
27.4847315150976
 20
37.82285543012459
 30
0.0
 10
27.48337567344828
 20
37.82249346334944
 30
0.0
 10
27.48176752868662
 20
37.82231228824217
 30
0.0
 10
27.47990631393387
 20
37.82231228824217
 30
0.0
 10
27.477615647075
 20
37.82231228824217
 30
0.0
 10
27.47574868073153
 20
37.8226374448368
 30
0.0
 10
27.47430503146409
 20
37.82328890834421
 30
0.0
 10
27.47286138219666
 20
37.82393941325316
 30
0.0
 10
27.47174212264509
 20
37.82490855628728
 30
0.0
 10
27.47094763624878
 20
37.82619595400718
 30
0.0
 10
27.47015353329184
 20
37.82748296828769
 30
0.0
 10
27.46975667353306
 20
37.82896055194029
 30
0.0
 10
27.46975667353306
 20
37.83062812980593
 30
0.0
 10
27.46975667353306
 20
37.83238351528968
 30
0.0
 10
27.47019072691175
 20
37.83391017918299
 30
0.0
 10
27.47105960054787
 20
37.83520869664491
 30
0.0
 10
27.471928474184
 20
37.83650683066746
 30
0.0
 10
27.47320149292713
 20
37.83749188643586
 30
0.0
 10
27.47487788989851
 20
37.83816520598796
 30
0.0
 10
27.47618541818588
 20
37.83868438290911
 30
0.0
 10
27.47794502150281
 20
37.83894377964998
 30
0.0
 10
27.4801570832887
 20
37.83894377964998
 30
0.0
 10
27.48228977312282
 20
37.83894377964998
 30
0.0
 10
27.48388488094553
 20
37.83878331026926
 30
0.0
 10
27.48494240675686
 20
37.83846141290937
 30
0.0
 10
27.48599993256817
 20
37.83813894039039
 30
0.0
 10
27.48687762531003
 20
37.83764027747611
 30
0.0
 10
27.4875751015431
 20
37.83696369868929
 30
0.0
 10
27.48827296121554
 20
37.83628731162216
 30
0.0
 10
27.488797506288
 20
37.83542974944774
 30
0.0
 10
27.48914873676051
 20
37.83439120388577
 30
0.0
 10
27.48914873676051
 20
37.83439120388577
 30
0.0
 10
27.48339561229608
 20
37.83353517546888
 30
0.0
 10
27.48339561229608
 20
37.83353517546888
 30
0.0
 10
27.48315864675895
 20
37.83414235172784
 30
0.0
 10
27.48275641884884
 20
37.83460669681759
 30
0.0
 10
27.48219084576266
 20
37.83492878589717
 30
0.0
 10
27.48162488923711
 20
37.8352502998177
 30
0.0
 10
27.4809028728837
 20
37.83541134435749
 30
0.0
 10
27.48002518014181
 20
37.83541134435749
 30
0.0
 10
27.47871765185444
 20
37.83541134435749
 30
0.0
 10
27.47767546361835
 20
37.83503269796928
 30
0.0
 10
27.47689861543354
 20
37.83427617207163
 30
0.0
 10
27.47612176724872
 20
37.8335190710149
 30
0.0
 10
27.47573334315632
 20
37.83232120639036
 30
0.0
 10
27.47573334315632
 20
37.83068315335702
 30
0.0
 10
27.47573334315632
 20
37.82894253028942
 30
0.0
 10
27.47612598508191
 20
37.82769903637859
 30
0.0
 10
27.47691165237247
 20
37.8269530550639
 30
0.0
 10
27.47769693622366
 20
37.82620688202952
 30
0.0
 10
27.47879203909425
 20
37.82583398723201
 30
0.0
 10
27.4801961941055
 20
37.82583398723201
 30
0.0
 10
27.4808633786275
 20
37.82583398723201
 30
0.0
 10
27.48149950455969
 20
37.82591450950192
 30
0.0
 10
27.48210495534144
 20
37.82607497888264
 30
0.0
 10
27.48271078956256
 20
37.82623602342244
 30
0.0
 10
27.48340404796244
 20
37.82650999085977
 30
0.0
 10
27.48418549741982
 20
37.8268980315128
 30
0.0
 10
27.48418549741982
 20
37.8268980315128
 30
0.0
 10
27.48418549741982
 20
37.82841204190655
 30
0.0
 10
27.48418549741982
 20
37.82841204190655
 30
0.0
 10
27.48418549741982
 20
37.82841204190655
 30
0.0
 10
27.4801961941055
 20
37.82841204190655
 30
0.0
 10
27.4801961941055
 20
37.82841204190655
 30
0.0
  0
POLYLINE
  5
11CE
330
A
100
AcDbEntity
  8
001
370
     0
100
AcDb2dPolyline
 66
     1
 10
0.0
 20
0.0
 30
0.0
  0
VERTEX
  5
11CF
330
11CE
100
AcDbEntity
  8
001
370
     0
100
AcDbVertex
100
AcDb2dVertex
 10
27.50279687806864
 20
37.82524138166952
 30
0.0
  0
VERTEX
  5
11D0
330
11CE
100
AcDbEntity
  8
001
370
     0
100
AcDbVertex
100
AcDb2dVertex
 10
27.49602572204908
 20
37.82524138166952
 30
0.0
  0
VERTEX
  5
11D1
330
11CE
100
AcDbEntity
  8
001
370
     0
100
AcDbVertex
100
AcDb2dVertex
 10
27.49508514524882
 20
37.82258625567951
 30
0.0
  0
VERTEX
  5
11D2
330
11CE
100
AcDbEntity
  8
001
370
     0
100
AcDbVertex
100
AcDb2dVertex
 10
27.48899612788709
 20
37.82258625567951
 30
0.0
  0
VERTEX
  5
11D3
330
11CE
100
AcDbEntity
  8
001
370
     0
100
AcDbVertex
100
AcDb2dVertex
 10
27.49625041752603
 20
37.83866962049296
 30
0.0
  0
VERTEX
  5
11D4
330
11CE
100
AcDbEntity
  8
001
370
     0
100
AcDbVertex
100
AcDb2dVertex
 10
27.50275469973679
 20
37.83866962049296
 30
0.0
  0
VERTEX
  5
11D5
330
11CE
100
AcDbEntity
  8
001
370
     0
100
AcDbVertex
100
AcDb2dVertex
 10
27.51000707217884
 20
37.82258625567951
 30
0.0
  0
VERTEX
  5
11D6
330
11CE
100
AcDbEntity
  8
001
370
     0
100
AcDbVertex
100
AcDb2dVertex
 10
27.50376199498927
 20
37.82258625567951
 30
0.0
  0
VERTEX
  5
11D7
330
11CE
100
AcDbEntity
  8
001
370
     0
100
AcDbVertex
100
AcDb2dVertex
 10
27.50279687806864
 20
37.82524138166952
 30
0.0
  0
SEQEND
  5
11D8
330
11CE
100
AcDbEntity
  8
001
370
     0
  0
POLYLINE
  5
11D9
330
A
100
AcDbEntity
  8
001
370
     0
100
AcDb2dPolyline
 66
     1
 10
0.0
 20
0.0
 30
0.0
  0
VERTEX
  5
11DA
330
11D9
100
AcDbEntity
  8
001
370
     0
100
AcDbVertex
100
AcDb2dVertex
 10
27.5015595191879
 20
37.82871936856999
 30
0.0
  0
VERTEX
  5
11DB
330
11D9
100
AcDbEntity
  8
001
370
     0
100
AcDbVertex
100
AcDb2dVertex
 10
27.49942912999005
 20
37.83450105926828
 30
0.0
  0
VERTEX
  5
11DC
330
11D9
100
AcDbEntity
  8
001
370
     0
100
AcDbVertex
100
AcDb2dVertex
 10
27.49732098027628
 20
37.82871936856999
 30
0.0
  0
VERTEX
  5
11DD
330
11D9
100
AcDbEntity
  8
001
370
     0
100
AcDbVertex
100
AcDb2dVertex
 10
27.5015595191879
 20
37.82871936856999
 30
0.0
  0
SEQEND
  5
11DE
330
11D9
100
AcDbEntity
  8
001
370
     0
  0
HATCH
  5
11DF
330
A
100
AcDbEntity
  8
001
100
AcDbHatch
 10
0.0
 20
0.0
 30
0.0
210
0.0
220
0.0
230
1.0
  2
SOLID
 70
     1
 71
     0
 91
        2
 92
        1
 93
        8
 72
     1
 10
27.50279687806864
 20
37.82524138166954
 11
27.49602572204908
 21
37.82524138166954
 72
     1
 10
27.49602572204908
 20
37.82524138166954
 11
27.49508514524881
 21
37.82258625567954
 72
     1
 10
27.49508514524881
 20
37.82258625567953
 11
27.4889961278871
 21
37.82258625567953
 72
     1
 10
27.48899612788709
 20
37.82258625567953
 11
27.49625041752604
 21
37.83866962049297
 72
     1
 10
27.49625041752603
 20
37.83866962049298
 11
27.50275469973679
 21
37.83866962049298
 72
     1
 10
27.50275469973679
 20
37.83866962049298
 11
27.51000707217883
 21
37.82258625567954
 72
     1
 10
27.51000707217883
 20
37.82258625567953
 11
27.50376199498925
 21
37.82258625567953
 72
     1
 10
27.50376199498926
 20
37.82258625567953
 11
27.50279687806865
 21
37.82524138166953
 97
        0
 92
        1
 93
        3
 72
     1
 10
27.5015595191879
 20
37.82871936857001
 11
27.49942912999005
 21
37.8345010592683
 72
     1
 10
27.49942912999005
 20
37.8345010592683
 11
27.49732098027628
 21
37.82871936857002
 72
     1
 10
27.49732098027628
 20
37.82871936857001
 11
27.5015595191879
 21
37.82871936857001
 97
        0
 75
     2
 76
     1
 98
        0
  0
POLYLINE
  5
11E0
330
A
100
AcDbEntity
  8
001
370
     0
100
AcDb2dPolyline
 66
     1
 10
0.0
 20
0.0
 30
0.0
  0
VERTEX
  5
11E1
330
11E0
100
AcDbEntity
  8
001
370
     0
100
AcDbVertex
100
AcDb2dVertex
 10
27.50666846549316
 20
37.83866981221265
 30
0.0
  0
VERTEX
  5
11E2
330
11E0
100
AcDbEntity
  8
001
370
     0
100
AcDbVertex
100
AcDb2dVertex
 10
27.52479709596199
 20
37.83866981221265
 30
0.0
  0
VERTEX
  5
11E3
330
11E0
100
AcDbEntity
  8
001
370
     0
100
AcDbVertex
100
AcDb2dVertex
 10
27.52479709596199
 20
37.83469833882953
 30
0.0
  0
VERTEX
  5
11E4
330
11E0
100
AcDbEntity
  8
001
370
     0
100
AcDbVertex
100
AcDb2dVertex
 10
27.51871459706974
 20
37.83469833882953
 30
0.0
  0
VERTEX
  5
11E5
330
11E0
100
AcDbEntity
  8
001
370
     0
100
AcDbVertex
100
AcDb2dVertex
 10
27.51871459706974
 20
37.82258644739921
 30
0.0
  0
VERTEX
  5
11E6
330
11E0
100
AcDbEntity
  8
001
370
     0
100
AcDbVertex
100
AcDb2dVertex
 10
27.51275096438542
 20
37.82258644739921
 30
0.0
  0
VERTEX
  5
11E7
330
11E0
100
AcDbEntity
  8
001
370
     0
100
AcDbVertex
100
AcDb2dVertex
 10
27.51275096438542
 20
37.83469833882953
 30
0.0
  0
VERTEX
  5
11E8
330
11E0
100
AcDbEntity
  8
001
370
     0
100
AcDbVertex
100
AcDb2dVertex
 10
27.50666846549316
 20
37.83469833882953
 30
0.0
  0
VERTEX
  5
11E9
330
11E0
100
AcDbEntity
  8
001
370
     0
100
AcDbVertex
100
AcDb2dVertex
 10
27.50666846549316
 20
37.83866981221265
 30
0.0
  0
SEQEND
  5
11EA
330
11E0
100
AcDbEntity
  8
001
370
     0
  0
HATCH
  5
11EB
330
A
100
AcDbEntity
  8
001
100
AcDbHatch
 10
0.0
 20
0.0
 30
0.0
210
0.0
220
0.0
230
1.0
  2
SOLID
 70
     1
 71
     0
 91
        1
 92
        1
 93
        8
 72
     1
 10
27.50666846549316
 20
37.83866981221266
 11
27.52479709596198
 21
37.83866981221266
 72
     1
 10
27.52479709596199
 20
37.83866981221266
 11
27.52479709596199
 21
37.83469833882954
 72
     1
 10
27.52479709596199
 20
37.83469833882954
 11
27.51871459706973
 21
37.83469833882954
 72
     1
 10
27.51871459706973
 20
37.83469833882954
 11
27.51871459706973
 21
37.82258644739922
 72
     1
 10
27.51871459706973
 20
37.82258644739922
 11
27.51275096438542
 21
37.82258644739922
 72
     1
 10
27.51275096438542
 20
37.82258644739922
 11
27.51275096438542
 21
37.83469833882954
 72
     1
 10
27.51275096438542
 20
37.83469833882954
 11
27.50666846549316
 21
37.83469833882954
 72
     1
 10
27.50666846549316
 20
37.83469833882954
 11
27.50666846549316
 21
37.83866981221266
 97
        0
 75
     2
 76
     1
 98
        0
  0
POLYLINE
  5
11EC
330
A
100
AcDbEntity
  8
001
370
     0
100
AcDb2dPolyline
 66
     1
 10
0.0
 20
0.0
 30
0.0
  0
VERTEX
  5
11ED
330
11EC
100
AcDbEntity
  8
001
370
     0
100
AcDbVertex
100
AcDb2dVertex
 10
27.52574725874676
 20
37.83866981221265
 30
0.0
  0
VERTEX
  5
11EE
330
11EC
100
AcDbEntity
  8
001
370
     0
100
AcDbVertex
100
AcDb2dVertex
 10
27.54172977900315
 20
37.83866981221265
 30
0.0
  0
VERTEX
  5
11EF
330
11EC
100
AcDbEntity
  8
001
370
     0
100
AcDbVertex
100
AcDb2dVertex
 10
27.54172977900315
 20
37.83523572912124
 30
0.0
  0
VERTEX
  5
11F0
330
11EC
100
AcDbEntity
  8
001
370
     0
100
AcDbVertex
100
AcDb2dVertex
 10
27.5317243118094
 20
37.83523572912124
 30
0.0
  0
VERTEX
  5
11F1
330
11EC
100
AcDbEntity
  8
001
370
     0
100
AcDbVertex
100
AcDb2dVertex
 10
27.5317243118094
 20
37.83267972221108
 30
0.0
  0
VERTEX
  5
11F2
330
11EC
100
AcDbEntity
  8
001
370
     0
100
AcDbVertex
100
AcDb2dVertex
 10
27.54100507857408
 20
37.83267972221108
 30
0.0
  0
VERTEX
  5
11F3
330
11EC
100
AcDbEntity
  8
001
370
     0
100
AcDbVertex
100
AcDb2dVertex
 10
27.54100507857408
 20
37.82939959003094
 30
0.0
  0
VERTEX
  5
11F4
330
11EC
100
AcDbEntity
  8
001
370
     0
100
AcDbVertex
100
AcDb2dVertex
 10
27.5317243118094
 20
37.82939959003094
 30
0.0
  0
VERTEX
  5
11F5
330
11EC
100
AcDbEntity
  8
001
370
     0
100
AcDbVertex
100
AcDb2dVertex
 10
27.5317243118094
 20
37.82622892979389
 30
0.0
  0
VERTEX
  5
11F6
330
11EC
100
AcDbEntity
  8
001
370
     0
100
AcDbVertex
100
AcDb2dVertex
 10
27.54172977900315
 20
37.82622892979389
 30
0.0
  0
VERTEX
  5
11F7
330
11EC
100
AcDbEntity
  8
001
370
     0
100
AcDbVertex
100
AcDb2dVertex
 10
27.54172977900315
 20
37.82258644739921
 30
0.0
  0
VERTEX
  5
11F8
330
11EC
100
AcDbEntity
  8
001
370
     0
100
AcDbVertex
100
AcDb2dVertex
 10
27.52574725874676
 20
37.82258644739921
 30
0.0
  0
VERTEX
  5
11F9
330
11EC
100
AcDbEntity
  8
001
370
     0
100
AcDbVertex
100
AcDb2dVertex
 10
27.52574725874676
 20
37.83866981221265
 30
0.0
  0
SEQEND
  5
11FA
330
11EC
100
AcDbEntity
  8
001
370
     0
  0
HATCH
  5
11FB
330
A
100
AcDbEntity
  8
001
100
AcDbHatch
 10
0.0
 20
0.0
 30
0.0
210
0.0
220
0.0
230
1.0
  2
SOLID
 70
     1
 71
     0
 91
        1
 92
        1
 93
       12
 72
     1
 10
27.52574725874676
 20
37.83866981221266
 11
27.54172977900315
 21
37.83866981221266
 72
     1
 10
27.54172977900315
 20
37.83866981221266
 11
27.54172977900315
 21
37.83523572912125
 72
     1
 10
27.54172977900315
 20
37.83523572912125
 11
27.53172431180939
 21
37.83523572912125
 72
     1
 10
27.5317243118094
 20
37.83523572912125
 11
27.5317243118094
 21
37.8326797222111
 72
     1
 10
27.5317243118094
 20
37.83267972221109
 11
27.54100507857408
 21
37.83267972221109
 72
     1
 10
27.54100507857407
 20
37.83267972221109
 11
27.54100507857407
 21
37.82939959003094
 72
     1
 10
27.54100507857407
 20
37.82939959003095
 11
27.53172431180939
 21
37.82939959003095
 72
     1
 10
27.5317243118094
 20
37.82939959003095
 11
27.5317243118094
 21
37.82622892979391
 72
     1
 10
27.5317243118094
 20
37.82622892979391
 11
27.54172977900315
 21
37.82622892979391
 72
     1
 10
27.54172977900315
 20
37.82622892979391
 11
27.54172977900315
 21
37.82258644739922
 72
     1
 10
27.54172977900315
 20
37.82258644739922
 11
27.52574725874676
 21
37.82258644739922
 72
     1
 10
27.52574725874676
 20
37.82258644739922
 11
27.52574725874676
 21
37.83866981221266
 97
        0
 75
     2
 76
     1
 98
        0
  0
LINE
  5
11FC
330
A
100
AcDbEntity
  8
001
  6
Continuous
370
    15
100
AcDbLine
 10
26.94636094906361
 20
37.66987813381224
 30
0.0
 11
26.93636094858865
 21
37.66987813381224
 31
0.0
  0
LINE
  5
11FD
330
A
100
AcDbEntity
  8
001
  6
Continuous
370
    15
100
AcDbLine
 10
26.93636094858865
 20
37.66987813381224
 30
0.0
 11
26.93636094858865
 21
37.67487814394502
 31
0.0
  0
LINE
  5
11FE
330
A
100
AcDbEntity
  8
001
  6
Continuous
370
    15
100
AcDbLine
 10
26.93636094858865
 20
37.67487814394502
 30
0.0
 11
26.94636094906361
 21
37.67487814394502
 31
0.0
  0
LINE
  5
11FF
330
A
100
AcDbEntity
  8
001
  6
Continuous
370
    15
100
AcDbLine
 10
26.94636094906361
 20
37.67487814394502
 30
0.0
 11
26.94636094906361
 21
37.66987813381224
 31
0.0
  0
ARC
  5
1200
330
A
100
AcDbEntity
  8
001
  6
Continuous
370
    15
100
AcDbCircle
 10
26.95136094858865
 20
37.96137813375262
 30
0.0
 40
0.005
100
AcDbArc
 50
180.0
 51
270.0
  0
LINE
  5
1201
330
A
100
AcDbEntity
  8
001
  6
Continuous
370
    15
100
AcDbLine
 10
26.95136094870738
 20
37.95637813374145
 30
0.0
 11
27.05386147701669
 21
37.95637813374145
 31
0.0
  0
ARC
  5
1202
330
A
100
AcDbEntity
  8
001
  6
Continuous
370
    15
100
AcDbCircle
 10
27.05386094858865
 20
37.94387813375262
 30
0.0
 40
0.0125000000000002
100
AcDbArc
 50
0.0
 51
90.0
  0
LINE
  5
1203
330
A
100
AcDbEntity
  8
001
  6
Continuous
370
    15
100
AcDbLine
 10
27.06636095127084
 20
37.94387813375262
 30
0.0
 11
27.06636095127084
 21
37.71737813694148
 31
0.0
  0
ARC
  5
1204
330
A
100
AcDbEntity
  8
001
  6
Continuous
370
    15
100
AcDbCircle
 10
27.05386094858865
 20
37.71737813375263
 30
0.0
 40
0.0125
100
AcDbArc
 50
270.0
 51
0.0
  0
LINE
  5
1205
330
A
100
AcDbEntity
  8
001
  6
Continuous
370
    15
100
AcDbLine
 10
26.95136094870738
 20
37.70487813023596
 30
0.0
 11
27.05386094858865
 21
37.70487813023596
 31
0.0
  0
ARC
  5
1206
330
A
100
AcDbEntity
  8
001
  6
Continuous
370
    15
100
AcDbCircle
 10
26.95136094870738
 20
37.71737813023595
 30
0.0
 40
0.0125
100
AcDbArc
 50
180.0
 51
270.0
  0
ARC
  5
1207
330
A
100
AcDbEntity
  8
001
  6
Continuous
370
    15
100
AcDbCircle
 10
26.95136094858865
 20
37.69987813375264
 30
0.0
 40
0.005
100
AcDbArc
 50
90.0
 51
180.0
  0
LINE
  5
1208
330
A
100
AcDbEntity
  8
001
  6
Continuous
370
    15
100
AcDbLine
 10
26.94636094906361
 20
37.67487814394502
 30
0.0
 11
26.94636094906361
 21
37.69987813872962
 31
0.0
  0
LINE
  5
1209
330
A
100
AcDbEntity
  8
001
  6
Continuous
370
    15
100
AcDbLine
 10
26.93636094858865
 20
37.67487814394502
 30
0.0
 11
26.93636094858865
 21
37.67987811682491
 31
0.0
  0
LINE
  5
120A
330
A
100
AcDbEntity
  8
001
  6
Continuous
370
    15
100
AcDbLine
 10
26.93886094870738
 20
37.67987811682491
 30
0.0
 11
26.93636094858865
 21
37.67987811682491
 31
0.0
  0
LINE
  5
120B
330
A
100
AcDbEntity
  8
001
  6
Continuous
370
    15
100
AcDbLine
 10
26.93886094870738
 20
37.67987811682491
 30
0.0
 11
26.93886094870738
 21
37.71862813947468
 31
0.0
  0
LINE
  5
120C
330
A
100
AcDbEntity
  8
001
  6
Continuous
370
    15
100
AcDbLine
 10
26.93886094870738
 20
37.71862813947468
 30
0.0
 11
26.93636094858865
 21
37.71862813947468
 31
0.0
  0
LINE
  5
120D
330
A
100
AcDbEntity
  8
001
  6
Continuous
370
    15
100
AcDbLine
 10
26.93636094858865
 20
37.71862813947468
 30
0.0
 11
26.93636094858865
 21
37.73012812925248
 31
0.0
  0
LINE
  5
120E
330
A
100
AcDbEntity
  8
001
  6
Continuous
370
    15
100
AcDbLine
 10
26.93886094870738
 20
37.73012812925248
 30
0.0
 11
26.93636094858865
 21
37.73012812925248
 31
0.0
  0
LINE
  5
120F
330
A
100
AcDbEntity
  8
001
  6
Continuous
370
    15
100
AcDbLine
 10
26.93886094870738
 20
37.93112813239662
 30
0.0
 11
26.93886094870738
 21
37.73012812925248
 31
0.0
  0
LINE
  5
1210
330
A
100
AcDbEntity
  8
001
  6
Continuous
370
    15
100
AcDbLine
 10
26.93886094870738
 20
37.93112813239662
 30
0.0
 11
26.93636094858865
 21
37.93112813239662
 31
0.0
  0
LINE
  5
1211
330
A
100
AcDbEntity
  8
001
  6
Continuous
370
    15
100
AcDbLine
 10
26.93636094858865
 20
37.94262813148765
 30
0.0
 11
26.93636094858865
 21
37.93112813239662
 31
0.0
  0
LINE
  5
1212
330
A
100
AcDbEntity
  8
001
  6
Continuous
370
    15
100
AcDbLine
 10
26.93886094870738
 20
37.94262813148765
 30
0.0
 11
26.93636094858865
 21
37.94262813148765
 31
0.0
  0
LINE
  5
1213
330
A
100
AcDbEntity
  8
001
  6
Continuous
370
    15
100
AcDbLine
 10
26.93886094870738
 20
37.98137813318266
 30
0.0
 11
26.93886094870738
 21
37.94262813148765
 31
0.0
  0
ARC
  5
1214
330
A
100
AcDbEntity
  8
001
  6
Continuous
370
    15
100
AcDbCircle
 10
26.95136094870738
 20
37.94387813374145
 30
0.0
 40
0.0125
100
AcDbArc
 50
90.0
 51
180.0
  0
LINE
  5
1215
330
A
100
AcDbEntity
  8
001
  6
Continuous
370
    15
100
AcDbLine
 10
26.93886094870738
 20
37.98137813318266
 30
0.0
 11
26.93636094858865
 21
37.98137813318266
 31
0.0
  0
LINE
  5
1216
330
A
100
AcDbEntity
  8
001
  6
Continuous
370
    15
100
AcDbLine
 10
26.93636094858865
 20
37.98637813400222
 30
0.0
 11
26.93636094858865
 21
37.98137813318266
 31
0.0
  0
LINE
  5
1217
330
A
100
AcDbEntity
  8
001
  6
Continuous
370
    15
100
AcDbLine
 10
26.94636094906361
 20
37.98637813400222
 30
0.0
 11
26.93636094858865
 21
37.98637813400222
 31
0.0
  0
LINE
  5
1218
330
A
100
AcDbEntity
  8
001
  6
Continuous
370
    15
100
AcDbLine
 10
26.94636094906361
 20
37.98637813400222
 30
0.0
 11
26.94636094906361
 21
37.96137813456102
 31
0.0
  0
LINE
  5
1219
330
A
100
AcDbEntity
  8
001
  6
Continuous
370
    15
100
AcDbLine
 10
26.93636094858865
 20
37.98637813400222
 30
0.0
 11
26.93636094858865
 21
37.99137813380315
 31
0.0
  0
LINE
  5
121A
330
A
100
AcDbEntity
  8
001
  6
Continuous
370
    15
100
AcDbLine
 10
26.93636094858865
 20
37.99137813380315
 30
0.0
 11
26.94636094906361
 21
37.99137813380315
 31
0.0
  0
LINE
  5
121B
330
A
100
AcDbEntity
  8
001
  6
Continuous
370
    15
100
AcDbLine
 10
26.94636094906361
 20
37.99137813380315
 30
0.0
 11
26.94636094906361
 21
37.98637813400222
 31
0.0
  0
ARC
  5
121C
330
A
100
AcDbEntity
  8
001
100
AcDbCircle
 10
27.01536094756046
 20
37.88587821315312
 30
0.0
 40
0.0295
100
AcDbArc
 50
120.1849638781285
 51
239.8150361218714
  0
ARC
  5
121D
330
A
100
AcDbEntity
  8
001
100
AcDbCircle
 10
27.01536094756046
 20
37.88587821315312
 30
0.0
 40
0.0295
100
AcDbArc
 50
300.1849638781284
 51
59.81503612187148
  0
LINE
  5
121E
330
A
100
AcDbEntity
  8
001
100
AcDbLine
 10
27.00052855058427
 20
37.86037821315311
 30
0.0
 11
27.03019334453665
 21
37.86037821315311
 31
0.0
  0
LINE
  5
121F
330
A
100
AcDbEntity
  8
001
100
AcDbLine
 10
27.00052855058424
 20
37.91137821315311
 30
0.0
 11
27.03019334453667
 21
37.91137821315311
 31
0.0
  0
CIRCLE
  5
1220
330
A
100
AcDbEntity
  8
001
100
AcDbCircle
 10
27.01536094756046
 20
37.81709310815291
 30
0.0
 40
0.008
  0
CIRCLE
  5
1221
330
A
100
AcDbEntity
  8
001
100
AcDbCircle
 10
26.99036094756046
 20
37.81709310815291
 30
0.0
 40
0.008
  0
CIRCLE
  5
1222
330
A
100
AcDbEntity
  8
001
100
AcDbCircle
 10
27.00161094858865
 20
37.9408781337526
 30
0.0
 40
0.0125
  0
LINE
  5
1223
330
A
100
AcDbEntity
  8
001
100
AcDbLine
 10
26.97636094756046
 20
37.80112810315286
 30
0.0
 11
26.97636094756047
 21
37.74312754315284
 31
0.0
  0
LINE
  5
1224
330
A
100
AcDbEntity
  8
001
100
AcDbLine
 10
27.04136094756046
 20
37.79962754315283
 30
0.0
 11
27.04136094756047
 21
37.74462754315283
 31
0.0
  0
LINE
  5
1225
330
A
100
AcDbEntity
  8
001
100
AcDbLine
 10
27.02136094756046
 20
37.79212754315284
 30
0.0
 11
27.02136094756047
 21
37.77212754315284
 31
0.0
  0
LINE
  5
1226
330
A
100
AcDbEntity
  8
001
100
AcDbLine
 10
27.01986094756047
 20
37.79062754315284
 30
0.0
 11
27.01986094756048
 21
37.77362754315283
 31
0.0
  0
LINE
  5
1227
330
A
100
AcDbEntity
  8
001
100
AcDbLine
 10
27.00886094756047
 20
37.79212754315284
 30
0.0
 11
27.00886094756048
 21
37.77212754315284
 31
0.0
  0
LINE
  5
1228
330
A
100
AcDbEntity
  8
001
100
AcDbLine
 10
27.01036094756047
 20
37.79062754315284
 30
0.0
 11
27.01036094756047
 21
37.77362754315283
 31
0.0
  0
LINE
  5
1229
330
A
100
AcDbEntity
  8
001
100
AcDbLine
 10
27.04486094858866
 20
37.80112810315287
 30
0.0
 11
27.04486094858865
 21
37.74312754315284
 31
0.0
  0
LINE
  5
122A
330
A
100
AcDbEntity
  8
001
100
AcDbLine
 10
27.04486094858866
 20
37.80112810315287
 30
0.0
 11
26.97636094756046
 21
37.80112810315286
 31
0.0
  0
LINE
  5
122B
330
A
100
AcDbEntity
  8
001
100
AcDbLine
 10
27.04486094858865
 20
37.74312754315284
 30
0.0
 11
26.97636094756047
 21
37.74312754315284
 31
0.0
  0
SPLINE
  5
122C
330
A
100
AcDbEntity
  8
001
  6
Continuous
370
    15
100
AcDbSpline
210
0.0
220
0.0
230
1.0
 70
    24
 71
     1
 72
     4
 73
     2
 74
     0
 42
0.0000000001
 43
0.0000000001
 40
0.0
 40
0.0
 40
1.0
 40
1.0
 10
26.98786094313933
 20
37.88087821385879
 30
0.0
 10
26.99212927831783
 20
37.88087821385879
 30
0.0
  0
SPLINE
  5
122D
330
A
100
AcDbEntity
  8
001
  6
Continuous
370
    15
100
AcDbSpline
210
0.0
220
0.0
230
1.0
 70
    24
 71
     1
 72
     4
 73
     2
 74
     0
 42
0.0000000001
 43
0.0000000001
 40
0.0
 40
0.0
 40
1.0
 40
1.0
 10
26.99214322952999
 20
37.89087821549792
 30
0.0
 10
26.98786094313933
 20
37.89087821549792
 30
0.0
  0
SPLINE
  5
122E
330
A
100
AcDbEntity
  8
001
  6
Continuous
370
    15
100
AcDbSpline
210
0.0
220
0.0
230
1.0
 70
    24
 71
     1
 72
     4
 73
     2
 74
     0
 42
0.0000000001
 43
0.0000000001
 40
0.0
 40
0.0
 40
1.0
 40
1.0
 10
27.03859261697604
 20
37.88087821385879
 30
0.0
 10
27.04286094284131
 20
37.88087821385879
 30
0.0
  0
SPLINE
  5
122F
330
A
100
AcDbEntity
  8
001
  6
Continuous
370
    15
100
AcDbSpline
210
0.0
220
0.0
230
1.0
 70
    24
 71
     1
 72
     4
 73
     2
 74
     0
 42
0.0000000001
 43
0.0000000001
 40
0.0
 40
0.0
 40
1.0
 40
1.0
 10
27.04286094284131
 20
37.89087821549792
 30
0.0
 10
27.03857866576387
 20
37.89087821549792
 30
0.0
  0
LINE
  5
1230
330
A
100
AcDbEntity
  8
001
  6
Continuous
370
    15
100
AcDbLine
 10
27.00655863149537
 20
37.86035333580394
 30
0.0
 11
27.02416326379849
 21
37.86035333580394
 31
0.0
  0
LINE
  5
1231
330
A
100
AcDbEntity
  8
001
  6
Continuous
370
    15
100
AcDbLine
 10
27.00641567348017
 20
37.91135333298762
 30
0.0
 11
27.0243062218137
 21
37.91135333298762
 31
0.0
  0
CIRCLE
  5
1232
330
A
100
AcDbEntity
  8
001
  6
Continuous
370
    15
100
AcDbCircle
 10
27.01536094756046
 20
37.88587821315312
 30
0.0
 40
0.0237499999999997
  0
CIRCLE
  5
1233
330
A
100
AcDbEntity
  8
001
  6
Continuous
370
    15
100
AcDbCircle
 10
27.01536094756046
 20
37.88587821315312
 30
0.0
 40
0.0207499999999999
  0
LINE
  5
1234
330
A
100
AcDbEntity
  8
001
  6
Continuous
370
    15
100
AcDbLine
 10
26.98786094313933
 20
37.8808782138588
 30
0.0
 11
26.98786094313933
 21
37.89087821549792
 31
0.0
  0
LINE
  5
1235
330
A
100
AcDbEntity
  8
001
  6
Continuous
370
    15
100
AcDbLine
 10
27.04286094284131
 20
37.8808782138588
 30
0.0
 11
27.04286094284131
 21
37.89087821549792
 31
0.0
  0
CIRCLE
  5
1236
330
A
100
AcDbEntity
  8
001
  6
Continuous
370
    15
100
AcDbCircle
 10
27.01536094756046
 20
37.88587821315312
 30
0.0
 40
0.005
  0
LINE
  5
1237
330
A
100
AcDbEntity
  8
001
  6
Continuous
370
    15
100
AcDbLine
 10
27.01536094299032
 20
37.90962820692976
 30
0.0
 11
27.00251814438476
 21
37.90962820692976
 31
0.0
  0
ARC
  5
1238
330
A
100
AcDbEntity
  8
001
  6
Continuous
370
    15
100
AcDbCircle
 10
27.01536094756046
 20
37.88587821315312
 30
0.0
 40
0.0270000000000001
100
AcDbArc
 50
118.4022819014557
 51
169.3280707142857
  0
ARC
  5
1239
330
A
100
AcDbEntity
  8
001
  6
Continuous
370
    15
100
AcDbCircle
 10
27.01536094756046
 20
37.88587821315312
 30
0.0
 40
0.0270000000000001
100
AcDbArc
 50
190.6719292857142
 51
241.5977180985442
  0
LINE
  5
123A
330
A
100
AcDbEntity
  8
001
  6
Continuous
370
    15
100
AcDbLine
 10
27.00251814438476
 20
37.86212821311374
 30
0.0
 11
27.01536094299032
 21
37.86212821311374
 31
0.0
  0
LINE
  5
123B
330
A
100
AcDbEntity
  8
001
  6
Continuous
370
    15
100
AcDbLine
 10
27.02820375090911
 20
37.90962820692976
 30
0.0
 11
27.01536094299032
 21
37.90962820692976
 31
0.0
  0
ARC
  5
123C
330
A
100
AcDbEntity
  8
001
  6
Continuous
370
    15
100
AcDbCircle
 10
27.01536094756046
 20
37.88587821315312
 30
0.0
 40
0.027
100
AcDbArc
 50
298.4022819014557
 51
349.3280707142857
  0
ARC
  5
123D
330
A
100
AcDbEntity
  8
001
  6
Continuous
370
    15
100
AcDbCircle
 10
27.01536094756046
 20
37.88587821315312
 30
0.0
 40
0.027
100
AcDbArc
 50
10.6719292857143
 51
61.59771809854429
  0
LINE
  5
123E
330
A
100
AcDbEntity
  8
001
  6
Continuous
370
    15
100
AcDbLine
 10
27.01536094299032
 20
37.86212821311374
 30
0.0
 11
27.02820375090911
 21
37.86212821311374
 31
0.0
  0
LINE
  5
123F
330
A
100
AcDbEntity
  8
001
  6
Continuous
370
    15
100
AcDbLine
 10
26.99801998673453
 20
37.91591364710648
 30
0.0
 11
26.98067902116551
 21
37.88587821467836
 31
0.0
  0
LINE
  5
1240
330
A
100
AcDbEntity
  8
001
  6
Continuous
370
    15
100
AcDbLine
 10
26.98067902116551
 20
37.88587821467836
 30
0.0
 11
26.97490551969482
 21
37.88587821467836
 31
0.0
  0
LINE
  5
1241
330
A
100
AcDbEntity
  8
001
  6
Continuous
370
    15
100
AcDbLine
 10
26.97490551969482
 20
37.88587821467836
 30
0.0
 11
26.99513323134257
 21
37.92091363861282
 31
0.0
  0
LINE
  5
1242
330
A
100
AcDbEntity
  8
001
  6
Continuous
370
    15
100
AcDbLine
 10
26.99801998673453
 20
37.91591364710648
 30
0.0
 11
26.99513323134257
 21
37.92091363861282
 31
0.0
  0
LINE
  5
1243
330
A
100
AcDbEntity
  8
001
  6
Continuous
370
    15
100
AcDbLine
 10
26.98067902116551
 20
37.88587821467836
 30
0.0
 11
26.99801998673453
 21
37.85584278225024
 31
0.0
  0
LINE
  5
1244
330
A
100
AcDbEntity
  8
001
  6
Continuous
370
    15
100
AcDbLine
 10
26.99801998673453
 20
37.85584278225024
 30
0.0
 11
26.99513323134257
 21
37.8508427907439
 31
0.0
  0
LINE
  5
1245
330
A
100
AcDbEntity
  8
001
  6
Continuous
370
    15
100
AcDbLine
 10
26.99513323134257
 20
37.8508427907439
 30
0.0
 11
26.97490551969482
 21
37.88587821467836
 31
0.0
  0
LINE
  5
1246
330
A
100
AcDbEntity
  8
001
  6
Continuous
370
    15
100
AcDbLine
 10
27.05581636628582
 20
37.88587821467836
 30
0.0
 11
27.03558865463807
 21
37.8508427907439
 31
0.0
  0
LINE
  5
1247
330
A
100
AcDbEntity
  8
001
  6
Continuous
370
    15
100
AcDbLine
 10
27.03558865463807
 20
37.8508427907439
 30
0.0
 11
27.03270190855934
 21
37.85584278225024
 31
0.0
  0
LINE
  5
1248
330
A
100
AcDbEntity
  8
001
  6
Continuous
370
    15
100
AcDbLine
 10
27.03270190855934
 20
37.85584278225024
 30
0.0
 11
27.05004287412836
 21
37.88587821467836
 31
0.0
  0
LINE
  5
1249
330
A
100
AcDbEntity
  8
001
  6
Continuous
370
    15
100
AcDbLine
 10
27.05581636628582
 20
37.88587821467836
 30
0.0
 11
27.05004287412836
 21
37.88587821467836
 31
0.0
  0
LINE
  5
124A
330
A
100
AcDbEntity
  8
001
  6
Continuous
370
    15
100
AcDbLine
 10
26.99801998673453
 20
37.85584278225024
 30
0.0
 11
27.03270190855934
 21
37.85584278225024
 31
0.0
  0
LINE
  5
124B
330
A
100
AcDbEntity
  8
001
  6
Continuous
370
    15
100
AcDbLine
 10
27.03558865463807
 20
37.8508427907439
 30
0.0
 11
26.99513323134257
 21
37.8508427907439
 31
0.0
  0
LINE
  5
124C
330
A
100
AcDbEntity
  8
001
  6
Continuous
370
    15
100
AcDbLine
 10
27.03558865463807
 20
37.92091363861282
 30
0.0
 11
27.05581636628582
 21
37.88587821467836
 31
0.0
  0
LINE
  5
124D
330
A
100
AcDbEntity
  8
001
  6
Continuous
370
    15
100
AcDbLine
 10
27.05004287412836
 20
37.88587821467836
 30
0.0
 11
27.03270190855934
 21
37.91591364710648
 31
0.0
  0
LINE
  5
124E
330
A
100
AcDbEntity
  8
001
  6
Continuous
370
    15
100
AcDbLine
 10
27.03558865463807
 20
37.92091363861282
 30
0.0
 11
27.03270190855934
 21
37.91591364710648
 31
0.0
  0
LINE
  5
124F
330
A
100
AcDbEntity
  8
001
  6
Continuous
370
    15
100
AcDbLine
 10
27.03270190855934
 20
37.91591364710648
 30
0.0
 11
26.99801998673453
 21
37.91591364710648
 31
0.0
  0
LINE
  5
1250
330
A
100
AcDbEntity
  8
001
  6
Continuous
370
    15
100
AcDbLine
 10
26.99513323134257
 20
37.92091363861282
 30
0.0
 11
27.03558865463807
 21
37.92091363861282
 31
0.0
  0
ARC
  5
1251
330
A
100
AcDbEntity
  8
001
  6
Continuous
370
    15
100
AcDbCircle
 10
27.01536094756046
 20
37.88587821315312
 30
0.0
 40
0.0269999999999999
100
AcDbArc
 50
270.0
 51
298.4022819014557
  0
ARC
  5
1252
330
A
100
AcDbEntity
  8
001
  6
Continuous
370
    15
100
AcDbCircle
 10
27.01536094756046
 20
37.88587821315312
 30
0.0
 40
0.027
100
AcDbArc
 50
61.59771809854429
 51
118.4022819014557
  0
ARC
  5
1253
330
A
100
AcDbEntity
  8
001
  6
Continuous
370
    15
100
AcDbCircle
 10
27.01536094756046
 20
37.88587821315312
 30
0.0
 40
0.0269999999999999
100
AcDbArc
 50
241.5977180985442
 51
270.0
  0
LINE
  5
1254
330
A
100
AcDbEntity
  8
001
100
AcDbLine
 10
26.97636094756046
 20
37.79962754315283
 30
0.0
 11
27.04136094756046
 21
37.79962754315283
 31
0.0
  0
LINE
  5
1255
330
A
100
AcDbEntity
  8
001
100
AcDbLine
 10
26.97636094756046
 20
37.74462754315283
 30
0.0
 11
27.04136094756047
 21
37.74462754315283
 31
0.0
  0
LINE
  5
1256
330
A
100
AcDbEntity
  8
001
100
AcDbLine
 10
26.97636094756047
 20
37.79462754315284
 30
0.0
 11
27.04136094756046
 21
37.79462754315284
 31
0.0
  0
LINE
  5
1257
330
A
100
AcDbEntity
  8
001
100
AcDbLine
 10
26.97636094756047
 20
37.76962754315284
 30
0.0
 11
27.04136094756048
 21
37.76962754315284
 31
0.0
  0
LINE
  5
1258
330
A
100
AcDbEntity
  8
001
100
AcDbLine
 10
27.00886094756048
 20
37.77212754315284
 30
0.0
 11
27.02136094756047
 21
37.77212754315284
 31
0.0
  0
LINE
  5
1259
330
A
100
AcDbEntity
  8
001
100
AcDbLine
 10
27.01036094756047
 20
37.77362754315283
 30
0.0
 11
27.01986094756048
 21
37.77362754315283
 31
0.0
  0
LINE
  5
125A
330
A
100
AcDbEntity
  8
001
100
AcDbLine
 10
27.00886094756047
 20
37.79212754315284
 30
0.0
 11
27.02136094756046
 21
37.79212754315284
 31
0.0
  0
LINE
  5
125B
330
A
100
AcDbEntity
  8
001
100
AcDbLine
 10
27.01036094756047
 20
37.79062754315284
 30
0.0
 11
27.01986094756047
 21
37.79062754315284
 31
0.0
  0
CIRCLE
  5
125C
330
A
100
AcDbEntity
  8
001
100
AcDbCircle
 10
27.02886094756046
 20
37.78212754315283
 30
0.0
 40
0.005
  0
CIRCLE
  5
125D
330
A
100
AcDbEntity
  8
001
100
AcDbCircle
 10
27.02886094756047
 20
37.75712754315284
 30
0.0
 40
0.005
  0
CIRCLE
  5
125E
330
A
100
AcDbEntity
  8
001
100
AcDbCircle
 10
26.99886094756046
 20
37.78212754315283
 30
0.0
 40
0.00825
  0
LINE
  5
125F
330
A
100
AcDbEntity
  8
001
100
AcDbLine
 10
27.02136094756047
 20
37.76712754315283
 30
0.0
 11
27.02136094756048
 21
37.74712754315284
 31
0.0
  0
LINE
  5
1260
330
A
100
AcDbEntity
  8
001
100
AcDbLine
 10
27.01986094756048
 20
37.76562754315284
 30
0.0
 11
27.01986094756049
 21
37.74862754315283
 31
0.0
  0
LINE
  5
1261
330
A
100
AcDbEntity
  8
001
100
AcDbLine
 10
27.00886094756048
 20
37.76712754315283
 30
0.0
 11
27.00886094756049
 21
37.74712754315284
 31
0.0
  0
LINE
  5
1262
330
A
100
AcDbEntity
  8
001
100
AcDbLine
 10
27.01036094756048
 20
37.76562754315284
 30
0.0
 11
27.01036094756048
 21
37.74862754315283
 31
0.0
  0
LINE
  5
1263
330
A
100
AcDbEntity
  8
001
100
AcDbLine
 10
27.00886094756049
 20
37.74712754315284
 30
0.0
 11
27.02136094756048
 21
37.74712754315284
 31
0.0
  0
LINE
  5
1264
330
A
100
AcDbEntity
  8
001
100
AcDbLine
 10
27.01036094756048
 20
37.74862754315283
 30
0.0
 11
27.01986094756049
 21
37.74862754315283
 31
0.0
  0
LINE
  5
1265
330
A
100
AcDbEntity
  8
001
100
AcDbLine
 10
27.00886094756048
 20
37.76712754315283
 30
0.0
 11
27.02136094756047
 21
37.76712754315283
 31
0.0
  0
LINE
  5
1266
330
A
100
AcDbEntity
  8
001
100
AcDbLine
 10
27.01036094756048
 20
37.76562754315284
 30
0.0
 11
27.01986094756048
 21
37.76562754315284
 31
0.0
  0
CIRCLE
  5
1267
330
A
100
AcDbEntity
  8
001
100
AcDbCircle
 10
26.99886094756047
 20
37.75712754315284
 30
0.0
 40
0.00825
  0
CIRCLE
  5
1268
330
A
100
AcDbEntity
  8
001
100
AcDbCircle
 10
27.00161094858865
 20
37.7203781369415
 30
0.0
 40
0.0125
  0
CIRCLE
  5
1269
330
A
100
AcDbEntity
  8
001
100
AcDbCircle
 10
27.00161094858865
 20
37.94087813348437
 30
0.0
 40
0.0075
  0
CIRCLE
  5
126A
330
A
100
AcDbEntity
  8
001
100
AcDbCircle
 10
27.00161094858865
 20
37.7203781369415
 30
0.0
 40
0.0075
  0
LINE
  5
126B
330
A
100
AcDbEntity
  8
001
100
AcDbLine
 10
27.82350970435863
 20
37.74582833315297
 30
0.0
 11
27.82350970435862
 21
37.79322853315294
 31
0.0
  0
ARC
  5
126C
330
A
100
AcDbEntity
  8
001
100
AcDbCircle
 10
27.82100970435863
 20
37.79322853315294
 30
0.0
 40
0.0025
100
AcDbArc
 50
0.0
 51
90.0
  0
LINE
  5
126D
330
A
100
AcDbEntity
  8
001
100
AcDbLine
 10
27.80000970435864
 20
37.74582833315297
 30
0.0
 11
27.80000970435864
 21
37.79322853315294
 31
0.0
  0
LINE
  5
126E
330
A
100
AcDbEntity
  8
001
  6
CENTER2
 48
0.1
100
AcDbLine
 10
27.77700970435864
 20
37.85637356963627
 30
0.0
 11
27.77700970435864
 21
37.89019114069157
 31
0.0
  0
CIRCLE
  5
126F
330
A
100
AcDbEntity
  8
001
100
AcDbCircle
 10
27.77700970435864
 20
37.87362842815295
 30
0.0
 40
0.00875
  0
LINE
  5
1270
330
A
100
AcDbEntity
  8
001
100
AcDbLine
 10
27.83100970435864
 20
37.89561005018205
 30
0.0
 11
27.83100970435864
 21
37.85164680612379
 31
0.0
  0
ARC
  5
1271
330
A
100
AcDbEntity
  8
001
100
AcDbCircle
 10
27.82850970435864
 20
37.85164680612379
 30
0.0
 40
0.0025000000000017
100
AcDbArc
 50
336.5713071913183
 51
0.0
  0
LINE
  5
1272
330
A
100
AcDbEntity
  8
001
100
AcDbLine
 10
27.80350970435864
 20
37.90862842815293
 30
0.0
 11
27.80350970435863
 21
37.83862842815294
 31
0.0
  0
ARC
  5
1273
330
A
100
AcDbEntity
  8
001
100
AcDbCircle
 10
27.80600970435864
 20
37.90862842815293
 30
0.0
 40
0.0025
100
AcDbArc
 50
90.0
 51
180.0
  0
LINE
  5
1274
330
A
100
AcDbEntity
  8
001
100
AcDbLine
 10
27.80600970435864
 20
37.91112842815293
 30
0.0
 11
27.82036840723793
 21
37.91112842815294
 31
0.0
  0
ARC
  5
1275
330
A
100
AcDbEntity
  8
001
100
AcDbCircle
 10
27.82036840723793
 20
37.90862842815294
 30
0.0
 40
0.0025000000000017
100
AcDbArc
 50
23.42869280868165
 51
90.0
  0
LINE
  5
1276
330
A
100
AcDbEntity
  8
001
100
AcDbLine
 10
27.80600970435863
 20
37.83612842815294
 30
0.0
 11
27.82036840723793
 21
37.83612842815294
 31
0.0
  0
ARC
  5
1277
330
A
100
AcDbEntity
  8
001
100
AcDbCircle
 10
27.80600970435863
 20
37.83862842815294
 30
0.0
 40
0.0025
100
AcDbArc
 50
180.0
 51
270.0
  0
CIRCLE
  5
1278
330
A
100
AcDbEntity
  8
001
100
AcDbCircle
 10
27.77700970435864
 20
37.87362842815295
 30
0.0
 40
0.01375
  0
LINE
  5
1279
330
A
100
AcDbEntity
  8
001
100
AcDbLine
 10
27.80250970435864
 20
37.74332833315297
 30
0.0
 11
27.82100970435863
 21
37.74332833315297
 31
0.0
  0
ARC
  5
127A
330
A
100
AcDbEntity
  8
001
100
AcDbCircle
 10
27.82100970435863
 20
37.74582833315297
 30
0.0
 40
0.0025
100
AcDbArc
 50
270.0
 51
0.0
  0
ARC
  5
127B
330
A
100
AcDbEntity
  8
001
100
AcDbCircle
 10
27.80250970435864
 20
37.74582833315297
 30
0.0
 40
0.0025
100
AcDbArc
 50
180.0
 51
270.0
  0
LINE
  5
127C
330
A
100
AcDbEntity
  8
001
100
AcDbLine
 10
27.80250970435864
 20
37.79572853315294
 30
0.0
 11
27.82100970435863
 21
37.79572853315294
 31
0.0
  0
ARC
  5
127D
330
A
100
AcDbEntity
  8
001
100
AcDbCircle
 10
27.80250970435864
 20
37.79322853315294
 30
0.0
 40
0.0025
100
AcDbArc
 50
90.0
 51
180.0
  0
LINE
  5
127E
330
A
100
AcDbEntity
  8
001
100
AcDbLine
 10
27.82266229630121
 20
37.83763440955885
 30
0.0
 11
27.83080359342192
 21
37.85065278752971
 31
0.0
  0
ARC
  5
127F
330
A
100
AcDbEntity
  8
001
100
AcDbCircle
 10
27.82036840723793
 20
37.83862842815294
 30
0.0
 40
0.0025
100
AcDbArc
 50
270.0
 51
336.5713071913183
  0
LINE
  5
1280
330
A
100
AcDbEntity
  8
001
100
AcDbLine
 10
27.83080359342192
 20
37.89660406877614
 30
0.0
 11
27.82266229630121
 21
37.90962244674703
 31
0.0
  0
ARC
  5
1281
330
A
100
AcDbEntity
  8
001
100
AcDbCircle
 10
27.82850970435864
 20
37.89561005018205
 30
0.0
 40
0.0025
100
AcDbArc
 50
0.0
 51
23.42869280868165
  0
LINE
  5
1282
330
A
100
AcDbEntity
  8
001
  6
CENTER2
 48
0.1
100
AcDbLine
 10
27.86645392926981
 20
37.87362842815295
 30
0.0
 11
27.75679753060028
 21
37.87362842815295
 31
0.0
  0
LINE
  5
1283
330
A
100
AcDbEntity
  8
001
100
AcDbLine
 10
27.80500970435863
 20
37.74801843296311
 30
0.0
 11
27.80500970435863
 21
37.75413843296314
 31
0.0
  0
LINE
  5
1284
330
A
100
AcDbEntity
  8
001
100
AcDbLine
 10
27.80900970435864
 20
37.74801843296311
 30
0.0
 11
27.80900970435864
 21
37.75413843296313
 31
0.0
  0
ARC
  5
1285
330
A
100
AcDbEntity
  8
001
100
AcDbCircle
 10
27.80825970435863
 20
37.74801843296311
 30
0.0
 40
0.00075
100
AcDbArc
 50
270.0
 51
0.0
  0
ARC
  5
1286
330
A
100
AcDbEntity
  8
001
100
AcDbCircle
 10
27.80825970435863
 20
37.75413843296313
 30
0.0
 40
0.00075
100
AcDbArc
 50
0.0
 51
90.0
  0
LINE
  5
1287
330
A
100
AcDbEntity
  8
001
100
AcDbLine
 10
27.80575970435863
 20
37.74726843296311
 30
0.0
 11
27.80825970435863
 21
37.74726843296311
 31
0.0
  0
ARC
  5
1288
330
A
100
AcDbEntity
  8
001
100
AcDbCircle
 10
27.80575970435863
 20
37.74801843296311
 30
0.0
 40
0.00075
100
AcDbArc
 50
180.0
 51
270.0
  0
LINE
  5
1289
330
A
100
AcDbEntity
  8
001
100
AcDbLine
 10
27.80575970435863
 20
37.75488843296313
 30
0.0
 11
27.80825970435863
 21
37.75488843296312
 31
0.0
  0
ARC
  5
128A
330
A
100
AcDbEntity
  8
001
100
AcDbCircle
 10
27.80575970435863
 20
37.75413843296314
 30
0.0
 40
0.00075
100
AcDbArc
 50
90.0
 51
180.0
  0
LINE
  5
128B
330
A
100
AcDbEntity
  8
001
100
AcDbLine
 10
27.80500970435863
 20
37.76071843296315
 30
0.0
 11
27.80500970435863
 21
37.76683843296318
 31
0.0
  0
LINE
  5
128C
330
A
100
AcDbEntity
  8
001
100
AcDbLine
 10
27.80900970435864
 20
37.76071843296315
 30
0.0
 11
27.80900970435864
 21
37.76683843296317
 31
0.0
  0
ARC
  5
128D
330
A
100
AcDbEntity
  8
001
100
AcDbCircle
 10
27.80825970435863
 20
37.76071843296315
 30
0.0
 40
0.00075
100
AcDbArc
 50
270.0
 51
0.0
  0
ARC
  5
128E
330
A
100
AcDbEntity
  8
001
100
AcDbCircle
 10
27.80825970435863
 20
37.76683843296317
 30
0.0
 40
0.00075
100
AcDbArc
 50
0.0
 51
90.0
  0
LINE
  5
128F
330
A
100
AcDbEntity
  8
001
100
AcDbLine
 10
27.80575970435863
 20
37.75996843296315
 30
0.0
 11
27.80825970435863
 21
37.75996843296315
 31
0.0
  0
ARC
  5
1290
330
A
100
AcDbEntity
  8
001
100
AcDbCircle
 10
27.80575970435863
 20
37.76071843296315
 30
0.0
 40
0.00075
100
AcDbArc
 50
180.0
 51
270.0
  0
LINE
  5
1291
330
A
100
AcDbEntity
  8
001
100
AcDbLine
 10
27.80575970435863
 20
37.76758843296318
 30
0.0
 11
27.80825970435863
 21
37.76758843296317
 31
0.0
  0
ARC
  5
1292
330
A
100
AcDbEntity
  8
001
100
AcDbCircle
 10
27.80575970435863
 20
37.76683843296318
 30
0.0
 40
0.00075
100
AcDbArc
 50
90.0
 51
180.0
  0
LINE
  5
1293
330
A
100
AcDbEntity
  8
001
100
AcDbLine
 10
27.80500970435863
 20
37.77341843296305
 30
0.0
 11
27.80500970435863
 21
37.77953843296308
 31
0.0
  0
LINE
  5
1294
330
A
100
AcDbEntity
  8
001
100
AcDbLine
 10
27.80900970435864
 20
37.77341843296305
 30
0.0
 11
27.80900970435864
 21
37.77953843296306
 31
0.0
  0
ARC
  5
1295
330
A
100
AcDbEntity
  8
001
100
AcDbCircle
 10
27.80825970435863
 20
37.77341843296305
 30
0.0
 40
0.00075
100
AcDbArc
 50
270.0
 51
0.0
  0
ARC
  5
1296
330
A
100
AcDbEntity
  8
001
100
AcDbCircle
 10
27.80825970435863
 20
37.77953843296306
 30
0.0
 40
0.00075
100
AcDbArc
 50
0.0
 51
90.0
  0
LINE
  5
1297
330
A
100
AcDbEntity
  8
001
100
AcDbLine
 10
27.80575970435863
 20
37.77266843296305
 30
0.0
 11
27.80825970435863
 21
37.77266843296305
 31
0.0
  0
ARC
  5
1298
330
A
100
AcDbEntity
  8
001
100
AcDbCircle
 10
27.80575970435863
 20
37.77341843296305
 30
0.0
 40
0.00075
100
AcDbArc
 50
180.0
 51
270.0
  0
LINE
  5
1299
330
A
100
AcDbEntity
  8
001
100
AcDbLine
 10
27.80575970435863
 20
37.78028843296307
 30
0.0
 11
27.80825970435863
 21
37.78028843296306
 31
0.0
  0
ARC
  5
129A
330
A
100
AcDbEntity
  8
001
100
AcDbCircle
 10
27.80575970435863
 20
37.77953843296308
 30
0.0
 40
0.00075
100
AcDbArc
 50
90.0
 51
180.0
  0
LINE
  5
129B
330
A
100
AcDbEntity
  8
001
100
AcDbLine
 10
27.80500970435863
 20
37.78611843296308
 30
0.0
 11
27.80500970435863
 21
37.79223843296311
 31
0.0
  0
LINE
  5
129C
330
A
100
AcDbEntity
  8
001
100
AcDbLine
 10
27.80900970435864
 20
37.78611843296308
 30
0.0
 11
27.80900970435864
 21
37.79223843296311
 31
0.0
  0
ARC
  5
129D
330
A
100
AcDbEntity
  8
001
100
AcDbCircle
 10
27.80825970435863
 20
37.78611843296308
 30
0.0
 40
0.00075
100
AcDbArc
 50
270.0
 51
0.0
  0
ARC
  5
129E
330
A
100
AcDbEntity
  8
001
100
AcDbCircle
 10
27.80825970435863
 20
37.79223843296311
 30
0.0
 40
0.00075
100
AcDbArc
 50
0.0
 51
90.0
  0
LINE
  5
129F
330
A
100
AcDbEntity
  8
001
100
AcDbLine
 10
27.80575970435863
 20
37.78536843296309
 30
0.0
 11
27.80825970435863
 21
37.78536843296309
 31
0.0
  0
ARC
  5
12A0
330
A
100
AcDbEntity
  8
001
100
AcDbCircle
 10
27.80575970435863
 20
37.78611843296308
 30
0.0
 40
0.00075
100
AcDbArc
 50
180.0
 51
270.0
  0
LINE
  5
12A1
330
A
100
AcDbEntity
  8
001
100
AcDbLine
 10
27.80575970435863
 20
37.79298843296311
 30
0.0
 11
27.80825970435863
 21
37.7929884329631
 31
0.0
  0
ARC
  5
12A2
330
A
100
AcDbEntity
  8
001
100
AcDbCircle
 10
27.80575970435863
 20
37.79223843296311
 30
0.0
 40
0.00075
100
AcDbArc
 50
90.0
 51
180.0
  0
LINE
  5
12A3
330
A
100
AcDbEntity
  8
001
  6
Continuous
370
    15
100
AcDbLine
 10
27.86550970285549
 20
37.66987813381224
 30
0.0
 11
27.87550970333045
 21
37.66987813381224
 31
0.0
  0
LINE
  5
12A4
330
A
100
AcDbEntity
  8
001
  6
Continuous
370
    15
100
AcDbLine
 10
27.87550970333045
 20
37.66987813381224
 30
0.0
 11
27.87550970333045
 21
37.67487814394502
 31
0.0
  0
LINE
  5
12A5
330
A
100
AcDbEntity
  8
001
  6
Continuous
370
    15
100
AcDbLine
 10
27.87550970333045
 20
37.67487814394502
 30
0.0
 11
27.86550970285549
 21
37.67487814394502
 31
0.0
  0
LINE
  5
12A6
330
A
100
AcDbEntity
  8
001
  6
Continuous
370
    15
100
AcDbLine
 10
27.86550970285549
 20
37.67487814394502
 30
0.0
 11
27.86550970285549
 21
37.66987813381224
 31
0.0
  0
ARC
  5
12A7
330
A
100
AcDbEntity
  8
001
  6
Continuous
370
    15
100
AcDbCircle
 10
27.86050970333045
 20
37.96137813375262
 30
0.0
 40
0.005
100
AcDbArc
 50
270.0
 51
0.0
  0
LINE
  5
12A8
330
A
100
AcDbEntity
  8
001
  6
Continuous
370
    15
100
AcDbLine
 10
27.86050970321172
 20
37.95637813374145
 30
0.0
 11
27.75800917490241
 21
37.95637813374145
 31
0.0
  0
ARC
  5
12A9
330
A
100
AcDbEntity
  8
001
  6
Continuous
370
    15
100
AcDbCircle
 10
27.75800970333044
 20
37.94387813375262
 30
0.0
 40
0.0125000000000002
100
AcDbArc
 50
90.0
 51
180.0
  0
LINE
  5
12AA
330
A
100
AcDbEntity
  8
001
  6
Continuous
370
    15
100
AcDbLine
 10
27.74550970064826
 20
37.94387813375262
 30
0.0
 11
27.74550970064826
 21
37.71737813694148
 31
0.0
  0
ARC
  5
12AB
330
A
100
AcDbEntity
  8
001
  6
Continuous
370
    15
100
AcDbCircle
 10
27.75800970333044
 20
37.71737813375263
 30
0.0
 40
0.0125
100
AcDbArc
 50
180.0
 51
270.0
  0
LINE
  5
12AC
330
A
100
AcDbEntity
  8
001
  6
Continuous
370
    15
100
AcDbLine
 10
27.86050970321172
 20
37.70487813023596
 30
0.0
 11
27.75800970333044
 21
37.70487813023596
 31
0.0
  0
ARC
  5
12AD
330
A
100
AcDbEntity
  8
001
  6
Continuous
370
    15
100
AcDbCircle
 10
27.86050970321172
 20
37.71737813023595
 30
0.0
 40
0.0125
100
AcDbArc
 50
270.0
 51
0.0
  0
ARC
  5
12AE
330
A
100
AcDbEntity
  8
001
  6
Continuous
370
    15
100
AcDbCircle
 10
27.86050970333045
 20
37.69987813375264
 30
0.0
 40
0.005
100
AcDbArc
 50
0.0
 51
90.0
  0
LINE
  5
12AF
330
A
100
AcDbEntity
  8
001
  6
Continuous
370
    15
100
AcDbLine
 10
27.86550970285549
 20
37.67487814394502
 30
0.0
 11
27.86550970285549
 21
37.69987813872962
 31
0.0
  0
LINE
  5
12B0
330
A
100
AcDbEntity
  8
001
  6
Continuous
370
    15
100
AcDbLine
 10
27.87550970333045
 20
37.67487814394502
 30
0.0
 11
27.87550970333045
 21
37.67987811682491
 31
0.0
  0
LINE
  5
12B1
330
A
100
AcDbEntity
  8
001
  6
Continuous
370
    15
100
AcDbLine
 10
27.87300970321172
 20
37.67987811682491
 30
0.0
 11
27.87550970333045
 21
37.67987811682491
 31
0.0
  0
LINE
  5
12B2
330
A
100
AcDbEntity
  8
001
  6
Continuous
370
    15
100
AcDbLine
 10
27.87300970321172
 20
37.67987811682491
 30
0.0
 11
27.87300970321172
 21
37.71862813947468
 31
0.0
  0
LINE
  5
12B3
330
A
100
AcDbEntity
  8
001
  6
Continuous
370
    15
100
AcDbLine
 10
27.87300970321172
 20
37.71862813947468
 30
0.0
 11
27.87550970333045
 21
37.71862813947468
 31
0.0
  0
LINE
  5
12B4
330
A
100
AcDbEntity
  8
001
  6
Continuous
370
    15
100
AcDbLine
 10
27.87550970333045
 20
37.71862813947468
 30
0.0
 11
27.87550970333045
 21
37.73012812925248
 31
0.0
  0
LINE
  5
12B5
330
A
100
AcDbEntity
  8
001
  6
Continuous
370
    15
100
AcDbLine
 10
27.87300970321172
 20
37.73012812925248
 30
0.0
 11
27.87550970333045
 21
37.73012812925248
 31
0.0
  0
LINE
  5
12B6
330
A
100
AcDbEntity
  8
001
  6
Continuous
370
    15
100
AcDbLine
 10
27.87300970321172
 20
37.93112813239662
 30
0.0
 11
27.87300970321172
 21
37.73012812925248
 31
0.0
  0
LINE
  5
12B7
330
A
100
AcDbEntity
  8
001
  6
Continuous
370
    15
100
AcDbLine
 10
27.87300970321172
 20
37.93112813239662
 30
0.0
 11
27.87550970333045
 21
37.93112813239662
 31
0.0
  0
LINE
  5
12B8
330
A
100
AcDbEntity
  8
001
  6
Continuous
370
    15
100
AcDbLine
 10
27.87550970333045
 20
37.94262813148765
 30
0.0
 11
27.87550970333045
 21
37.93112813239662
 31
0.0
  0
LINE
  5
12B9
330
A
100
AcDbEntity
  8
001
  6
Continuous
370
    15
100
AcDbLine
 10
27.87300970321172
 20
37.94262813148765
 30
0.0
 11
27.87550970333045
 21
37.94262813148765
 31
0.0
  0
LINE
  5
12BA
330
A
100
AcDbEntity
  8
001
  6
Continuous
370
    15
100
AcDbLine
 10
27.87300970321172
 20
37.98137813318266
 30
0.0
 11
27.87300970321172
 21
37.94262813148765
 31
0.0
  0
ARC
  5
12BB
330
A
100
AcDbEntity
  8
001
  6
Continuous
370
    15
100
AcDbCircle
 10
27.86050970321172
 20
37.94387813374145
 30
0.0
 40
0.0125
100
AcDbArc
 50
0.0
 51
90.0
  0
LINE
  5
12BC
330
A
100
AcDbEntity
  8
001
  6
Continuous
370
    15
100
AcDbLine
 10
27.87300970321172
 20
37.98137813318266
 30
0.0
 11
27.87550970333045
 21
37.98137813318266
 31
0.0
  0
LINE
  5
12BD
330
A
100
AcDbEntity
  8
001
  6
Continuous
370
    15
100
AcDbLine
 10
27.87550970333045
 20
37.98637813400222
 30
0.0
 11
27.87550970333045
 21
37.98137813318266
 31
0.0
  0
LINE
  5
12BE
330
A
100
AcDbEntity
  8
001
  6
Continuous
370
    15
100
AcDbLine
 10
27.86550970285549
 20
37.98637813400222
 30
0.0
 11
27.87550970333045
 21
37.98637813400222
 31
0.0
  0
LINE
  5
12BF
330
A
100
AcDbEntity
  8
001
  6
Continuous
370
    15
100
AcDbLine
 10
27.86550970285549
 20
37.98637813400222
 30
0.0
 11
27.86550970285549
 21
37.96137813456102
 31
0.0
  0
LINE
  5
12C0
330
A
100
AcDbEntity
  8
001
  6
Continuous
370
    15
100
AcDbLine
 10
27.87550970333045
 20
37.98637813400222
 30
0.0
 11
27.87550970333045
 21
37.99137813380315
 31
0.0
  0
LINE
  5
12C1
330
A
100
AcDbEntity
  8
001
  6
Continuous
370
    15
100
AcDbLine
 10
27.87550970333045
 20
37.99137813380315
 30
0.0
 11
27.86550970285549
 21
37.99137813380315
 31
0.0
  0
LINE
  5
12C2
330
A
100
AcDbEntity
  8
001
  6
Continuous
370
    15
100
AcDbLine
 10
27.86550970285549
 20
37.99137813380315
 30
0.0
 11
27.86550970285549
 21
37.98637813400222
 31
0.0
  0
CIRCLE
  5
12C3
330
A
100
AcDbEntity
  8
001
100
AcDbCircle
 10
27.81025970333045
 20
37.9408781337526
 30
0.0
 40
0.0125
  0
CIRCLE
  5
12C4
330
A
100
AcDbEntity
  8
001
100
AcDbCircle
 10
27.81025970333045
 20
37.7203781369415
 30
0.0
 40
0.0125
  0
CIRCLE
  5
12C5
330
A
100
AcDbEntity
  8
001
100
AcDbCircle
 10
27.81025970333045
 20
37.94087813348437
 30
0.0
 40
0.0075
  0
CIRCLE
  5
12C6
330
A
100
AcDbEntity
  8
001
100
AcDbCircle
 10
27.81025970333045
 20
37.7203781369415
 30
0.0
 40
0.0075
  0
LWPOLYLINE
  5
12CE
330
A
100
AcDbEntity
  8
001
  6
Continuous
100
AcDbPolyline
 90
        4
 70
     1
 43
0.0
 10
27.80851095513016
 20
37.90448786797065
 10
27.81509496598582
 20
37.90448786797065
 10
27.81509496598582
 20
37.8416026935146
 10
27.80851095513016
 20
37.8416026935146
  0
INSERT
  5
12CF
330
A
100
AcDbEntity
  8
0
  6
Continuous
100
AcDbBlockReference
  2
SDI2HDMI BOARD
 10
-4275.899559001942
 20
802.2038705106574
 30
0.0
  0
LINE
  5
13F2
330
A
100
AcDbEntity
  8
001
100
AcDbLine
 10
27.24514032690153
 20
37.61647140097142
 30
0.0
 11
27.24273112839608
 21
37.61647140097142
 31
0.0
  0
LINE
  5
13F3
330
A
100
AcDbEntity
  8
001
100
AcDbLine
 10
27.14014033763037
 20
37.61647140097142
 30
0.0
 11
27.14172979683815
 21
37.61647140097142
 31
0.0
  0
LINE
  5
13FE
330
A
100
AcDbEntity
  8
001
100
AcDbLine
 10
26.95636094906361
 20
37.99137813380315
 30
0.0
 11
27.1133024896999
 21
37.99137813380315
 31
0.0
  0
LINE
  5
13FF
330
A
100
AcDbEntity
  8
001
100
AcDbLine
 10
27.10307847546459
 20
37.99137813380315
 30
0.0
 11
27.10146107058187
 21
37.98220827052737
 31
0.0
  0
LINE
  5
1400
330
A
100
AcDbEntity
  8
001
100
AcDbLine
 10
27.10307847546459
 20
37.99137813380315
 30
0.0
 11
27.10469507406373
 21
37.98220827052737
 31
0.0
  0
LINE
  5
1401
330
A
100
AcDbEntity
  8
001
100
AcDbLine
 10
27.10307847546459
 20
37.66987813381224
 30
0.0
 11
27.10307847546459
 21
37.99137813380315
 31
0.0
  0
TEXT
  5
1402
330
A
100
AcDbEntity
  8
001
  6
Continuous
100
AcDbText
 10
27.13339530914822
 20
37.81647635577771
 30
0.0
 40
0.0232799810762421
  1
65
 50
90.0
 41
0.6
 72
     1
 11
27.13339530914822
 21
37.82811634631583
 31
0.0
100
AcDbText
  0
LINE
  5
1403
330
A
100
AcDbEntity
  8
001
100
AcDbLine
 10
26.95636094906361
 20
37.66987813381224
 30
0.0
 11
27.1133024896999
 21
37.66987813381224
 31
0.0
  0
LINE
  5
1404
330
A
100
AcDbEntity
  8
001
100
AcDbLine
 10
27.10307847546459
 20
37.66987813381224
 30
0.0
 11
27.10469507406373
 21
37.67904799708801
 31
0.0
  0
LINE
  5
1405
330
A
100
AcDbEntity
  8
001
100
AcDbLine
 10
27.10307847546459
 20
37.66987813381224
 30
0.0
 11
27.10146107058187
 21
37.67904799708801
 31
0.0
  0
LINE
  5
1407
330
A
100
AcDbEntity
  8
001
100
AcDbLine
 10
26.93636094858865
 20
37.59044678868378
 30
0.0
 11
27.06636095127084
 21
37.59044678868378
 31
0.0
  0
LINE
  5
1408
330
A
100
AcDbEntity
  8
001
100
AcDbLine
 10
26.93636094858865
 20
37.65987813381224
 30
0.0
 11
26.93636094858865
 21
37.58004640778142
 31
0.0
  0
LINE
  5
1409
330
A
100
AcDbEntity
  8
001
100
AcDbLine
 10
26.93636094858865
 20
37.59044678868378
 30
0.0
 11
26.94621085881161
 21
37.59218319963881
 31
0.0
  0
LINE
  5
140A
330
A
100
AcDbEntity
  8
001
100
AcDbLine
 10
26.93636094858865
 20
37.59044678868378
 30
0.0
 11
26.94621085881161
 21
37.58871037772876
 31
0.0
  0
LINE
  5
140B
330
A
100
AcDbEntity
  8
001
100
AcDbLine
 10
27.06636095127084
 20
37.59044678868378
 30
0.0
 11
27.05651104104788
 21
37.58871037772876
 31
0.0
  0
LINE
  5
140C
330
A
100
AcDbEntity
  8
001
100
AcDbLine
 10
27.06636095127084
 20
37.59044678868378
 30
0.0
 11
27.05651104104788
 21
37.59218319963881
 31
0.0
  0
LINE
  5
140E
330
A
100
AcDbEntity
  8
001
100
AcDbLine
 10
27.06636095127084
 20
37.70737813694148
 30
0.0
 11
27.06636095127084
 21
37.58004640778142
 31
0.0
  0
TEXT
  5
1410
330
A
100
AcDbEntity
  8
001
  6
Continuous
100
AcDbText
 10
26.98753897841009
 20
37.5966978681219
 30
0.0
 40
0.0250053502430098
  1
26
 41
0.6
 72
     1
 11
27.00004165353159
 21
37.5966978681219
 31
0.0
100
AcDbText
  0
LINE
  5
1411
330
A
100
AcDbEntity
  8
001
100
AcDbLine
 10
27.14014033763037
 20
37.85302812738672
 30
0.0
 11
27.14014033763037
 21
37.54909061549933
 31
0.0
  0
TEXT
  5
1412
330
A
100
AcDbEntity
  8
001
  6
Continuous
100
AcDbText
 10
27.17842501113448
 20
37.62272248040954
 30
0.0
 40
0.0250053502430098
  1
21
 41
0.6
 72
     1
 11
27.18842715123168
 21
37.62272248040954
 31
0.0
100
AcDbText
  0
LINE
  5
1413
330
A
100
AcDbEntity
  8
001
100
AcDbLine
 10
27.14014033763037
 20
37.61647140097142
 30
0.0
 11
27.14999024785333
 21
37.6147349900164
 31
0.0
  0
LINE
  5
1414
330
A
100
AcDbEntity
  8
001
100
AcDbLine
 10
27.14014033763037
 20
37.61647140097142
 30
0.0
 11
27.14999024785333
 21
37.61820781192646
 31
0.0
  0
LINE
  5
1415
330
A
100
AcDbEntity
  8
001
100
AcDbLine
 10
27.14014033763037
 20
37.61647140097142
 30
0.0
 11
27.24514032690153
 21
37.61647140097142
 31
0.0
  0
LINE
  5
1416
330
A
100
AcDbEntity
  8
001
100
AcDbLine
 10
27.24514032690153
 20
37.66487812662825
 30
0.0
 11
27.24514032690153
 21
37.60178712815145
 31
0.0
  0
LINE
  5
1417
330
A
100
AcDbEntity
  8
001
100
AcDbLine
 10
27.70239033554421
 20
37.66487812662825
 30
0.0
 11
27.70239033554421
 21
37.60178712815145
 31
0.0
  0
LINE
  5
1418
330
A
100
AcDbEntity
  8
001
100
AcDbLine
 10
27.71239033718334
 20
37.69287812562987
 30
0.0
 11
27.71239033718334
 21
37.54909061549933
 31
0.0
  0
LINE
  5
141A
330
A
100
AcDbEntity
  8
001
100
AcDbLine
 10
27.24514032690153
 20
37.61647140097142
 30
0.0
 11
27.23529041667856
 21
37.61820781192646
 31
0.0
  0
LINE
  5
141B
330
A
100
AcDbEntity
  8
001
100
AcDbLine
 10
27.24514032690153
 20
37.61647140097142
 30
0.0
 11
27.23529041667856
 21
37.6147349900164
 31
0.0
  0
LINE
  5
141C
330
A
100
AcDbEntity
  8
001
100
AcDbLine
 10
27.24514032690153
 20
37.61647140097142
 30
0.0
 11
27.70239033554421
 21
37.61647140097142
 31
0.0
  0
LINE
  5
141D
330
A
100
AcDbEntity
  8
001
100
AcDbLine
 10
27.24514032690153
 20
37.61647140097142
 30
0.0
 11
27.2549902371245
 21
37.61820781192646
 31
0.0
  0
LINE
  5
141E
330
A
100
AcDbEntity
  8
001
100
AcDbLine
 10
27.24514032690153
 20
37.61647140097142
 30
0.0
 11
27.2549902371245
 21
37.6147349900164
 31
0.0
  0
TEXT
  5
141F
330
A
100
AcDbEntity
  8
001
  6
Continuous
100
AcDbText
 10
27.47268160137398
 20
37.62272248040954
 30
0.0
 40
0.0250053502430098
  1
92
 41
0.6
 72
     1
 11
27.48518427649548
 21
37.62272248040954
 31
0.0
100
AcDbText
  0
LINE
  5
1420
330
A
100
AcDbEntity
  8
001
100
AcDbLine
 10
27.70239033554421
 20
37.61647140097142
 30
0.0
 11
27.69254042532124
 21
37.6147349900164
 31
0.0
  0
LINE
  5
1421
330
A
100
AcDbEntity
  8
001
100
AcDbLine
 10
27.70239033554421
 20
37.61647140097142
 30
0.0
 11
27.69254042532124
 21
37.61820781192646
 31
0.0
  0
LINE
  5
1424
330
A
100
AcDbEntity
  8
001
100
AcDbLine
 10
27.14014033763037
 20
37.56507537463584
 30
0.0
 11
27.71239033718334
 21
37.56507537463584
 31
0.0
  0
LINE
  5
1425
330
A
100
AcDbEntity
  8
001
100
AcDbLine
 10
27.14014033763037
 20
37.56507537463584
 30
0.0
 11
27.14999024785333
 21
37.56681178559087
 31
0.0
  0
LINE
  5
1426
330
A
100
AcDbEntity
  8
001
100
AcDbLine
 10
27.14014033763037
 20
37.56507537463584
 30
0.0
 11
27.14999024785333
 21
37.56333896368082
 31
0.0
  0
TEXT
  5
1427
330
A
100
AcDbEntity
  8
001
  6
Continuous
100
AcDbText
 10
27.38688814129226
 20
37.57132645407395
 30
0.0
 40
0.0250053502430098
  1
115
 41
0.6
 72
     1
 11
27.40189135143806
 21
37.57132645407395
 31
0.0
100
AcDbText
  0
LINE
  5
1428
330
A
100
AcDbEntity
  8
001
100
AcDbLine
 10
27.71239033718334
 20
37.56507537463584
 30
0.0
 11
27.70254042696037
 21
37.56333896368081
 31
0.0
  0
LINE
  5
1429
330
A
100
AcDbEntity
  8
001
100
AcDbLine
 10
27.71239033718334
 20
37.56507537463584
 30
0.0
 11
27.70254042696037
 21
37.56681178559087
 31
0.0
  0
LINE
  5
142D
330
A
100
AcDbEntity
  8
001
100
AcDbLine
 10
27.71239033718334
 20
37.61647140097142
 30
0.0
 11
27.7222402474063
 21
37.6147349900164
 31
0.0
  0
LINE
  5
142E
330
A
100
AcDbEntity
  8
001
100
AcDbLine
 10
27.71239033718334
 20
37.61647140097142
 30
0.0
 11
27.7222402474063
 21
37.61820781192646
 31
0.0
  0
LINE
  5
142F
330
A
100
AcDbEntity
  8
001
100
AcDbLine
 10
27.71239033718334
 20
37.61647140097142
 30
0.0
 11
27.72782845807757
 21
37.61647140097142
 31
0.0
  0
LINE
  5
1430
330
A
100
AcDbEntity
  8
001
100
AcDbLine
 10
27.70239033554421
 20
37.61647140097142
 30
0.0
 11
27.71239033718334
 21
37.61647140097142
 31
0.0
  0
TEXT
  5
1431
330
A
100
AcDbEntity
  8
001
  6
Continuous
100
AcDbText
 10
27.73885670507938
 20
37.60314601738957
 30
0.0
 40
0.0250053502430098
  1
2
 41
0.6
 72
     1
 11
27.74385777512799
 21
37.60314601738957
 31
0.0
100
AcDbText
  0
TEXT
  5
1443
330
A
100
AcDbEntity
  8
002
  6
Continuous
100
AcDbText
 10
27.18782604020984
 20
37.31252838032792
 30
0.0
 40
0.024999993243562
  1
５０Ｈｚ：１９２０×１０８０ｐ２５、１９２０×１０８０ｉ５０、１２８０×７２０ｐ５０、１２８０×７２０ｐ２５
 41
0.35
100
AcDbText
  0
ENDSEC
  0
SECTION
  2
OBJECTS
  0
DICTIONARY
  5
19
330
0
100
AcDbDictionary
281
     1
  3
ACAD_COLOR
350
7BF
  3
ACAD_GROUP
350
1A
  3
ACAD_LAYOUT
350
105
  3
ACAD_MATERIAL
350
7AA
  3
ACAD_MLINESTYLE
350
1B
  3
ACAD_PLOTSETTINGS
350
106
  3
ACAD_PLOTSTYLENAME
350
76F
  3
ACAD_TABLESTYLE
350
7C0
  3
ACAD_VISUALSTYLE
350
7AE
  3
AcDbVariableDictionary
350
7A7
  3
DWGPROPS
350
83C
1001
ACAD
1000
TREAT_AS_HARD
1070
     0
  0
DICTIONARY
  5
802
330
7
100
AcDbDictionary
280
     1
281
     1
  3
ACAD_XREC_ROUNDTRIP
360
803
  0
DICTIONARY
  5
C88
330
2
100
AcDbDictionary
280
     1
281
     1
  3
ACAD_LAYERFILTERS
360
C93
  3
ACAD_LAYERSTATES
360
C89
  0
DICTIONARY
  5
806
330
14
100
AcDbDictionary
280
     1
281
     1
  3
ACAD_XREC_ROUNDTRIP
360
807
  0
DICTIONARY
  5
767
330
A
100
AcDbDictionary
280
     1
281
     1
  3
ACAD_LAYOUTSELFREF
360
804
  0
DICTIONARY
  5
769
330
B
100
AcDbDictionary
280
     1
281
     1
  3
ACAD_LAYOUTSELFREF
360
805
  0
DICTIONARY
  5
11A4
330
11A3
100
AcDbDictionary
280
     1
281
     1
  3
ACAD_MTEXT_2008_RT
360
11A5
  3
ACAD_MTEXT_RT
360
11A6
  0
DICTIONARY
  5
7BF
102
{ACAD_REACTORS
330
19
102
}
330
19
100
AcDbDictionary
281
     1
  0
DICTIONARY
  5
1A
102
{ACAD_REACTORS
330
19
102
}
330
19
100
AcDbDictionary
281
     1
1001
ACAD
1000
TREAT_AS_HARD
1070
     0
  0
DICTIONARY
  5
105
102
{ACAD_REACTORS
330
19
102
}
330
19
100
AcDbDictionary
281
     1
  3
Model
350
771
  3
ﾚｲｱｳﾄ1
350
772
1001
ACAD
1000
TREAT_AS_HARD
1070
     0
  0
DICTIONARY
  5
7AA
102
{ACAD_REACTORS
330
19
102
}
330
19
100
AcDbDictionary
281
     1
  3
ByBlock
350
7AC
  3
ByLayer
350
7AB
  3
Global
350
7AD
  0
DICTIONARY
  5
1B
102
{ACAD_REACTORS
330
19
102
}
330
19
100
AcDbDictionary
281
     1
  3
STANDARD
350
1C
1001
ACAD
1000
TREAT_AS_HARD
1070
     0
  0
DICTIONARY
  5
106
102
{ACAD_REACTORS
330
19
102
}
330
19
100
AcDbDictionary
281
     1
1001
ACAD
1000
TREAT_AS_HARD
1070
     0
  0
ACDBDICTIONARYWDFLT
  5
76F
102
{ACAD_REACTORS
330
19
102
}
330
19
100
AcDbDictionary
281
     1
  3
Normal
350
770
100
AcDbDictionaryWithDefault
340
770
1001
ACAD
1000
TREAT_AS_HARD
1070
     0
  0
DICTIONARY
  5
7C0
102
{ACAD_REACTORS
330
19
102
}
330
19
100
AcDbDictionary
281
     1
  3
Standard
350
7C1
  0
DICTIONARY
  5
7AE
102
{ACAD_REACTORS
330
19
102
}
330
19
100
AcDbDictionary
281
     1
  3
2dWireframe
350
7B4
  3
3D Hidden
350
7B6
  3
3dWireframe
350
7B5
  3
Basic
350
7B3
  3
Brighten
350
7BA
  3
ColorChange
350
7BE
  3
Conceptual
350
7B7
  3
Dim
350
7B9
  3
Facepattern
350
7BD
  3
Flat
350
7AF
  3
FlatWithEdges
350
7B0
  3
Gouraud
350
7B1
  3
GouraudWithEdges
350
7B2
  3
Linepattern
350
7BC
  3
Realistic
350
7B8
  3
Thicken
350
7BB
  0
DICTIONARY
  5
7A7
102
{ACAD_REACTORS
330
19
102
}
330
19
100
AcDbDictionary
281
     1
  3
CTABLESTYLE
350
824
  3
DIMASSOC
350
7A8
  3
INDEXCTL
350
826
  3
PROJECTNAME
350
835
  3
SORTENTS
350
825
  0
XRECORD
  5
83C
102
{ACAD_REACTORS
330
19
102
}
330
19
100
AcDbXrecord
280
     1
  1
DWGPROPS COOKIE
  2

  3

  4

  6

  7

  8
sendai
  9

300
=
301
=
302
=
303
=
304
=
305
=
306
=
307
=
308
=
309
=
 40
0.0323558217592593
 41
2444972.375
 42
2455449.586781504
  1

 90
        0
  0
XRECORD
  5
803
102
{ACAD_REACTORS
330
802
102
}
330
802
100
AcDbXrecord
280
     1
102
VTR_0.000_0.000_1.000_1.000_VISUALSTYLE
340
7B4
102
VTR_0.000_0.000_1.000_1.000_GRIDDISPLAY
 70
     3
102
VTR_0.000_0.000_1.000_1.000_GRIDMAJOR
 70
     5
102
VTR_0.000_0.000_1.000_1.000_DEFAULTLIGHTING
280
     1
102
VTR_0.000_0.000_1.000_1.000_DEFAULTLIGHTINGTYPE
 70
     1
102
VTR_0.000_0.000_1.000_1.000_BRIGHTNESS
141
0.0
102
VTR_0.000_0.000_1.000_1.000_CONTRAST
142
0.0
  0
DICTIONARY
  5
C93
102
{ACAD_REACTORS
330
C88
102
}
330
C88
100
AcDbDictionary
280
     1
281
     1
  0
DICTIONARY
  5
C89
102
{ACAD_REACTORS
330
C88
102
}
330
C88
100
AcDbDictionary
281
     1
  0
XRECORD
  5
807
102
{ACAD_REACTORS
330
806
102
}
330
806
100
AcDbXrecord
280
     1
102
MATERIAL
340
7AD
  0
XRECORD
  5
804
102
{ACAD_REACTORS
330
767
102
}
330
767
100
AcDbXrecord
280
     1
340
A
  0
XRECORD
  5
805
102
{ACAD_REACTORS
330
769
102
}
330
769
100
AcDbXrecord
280
     1
340
B
  0
XRECORD
  5
11A5
102
{ACAD_REACTORS
330
11A4
102
}
330
11A4
100
AcDbXrecord
280
     1
 40
222198.0
  1
\pxqc;{\fMonospac821 BT|b1|i0|c0|p49;\T0.95;HD-SDI to HDMI Converter}
  0
XRECORD
  5
11A6
102
{ACAD_REACTORS
330
11A4
102
}
330
11A4
100
AcDbXrecord
280
     1
 40
183590.0
  1
\pi11.625;{\fMonospac821 BT|b1|i0|c0|p49;\T0.95;HD-SDI to HDMI Converter}
  0
LAYOUT
  5
771
102
{ACAD_XDICTIONARY
360
83E
102
}
102
{ACAD_REACTORS
330
105
102
}
330
105
100
AcDbPlotSettings
  1

  2
SHARP MX-2311FN SPDL2-c
  4
B5 (JIS)
  6
ALL
 40
5.027083
 41
5.02707
 42
5.027084
 43
5.027084
 44
181.9486689999999
 45
256.963318
 46
23.96
 47
60.51
 48
767191.584543
 49
332897.810682
140
824371.5818750001
141
371375.331091
142
1.0
143
0.008
 70
 11940
 72
     1
 73
     1
 74
     1
  7
プリンタ.ctb
 75
     0
147
125.0
148
-26.90582301805938
149
-37.22076443631755
100
AcDbLayout
  1
Model
 70
     1
 71
     0
 10
0.0
 20
0.0
 11
12.0
 21
9.0
 12
0.0
 22
0.0
 32
0.0
 14
0.0
 24
0.0
 34
0.0
 15
0.0
 25
0.0
 35
0.0
146
0.0
 13
0.0
 23
0.0
 33
0.0
 16
1.0
 26
0.0
 36
0.0
 17
0.0
 27
1.0
 37
0.0
 76
     0
330
A
  0
LAYOUT
  5
772
102
{ACAD_XDICTIONARY
360
840
102
}
102
{ACAD_REACTORS
330
105
102
}
330
105
100
AcDbPlotSettings
  1

  2
なし
  4

  6

 40
0.0
 41
0.0
 42
0.0
 43
0.0
 44
0.0
 45
0.0
 46
0.0
 47
0.0
 48
0.0
 49
0.0
140
0.0
141
0.0
142
1.0
143
1.0
 70
   688
 72
     0
 73
     0
 74
     5
  7
京セラレーザー.ctb
 75
    16
147
1.0
148
0.0
149
0.0
100
AcDbLayout
  1
ﾚｲｱｳﾄ1
 70
     0
 71
     1
 10
0.0
 20
0.0
 11
12.0
 21
9.0
 12
0.0
 22
0.0
 32
0.0
 14
1.000000000000000E+20
 24
1.000000000000000E+20
 34
1.000000000000000E+20
 15
-1.000000000000000E+20
 25
-1.000000000000000E+20
 35
-1.000000000000000E+20
146
0.0
 13
0.0
 23
0.0
 33
0.0
 16
1.0
 26
0.0
 36
0.0
 17
0.0
 27
1.0
 37
0.0
 76
     0
330
B
  0
ACAD_PROXY_OBJECT
  5
7AC
102
{ACAD_XDICTIONARY
360
81A
102
}
102
{ACAD_REACTORS
330
7AA
102
}
330
7AA
100
AcDbProxyObject
 90
      499
 91
      532
 95
   655383
 70
     0
 93
      574
310
41D096509313D0D2E004014040405AA6A9AA4060050101016A9AA6A9018000000000000E03F4040405AA6A9AA40650101016A9AA6A90190101016A9AA6A90194040405AA6A9AA400
 94
        0
  0
ACAD_PROXY_OBJECT
  5
7AB
102
{ACAD_XDICTIONARY
360
818
102
}
102
{ACAD_REACTORS
330
7AA
102
}
330
7AA
100
AcDbProxyObject
 90
      499
 91
      532
 95
   655383
 70
     0
 93
      574
310
41D0965310565154A004014040405AA6A9AA4060050101016A9AA6A9018000000000000E03F4040405AA6A9AA40650101016A9AA6A90190101016A9AA6A90194040405AA6A9AA400
 94
        0
  0
ACAD_PROXY_OBJECT
  5
7AD
102
{ACAD_XDICTIONARY
360
81C
102
}
102
{ACAD_REACTORS
330
7AA
102
}
330
7AA
100
AcDbProxyObject
 90
      499
 91
      532
 95
   655383
 70
     0
 93
      566
310
4191D313D090532004014040405AA6A9AA4060050101016A9AA6A9018000000000000E03F4040405AA6A9AA40650101016A9AA6A90190101016A9AA6A90194040405AA6A9AA400
 94
        0
  0
MLINESTYLE
  5
1C
102
{ACAD_REACTORS
330
1B
102
}
330
1B
100
AcDbMlineStyle
  2
STANDARD
 70
     0
  3

 62
     0
 51
90.00000000000019
 52
90.00000000000019
 71
     2
 49
0.5
 62
   256
  6
BYLAYER
 49
-0.5
 62
   256
  6
BYLAYER
  0
ACDBPLACEHOLDER
  5
770
102
{ACAD_REACTORS
330
76F
102
}
330
76F
  0
ACAD_PROXY_OBJECT
  5
7C1
102
{ACAD_XDICTIONARY
360
822
102
}
102
{ACAD_REACTORS
330
7C0
102
}
330
7C0
100
AcDbProxyObject
 90
      499
 91
      534
 95
   655383
 70
     0
 93
     1841
310
4214DD185B99185C9928B81E85EB51B8AE3F2E07A17AD46E2B8FC02B5E8DC0F42B1CFD028000000C1008070000C3001FDFF8000000C1003FBFF000000182007F7FE00000030400FEFFC00000060801FDFF8000000C1003FBFF00000018200000000000000681FA0B0000001820100E000186003FBFF000000182007F7FE000
310
00030400FEFFC00000060801FDFF8000000C1003FBFF000000182007F7FE000000304000AD7A3703D0AC73F4160000003040201C00030C007F7FE00000030400FEFFC00000060801FDFF8000000C1003FBFF000000182007F7FE00000030400FEFFC000000608000
340
17
340
17
340
17
 94
        0
  0
ACAD_PROXY_OBJECT
  5
7B4
102
{ACAD_REACTORS
330
7AE
102
}
330
7AE
100
AcDbProxyObject
 90
      499
 91
      533
 95
   655381
 70
     0
 93
      444
310
430C9915DA5C99599C985B59401049028333333333333E3BF0000000000000FB0107901411070040501600405405064090741402480A0340
 94
        0
1001
ACAD
1000
AcDbSavedByObjectVersion
1070
     0
1000
AcRTDxfName
1000
VISUALSTYLE
1000
AcRTDxfName
1000
VISUALSTYLE
  0
ACAD_PROXY_OBJECT
  5
7B6
102
{ACAD_REACTORS
330
7AE
102
}
330
7AE
100
AcDbProxyObject
 90
      499
 91
      533
 95
   655381
 70
     0
 93
      508
310
428CD108121A5919195B8010640502408333333333333E3BF0000000000000FB01079024090700405020000000000001110200405405064090740C02480A034B
 94
        0
1001
ACAD
1000
AcDbSavedByObjectVersion
1070
     0
1000
AcRTDxfName
1000
VISUALSTYLE
1000
AcRTDxfName
1000
VISUALSTYLE
  0
ACAD_PROXY_OBJECT
  5
7B5
102
{ACAD_REACTORS
330
7AE
102
}
330
7AE
100
AcDbProxyObject
 90
      499
 91
      533
 95
   655381
 70
     0
 93
      444
310
430CD915DA5C99599C985B59401059028333333333333E3BF0000000000000FB0107901411070040501600405405064090741402480A0340
 94
        0
1001
ACAD
1000
AcDbSavedByObjectVersion
1070
     0
1000
AcRTDxfName
1000
VISUALSTYLE
1000
AcRTDxfName
1000
VISUALSTYLE
  0
ACAD_PROXY_OBJECT
  5
7B3
102
{ACAD_REACTORS
330
7AE
102
}
330
7AE
100
AcDbProxyObject
 90
      499
 91
      533
 95
   655381
 70
     0
 93
      396
310
4190985CDA58C0107406404333333333333E3BF0000000000000FB0107A41107004050150841D405064090741402480A0356
 94
        0
1001
ACAD
1000
AcDbSavedByObjectVersion
1070
     0
1000
AcRTDxfName
1000
VISUALSTYLE
1000
AcRTDxfName
1000
VISUALSTYLE
  0
ACAD_PROXY_OBJECT
  5
7BA
102
{ACAD_REACTORS
330
7AE
102
}
330
7AE
100
AcDbProxyObject
 90
      499
 91
      533
 95
   655381
 70
     0
 93
      436
310
42509C9A59DA1D195B8010C409028333333333333E3BF0000000000000FB010790141107004050150841D405064090741402480A029956
 94
        0
1001
ACAD
1000
AcDbSavedByObjectVersion
1070
     0
1000
AcRTDxfName
1000
VISUALSTYLE
1000
AcRTDxfName
1000
VISUALSTYLE
  0
ACAD_PROXY_OBJECT
  5
7BE
102
{ACAD_REACTORS
330
7AE
102
}
330
7AE
100
AcDbProxyObject
 90
      499
 91
      533
 95
   655381
 70
     0
 93
      460
310
4310DBDB1BDC90DA185B99D9401104090240C333333333333E3BF0000000000000FB0108901411070040501508421405064090741402480A0354
 94
        0
1001
ACAD
1000
AcDbSavedByObjectVersion
1070
     0
1000
AcRTDxfName
1000
VISUALSTYLE
1000
AcRTDxfName
1000
VISUALSTYLE
  0
ACAD_PROXY_OBJECT
  5
7B7
102
{ACAD_REACTORS
330
7AE
102
}
330
7AE
100
AcDbProxyObject
 90
      499
 91
      533
 95
   655381
 70
     0
 93
      508
310
42D0DBDB98D95C1D1D585B0010940D028333333333333E3BF0000000000000FB0107902409070040501000000000000111010841D405064090740C02480A034B
 94
        0
1001
ACAD
1000
AcDbSavedByObjectVersion
1070
     0
1000
AcRTDxfName
1000
VISUALSTYLE
1000
AcRTDxfName
1000
VISUALSTYLE
  0
ACAD_PROXY_OBJECT
  5
7B9
102
{ACAD_REACTORS
330
7AE
102
}
330
7AE
100
AcDbProxyObject
 90
      499
 91
      533
 95
   655381
 70
     0
 93
      420
310
41111A5B4010B409028333333333333E3BF0000000000000FB010790141107004050150841D405064090741402480A02677FFFFFDB
 94
        0
1001
ACAD
1000
AcDbSavedByObjectVersion
1070
     0
1000
AcRTDxfName
1000
VISUALSTYLE
1000
AcRTDxfName
1000
VISUALSTYLE
  0
ACAD_PROXY_OBJECT
  5
7BD
102
{ACAD_REACTORS
330
7AE
102
}
330
7AE
100
AcDbProxyObject
 90
      499
 91
      533
 95
   655381
 70
     0
 93
      452
310
43119858D95C185D1D195C9B8010F409028333333333333E3BF0000000000000FB010790141107004050150841D405064090741402480A0350
 94
        0
1001
ACAD
1000
AcDbSavedByObjectVersion
1070
     0
1000
AcRTDxfName
1000
VISUALSTYLE
1000
AcRTDxfName
1000
VISUALSTYLE
  0
ACAD_PROXY_OBJECT
  5
7AF
102
{ACAD_REACTORS
330
7AE
102
}
330
7AE
100
AcDbProxyObject
 90
      499
 91
      533
 95
   655381
 70
     0
 93
      396
310
41519B185D00240901404333333333333E3BF0000000000000F9010740A41107004050150841D405064090741402480A1B56
 94
        0
1001
ACAD
1000
AcDbSavedByObjectVersion
1070
     0
1000
AcRTDxfName
1000
VISUALSTYLE
1000
AcRTDxfName
1000
VISUALSTYLE
  0
ACAD_PROXY_OBJECT
  5
7B0
102
{ACAD_REACTORS
330
7AE
102
}
330
7AE
100
AcDbProxyObject
 90
      499
 91
      533
 95
   655381
 70
     0
 93
      484
310
43919B185D15DA5D1A115919D95CC010140901404333333333333E3BF0000000000000F9010740901411070040501600405405064090741402480A1B58
 94
        0
1001
ACAD
1000
AcDbSavedByObjectVersion
1070
     0
1000
AcRTDxfName
1000
VISUALSTYLE
1000
AcRTDxfName
1000
VISUALSTYLE
  0
ACAD_PROXY_OBJECT
  5
7B1
102
{ACAD_REACTORS
330
7AE
102
}
330
7AE
100
AcDbProxyObject
 90
      499
 91
      533
 95
   655381
 70
     0
 93
      420
310
4211DBDD5C985D590010240902404333333333333E3BF0000000000000F9010740A411070040501641D405064090741402480A1B50
 94
        0
1001
ACAD
1000
AcDbSavedByObjectVersion
1070
     0
1000
AcRTDxfName
1000
VISUALSTYLE
1000
AcRTDxfName
1000
VISUALSTYLE
  0
ACAD_PROXY_OBJECT
  5
7B2
102
{ACAD_REACTORS
330
7AE
102
}
330
7AE
100
AcDbProxyObject
 90
      499
 91
      533
 95
   655381
 70
     0
 93
      508
310
4451DBDD5C985D5915DA5D1A115919D95CC010340902404333333333333E3BF0000000000000F9010740901411070040501600405405064090741402480A1B5B
 94
        0
1001
ACAD
1000
AcDbSavedByObjectVersion
1070
     0
1000
AcRTDxfName
1000
VISUALSTYLE
1000
AcRTDxfName
1000
VISUALSTYLE
  0
ACAD_PROXY_OBJECT
  5
7BC
102
{ACAD_REACTORS
330
7AE
102
}
330
7AE
100
AcDbProxyObject
 90
      499
 91
      533
 95
   655381
 70
     0
 93
      452
310
43131A5B995C185D1D195C9B8010E409028333333333333E3BF0000000000000FB010790141107004050750841D405064090741402483A0350
 94
        0
1001
ACAD
1000
AcDbSavedByObjectVersion
1070
     0
1000
AcRTDxfName
1000
VISUALSTYLE
1000
AcRTDxfName
1000
VISUALSTYLE
  0
ACAD_PROXY_OBJECT
  5
7B8
102
{ACAD_REACTORS
330
7AE
102
}
330
7AE
100
AcDbProxyObject
 90
      499
 91
      533
 95
   655381
 70
     0
 93
      428
310
429499585B1A5CDD1A58C0108409028333333333333E3BF0000000000000FB01079019070040501508421405064090741402480A1B45
 94
        0
1001
ACAD
1000
AcDbSavedByObjectVersion
1070
     0
1000
AcRTDxfName
1000
VISUALSTYLE
1000
AcRTDxfName
1000
VISUALSTYLE
  0
ACAD_PROXY_OBJECT
  5
7BB
102
{ACAD_REACTORS
330
7AE
102
}
330
7AE
100
AcDbProxyObject
 90
      499
 91
      533
 95
   655381
 70
     0
 93
      420
310
42151A1A58DAD95B8010D409028333333333333E3BF0000000000000FB010790141107004050150C41D405064090741402480A0352
 94
        0
1001
ACAD
1000
AcDbSavedByObjectVersion
1070
     0
1000
AcRTDxfName
1000
VISUALSTYLE
1000
AcRTDxfName
1000
VISUALSTYLE
  0
DICTIONARYVAR
  5
824
102
{ACAD_REACTORS
330
7A7
102
}
330
7A7
100
DictionaryVariables
280
     0
  1
STANDARD
  0
DICTIONARYVAR
  5
7A8
102
{ACAD_REACTORS
330
7A7
102
}
330
7A7
100
DictionaryVariables
280
     0
  1
1
  0
DICTIONARYVAR
  5
826
102
{ACAD_REACTORS
330
7A7
102
}
330
7A7
100
DictionaryVariables
280
     0
  1
0
  0
DICTIONARYVAR
  5
835
102
{ACAD_REACTORS
330
7A7
102
}
330
7A7
100
DictionaryVariables
280
     0
  1

  0
DICTIONARYVAR
  5
825
102
{ACAD_REACTORS
330
7A7
102
}
330
7A7
100
DictionaryVariables
280
     0
  1
127
  0
DICTIONARY
  5
83E
330
771
100
AcDbDictionary
280
     1
281
     1
  3
ACAD_XREC_ROUNDTRIP
360
83F
  0
DICTIONARY
  5
840
330
772
100
AcDbDictionary
280
     1
281
     1
  3
ACAD_XREC_ROUNDTRIP
360
841
  0
DICTIONARY
  5
81A
330
7AC
100
AcDbDictionary
280
     1
281
     1
  3
ACAD_XREC_ROUNDTRIP
360
81B
  0
DICTIONARY
  5
818
330
7AB
100
AcDbDictionary
280
     1
281
     1
  3
ACAD_XREC_ROUNDTRIP
360
819
  0
DICTIONARY
  5
81C
330
7AD
100
AcDbDictionary
280
     1
281
     1
  3
ACAD_XREC_ROUNDTRIP
360
81D
  0
DICTIONARY
  5
822
330
7C1
100
AcDbDictionary
280
     1
281
     1
  3
ACAD_XREC_ROUNDTRIP
360
823
  0
XRECORD
  5
83F
102
{ACAD_REACTORS
330
83E
102
}
330
83E
100
AcDbXrecord
280
     1
102
SHADEPLOT
 70
     0
102
SHADEPLOTRESLEVEL
 70
     2
102
SHADEPLOTCUSTOMDPI
 70
   300
  0
XRECORD
  5
841
102
{ACAD_REACTORS
330
840
102
}
330
840
100
AcDbXrecord
280
     1
102
SHADEPLOT
 70
     0
102
SHADEPLOTRESLEVEL
 70
     2
102
SHADEPLOTCUSTOMDPI
 70
   300
  0
XRECORD
  5
81B
102
{ACAD_REACTORS
330
81A
102
}
330
81A
100
AcDbXrecord
280
     1
102
MATERIAL
148
0.0
149
0.0
149
0.0
 93
        0
 94
       63
282
     0
 72
     1
 77
     1
171
     1
175
     1
179
     1
273
     0
  0
XRECORD
  5
819
102
{ACAD_REACTORS
330
818
102
}
330
818
100
AcDbXrecord
280
     1
102
MATERIAL
148
0.0
149
0.0
149
0.0
 93
        0
 94
       63
282
     0
 72
     1
 77
     1
171
     1
175
     1
179
     1
273
     0
  0
XRECORD
  5
81D
102
{ACAD_REACTORS
330
81C
102
}
330
81C
100
AcDbXrecord
280
     1
102
MATERIAL
148
0.0
149
0.0
149
0.0
 93
        0
 94
       63
282
     0
 72
     1
 77
     1
171
     1
175
     1
179
     1
273
     0
  0
XRECORD
  5
823
102
{ACAD_REACTORS
330
822
102
}
330
822
100
AcDbXrecord
280
     1
102
ACAD_ROUNDTRIP_PRE2007_TABLESTYLE
 90
      512
 91
        0
  1

 92
      512
 93
        0
  2

 94
      512
 95
        0
  3

  0
ENDSEC
  0
EOF
