  0
SECTION
  2
HEADER
  9
$ACADVER
  1
AC1015
  9
$ACADMAINTVER
 70
    10
  9
$DWGCODEPAGE
  3
ANSI_932
  9
$INSBASE
 10
0.0
 20
0.0
 30
0.0
  9
$EXTMIN
 10
-122.8646505318219
 20
37.51068142884256
 30
-0.0000000000000183
  9
$EXTMAX
 10
-121.8444885129959
 20
38.49487320810425
 30
0.0000000000000007
  9
$LIMMIN
 10
0.0
 20
0.0
  9
$LIMMAX
 10
100.0
 20
100.0
  9
$ORTHOMODE
 70
     0
  9
$REGENMODE
 70
     1
  9
$FILLMODE
 70
     1
  9
$QTEXTMODE
 70
     0
  9
$MIRRTEXT
 70
     0
  9
$LTSCALE
 40
1.0
  9
$ATTMODE
 70
     1
  9
$TEXTSIZE
 40
0.0
  9
$TRACEWID
 40
0.05
  9
$TEXTSTYLE
  7
STANDARD
  9
$CLAYER
  8
DIM
  9
$CELTYPE
  6
CONTINUOUS
  9
$CECOLOR
 62
   256
  9
$CELTSCALE
 40
1.0
  9
$DISPSILH
 70
     0
  9
$DIMSCALE
 40
1.0
  9
$DIMASZ
 40
0.18
  9
$DIMEXO
 40
0.0625
  9
$DIMDLI
 40
0.38
  9
$DIMRND
 40
0.0
  9
$DIMDLE
 40
0.0
  9
$DIMEXE
 40
0.18
  9
$DIMTP
 40
0.0
  9
$DIMTM
 40
0.0
  9
$DIMTXT
 40
0.18
  9
$DIMCEN
 40
0.09
  9
$DIMTSZ
 40
0.0
  9
$DIMTOL
 70
     0
  9
$DIMLIM
 70
     0
  9
$DIMTIH
 70
     1
  9
$DIMTOH
 70
     1
  9
$DIMSE1
 70
     0
  9
$DIMSE2
 70
     0
  9
$DIMTAD
 70
     0
  9
$DIMZIN
 70
     0
  9
$DIMBLK
  1

  9
$DIMASO
 70
     1
  9
$DIMSHO
 70
     1
  9
$DIMPOST
  1

  9
$DIMAPOST
  1

  9
$DIMALT
 70
     0
  9
$DIMALTD
 70
     2
  9
$DIMALTF
 40
25.4
  9
$DIMLFAC
 40
1.0
  9
$DIMTOFL
 70
     0
  9
$DIMTVP
 40
0.0
  9
$DIMTIX
 70
     0
  9
$DIMSOXD
 70
     0
  9
$DIMSAH
 70
     0
  9
$DIMBLK1
  1

  9
$DIMBLK2
  1

  9
$DIMSTYLE
  2
STANDARD
  9
$DIMCLRD
 70
     0
  9
$DIMCLRE
 70
     0
  9
$DIMCLRT
 70
     0
  9
$DIMTFAC
 40
1.0
  9
$DIMGAP
 40
0.09
  9
$DIMJUST
 70
     0
  9
$DIMSD1
 70
     0
  9
$DIMSD2
 70
     0
  9
$DIMTOLJ
 70
     1
  9
$DIMTZIN
 70
     0
  9
$DIMALTZ
 70
     0
  9
$DIMALTTZ
 70
     0
  9
$DIMUPT
 70
     0
  9
$DIMDEC
 70
     4
  9
$DIMTDEC
 70
     4
  9
$DIMALTU
 70
     2
  9
$DIMALTTD
 70
     2
  9
$DIMTXSTY
  7
STANDARD
  9
$DIMAUNIT
 70
     0
  9
$DIMADEC
 70
     0
  9
$DIMALTRND
 40
0.0
  9
$DIMAZIN
 70
     0
  9
$DIMDSEP
 70
    46
  9
$DIMATFIT
 70
     3
  9
$DIMFRAC
 70
     0
  9
$DIMLDRBLK
  1

  9
$DIMLUNIT
 70
     2
  9
$DIMLWD
 70
    -2
  9
$DIMLWE
 70
    -2
  9
$DIMTMOVE
 70
     0
  9
$LUNITS
 70
     2
  9
$LUPREC
 70
     4
  9
$SKETCHINC
 40
0.1
  9
$FILLETRAD
 40
0.0
  9
$AUNITS
 70
     0
  9
$AUPREC
 70
     0
  9
$MENU
  1
acad
  9
$ELEVATION
 40
0.0
  9
$PELEVATION
 40
0.0
  9
$THICKNESS
 40
0.0
  9
$LIMCHECK
 70
     0
  9
$CHAMFERA
 40
0.0
  9
$CHAMFERB
 40
0.0
  9
$CHAMFERC
 40
0.0
  9
$CHAMFERD
 40
0.0
  9
$SKPOLY
 70
     0
  9
$TDCREATE
 40
2444972.375000000
  9
$TDUCREATE
 40
2444972.000000000
  9
$TDUPDATE
 40
2456381.497923171
  9
$TDUUPDATE
 40
2456381.122923171
  9
$TDINDWG
 40
0.1464382176
  9
$TDUSRTIMER
 40
0.1464382176
  9
$USRTIMER
 70
     1
  9
$ANGBASE
 50
0.0
  9
$ANGDIR
 70
     0
  9
$PDMODE
 70
     0
  9
$PDSIZE
 40
0.0
  9
$PLINEWID
 40
0.0
  9
$SPLFRAME
 70
     0
  9
$SPLINETYPE
 70
     6
  9
$SPLINESEGS
 70
     8
  9
$HANDSEED
  5
3D2C
  9
$SURFTAB1
 70
     6
  9
$SURFTAB2
 70
     6
  9
$SURFTYPE
 70
     6
  9
$SURFU
 70
     6
  9
$SURFV
 70
     6
  9
$UCSBASE
  2

  9
$UCSNAME
  2

  9
$UCSORG
 10
0.0
 20
0.0
 30
0.0
  9
$UCSXDIR
 10
1.0
 20
0.0
 30
0.0
  9
$UCSYDIR
 10
0.0
 20
1.0
 30
0.0
  9
$UCSORTHOREF
  2

  9
$UCSORTHOVIEW
 70
     0
  9
$UCSORGTOP
 10
0.0
 20
0.0
 30
0.0
  9
$UCSORGBOTTOM
 10
0.0
 20
0.0
 30
0.0
  9
$UCSORGLEFT
 10
0.0
 20
0.0
 30
0.0
  9
$UCSORGRIGHT
 10
0.0
 20
0.0
 30
0.0
  9
$UCSORGFRONT
 10
0.0
 20
0.0
 30
0.0
  9
$UCSORGBACK
 10
0.0
 20
0.0
 30
0.0
  9
$PUCSBASE
  2

  9
$PUCSNAME
  2

  9
$PUCSORG
 10
0.0
 20
0.0
 30
0.0
  9
$PUCSXDIR
 10
1.0
 20
0.0
 30
0.0
  9
$PUCSYDIR
 10
0.0
 20
1.0
 30
0.0
  9
$PUCSORTHOREF
  2

  9
$PUCSORTHOVIEW
 70
     0
  9
$PUCSORGTOP
 10
0.0
 20
0.0
 30
0.0
  9
$PUCSORGBOTTOM
 10
0.0
 20
0.0
 30
0.0
  9
$PUCSORGLEFT
 10
0.0
 20
0.0
 30
0.0
  9
$PUCSORGRIGHT
 10
0.0
 20
0.0
 30
0.0
  9
$PUCSORGFRONT
 10
0.0
 20
0.0
 30
0.0
  9
$PUCSORGBACK
 10
0.0
 20
0.0
 30
0.0
  9
$USERI1
 70
     0
  9
$USERI2
 70
     0
  9
$USERI3
 70
     0
  9
$USERI4
 70
     0
  9
$USERI5
 70
     0
  9
$USERR1
 40
0.0
  9
$USERR2
 40
0.0
  9
$USERR3
 40
0.0
  9
$USERR4
 40
0.0
  9
$USERR5
 40
0.0
  9
$WORLDVIEW
 70
     1
  9
$SHADEDGE
 70
     3
  9
$SHADEDIF
 70
    70
  9
$TILEMODE
 70
     1
  9
$MAXACTVP
 70
    16
  9
$PINSBASE
 10
0.0
 20
0.0
 30
0.0
  9
$PLIMCHECK
 70
     0
  9
$PEXTMIN
 10
1.000000000000000E+20
 20
1.000000000000000E+20
 30
1.000000000000000E+20
  9
$PEXTMAX
 10
-1.000000000000000E+20
 20
-1.000000000000000E+20
 30
-1.000000000000000E+20
  9
$PLIMMIN
 10
0.0
 20
0.0
  9
$PLIMMAX
 10
12.0
 20
9.0
  9
$UNITMODE
 70
     0
  9
$VISRETAIN
 70
     0
  9
$PLINEGEN
 70
     1
  9
$PSLTSCALE
 70
     0
  9
$TREEDEPTH
 70
  3020
  9
$CMLSTYLE
  2
STANDARD
  9
$CMLJUST
 70
     0
  9
$CMLSCALE
 40
1.0
  9
$PROXYGRAPHICS
 70
     1
  9
$MEASUREMENT
 70
     0
  9
$CELWEIGHT
370
    -1
  9
$ENDCAPS
280
     0
  9
$JOINSTYLE
280
     0
  9
$LWDISPLAY
290
     0
  9
$INSUNITS
 70
     0
  9
$HYPERLINKBASE
  1

  9
$STYLESHEET
  1
プリンタ.ctb
  9
$XEDIT
290
     1
  9
$CEPSNTYPE
380
     0
  9
$PSTYLEMODE
290
     1
  9
$FINGERPRINTGUID
  2
{7E5E7D33-40A8-4612-AA41-990508750287}
  9
$VERSIONGUID
  2
{AE8ED5FA-74CE-49E0-8158-7CAAE5C441A7}
  9
$EXTNAMES
290
     1
  9
$PSVPSCALE
 40
0.0
  9
$OLESTARTUP
290
     0
  0
ENDSEC
  0
SECTION
  2
CLASSES
  0
CLASS
  1
LWPOLYLINE
  2
AcDbPolyline
  3
AutoCAD 2000
 90
    32768
280
     0
281
     1
  0
CLASS
  1
IMAGE
  2
AcDbRasterImage
  3
ISM
 90
    32895
280
     0
281
     1
  0
CLASS
  1
OLE2FRAME
  2
AcDbOle2Frame
  3
AutoCAD 2000
 90
    32768
280
     0
281
     1
  0
CLASS
  1
HATCH
  2
AcDbHatch
  3
AutoCAD 2000
 90
    32768
280
     0
281
     1
  0
CLASS
  1
DICTIONARYVAR
  2
AcDbDictionaryVar
  3
AutoCAD 2000
 90
        0
280
     0
281
     0
  0
CLASS
  1
RASTERVARIABLES
  2
AcDbRasterVariables
  3
ISM
 90
    32768
280
     0
281
     0
  0
CLASS
  1
IMAGEDEF
  2
AcDbRasterImageDef
  3
ISM
 90
    32768
280
     0
281
     0
  0
CLASS
  1
IMAGEDEF_REACTOR
  2
AcDbRasterImageDefReactor
  3
ISM
 90
    32769
280
     0
281
     0
  0
CLASS
  1
IDBUFFER
  2
AcDbIdBuffer
  3
AutoCAD 2000
 90
    32768
280
     0
281
     0
  0
CLASS
  1
SPATIAL_FILTER
  2
AcDbSpatialFilter
  3
AutoCAD 2000
 90
    32768
280
     0
281
     0
  0
CLASS
  1
XRECORD
  2
AcDbXrecord
  3
AutoCAD 2000
 90
    32768
280
     0
281
     0
  0
CLASS
  1
SORTENTSTABLE
  2
AcDbSortentsTable
  3
AutoCAD 2000
 90
    32768
280
     0
281
     0
  0
CLASS
  1
LAYER_INDEX
  2
AcDbLayerIndex
  3
AutoCAD 2000
 90
    32768
280
     0
281
     0
  0
CLASS
  1
SPATIAL_INDEX
  2
AcDbSpatialIndex
  3
AutoCAD 2000
 90
    32768
280
     0
281
     0
  0
CLASS
  1
OBJECT_PTR
  2
CAseDLPNTableRecord
  3
"ASE-LPNTableRecord"
 90
    32768
280
     0
281
     0
  0
CLASS
  1
LAYOUT
  2
AcDbLayout
  3
AutoCAD 2000
 90
        0
280
     0
281
     0
  0
CLASS
  1
PLOTSETTINGS
  2
AcDbPlotSettings
  3
AutoCAD 2000
 90
    32768
280
     0
281
     0
  0
CLASS
  1
ACDBDICTIONARYWDFLT
  2
AcDbDictionaryWithDefault
  3
AutoCAD 2000
 90
        0
280
     0
281
     0
  0
CLASS
  1
ACDBPLACEHOLDER
  2
AcDbPlaceHolder
  3
AutoCAD 2000
 90
        0
280
     0
281
     0
  0
CLASS
  1
VBA_PROJECT
  2
AcDbVbaProject
  3
acad
 90
    32768
280
     0
281
     0
  0
CLASS
  1
WIPEOUT
  2
AcDbWipeout
  3
"WipeOut|Product Desc: Object Enabler for WipeOut entity^I^I^I^I^I^I|Company: Autodesk, Inc.^I^I^I^I^I^I|WEB Address: www.autodesk.com"
 90
    32895
280
     0
281
     1
  0
CLASS
  1
WIPEOUTVARIABLES
  2
AcDbWipeoutVariables
  3
"WipeOut|Product Desc:     WipeOut Dbx Application|Company:          Autodesk, Inc.|WEB Address:      www.autodesk.com"
 90
    32768
280
     0
281
     0
  0
CLASS
  1
RTEXT
  2
RText
  3
RText|AutoCAD Express Tool|expresstools@autodesk.com
 90
    32768
280
     0
281
     1
  0
CLASS
  1
ARCALIGNEDTEXT
  2
AcDbArcAlignedText
  3
ATEXT|AutoCAD Express Tool|expresstools@autodesk.com
 90
    32768
280
     0
281
     1
  0
CLASS
  1
LONG_TRANSACTION
  2
AcDbLongTransaction
  3
AutoCAD 2000
 90
    32768
280
     0
281
     0
  0
CLASS
  1
LWPOLYLINE
  2
AcDbPolyline
  3
AutoCAD 2000
 90
    32768
280
     0
281
     1
  0
CLASS
  1
HATCH
  2
AcDbHatch
  3
AutoCAD 2000
 90
    32768
280
     0
281
     1
  0
CLASS
  1
XRECORD
  2
AcDbXrecord
  3
AutoCAD 2000
 90
    32768
280
     0
281
     0
  0
CLASS
  1
LONG_TRANSACTION
  2
AcDbLongTransaction
  3
AutoCAD 2000
 90
    32768
280
     0
281
     0
  0
CLASS
  1
LWPOLYLINE
  2
AcDbPolyline
  3
AutoCAD 2000
 90
    32768
280
     0
281
     1
  0
CLASS
  1
HATCH
  2
AcDbHatch
  3
AutoCAD 2000
 90
    32768
280
     0
281
     1
  0
CLASS
  1
XRECORD
  2
AcDbXrecord
  3
AutoCAD 2000
 90
    32768
280
     0
281
     0
  0
CLASS
  1
MATERIAL
  2
AcDbMaterial
  3
ObjectDBX Classes
 90
        0
280
     0
281
     0
  0
CLASS
  1
VISUALSTYLE
  2
AcDbVisualStyle
  3
ObjectDBX Classes
 90
     4095
280
     0
281
     0
  0
CLASS
  1
TABLESTYLE
  2
AcDbTableStyle
  3
ObjectDBX Classes
 90
     2047
280
     0
281
     0
  0
ENDSEC
  0
SECTION
  2
TABLES
  0
TABLE
  2
VPORT
  5
7
102
{ACAD_XDICTIONARY
360
802
102
}
330
0
100
AcDbSymbolTable
 70
     2
  0
VPORT
  5
3D2B
330
7
100
AcDbSymbolTableRecord
100
AcDbViewportTableRecord
  2
*Active
 70
     0
 10
0.0
 20
0.0
 11
1.0
 21
1.0
 12
-122.3545695224089
 22
38.0027773184734
 13
0.0
 23
0.0
 14
1.0
 24
1.0
 15
0.0
 25
0.0
 16
0.0
 26
0.0
 36
1.0
 17
0.0
 27
0.0
 37
0.0
 40
0.9923820021126914
 41
1.747222222222222
 42
50.0
 43
0.0
 44
0.0
 50
0.0
 51
0.0
 71
     0
 72
   100
 73
     1
 74
     0
 75
     0
 76
     0
 77
     0
 78
     0
281
     0
 65
     1
110
0.0
120
0.0
130
0.0
111
1.0
121
0.0
131
0.0
112
0.0
122
1.0
132
0.0
 79
     0
146
0.0
  0
ENDTAB
  0
TABLE
  2
LTYPE
  5
4
330
0
100
AcDbSymbolTable
 70
     3
  0
LTYPE
  5
11
330
4
100
AcDbSymbolTableRecord
100
AcDbLinetypeTableRecord
  2
BYBLOCK
 70
     0
  3

 72
    65
 73
     0
 40
0.0
  0
LTYPE
  5
12
330
4
100
AcDbSymbolTableRecord
100
AcDbLinetypeTableRecord
  2
BYLAYER
 70
     0
  3

 72
    65
 73
     0
 40
0.0
  0
LTYPE
  5
13
330
4
100
AcDbSymbolTableRecord
100
AcDbLinetypeTableRecord
  2
CONTINUOUS
 70
     0
  3
Solid line
 72
    65
 73
     0
 40
0.0
  0
LTYPE
  5
14E8
330
4
100
AcDbSymbolTableRecord
100
AcDbLinetypeTableRecord
  2
PHANTOM
 70
     0
  3
Phantom ______  __  __  ______  __  __  ______
 72
    65
 73
     6
 40
12.7
 49
6.349999999999999
 74
     0
 49
-1.27
 74
     0
 49
1.27
 74
     0
 49
-1.27
 74
     0
 49
1.27
 74
     0
 49
-1.27
 74
     0
  0
LTYPE
  5
14EA
330
4
100
AcDbSymbolTableRecord
100
AcDbLinetypeTableRecord
  2
CENTERX2
 70
     0
  3
Center (2x) ________  __  ________  __  _____
 72
    65
 73
     4
 40
20.32
 49
12.7
 74
     0
 49
-2.54
 74
     0
 49
2.54
 74
     0
 49
-2.54
 74
     0
  0
ENDTAB
  0
TABLE
  2
LAYER
  5
2
102
{ACAD_XDICTIONARY
360
C88
102
}
330
0
100
AcDbSymbolTable
 70
     5
  0
LAYER
  5
14
102
{ACAD_XDICTIONARY
360
806
102
}
330
2
100
AcDbSymbolTableRecord
100
AcDbLayerTableRecord
  2
0
 70
     0
 62
     7
  6
CONTINUOUS
370
    -3
390
770
  0
LAYER
  5
8A5
330
2
100
AcDbSymbolTableRecord
100
AcDbLayerTableRecord
  2
DIM
 70
     0
 62
     3
  6
CONTINUOUS
370
    -3
390
770
  0
LAYER
  5
8A6
330
2
100
AcDbSymbolTableRecord
100
AcDbLayerTableRecord
  2
DEFPOINTS
 70
     0
 62
     7
  6
CONTINUOUS
290
     0
370
    -3
390
770
  0
LAYER
  5
C94
330
2
100
AcDbSymbolTableRecord
100
AcDbLayerTableRecord
  2
001
 70
     0
 62
     7
  6
CONTINUOUS
370
    -3
390
770
  0
LAYER
  5
C95
330
2
100
AcDbSymbolTableRecord
100
AcDbLayerTableRecord
  2
002
 70
     0
 62
     7
  6
CONTINUOUS
370
    -3
390
770
  0
ENDTAB
  0
TABLE
  2
STYLE
  5
3
330
0
100
AcDbSymbolTable
 70
     1
  0
STYLE
  5
17
330
3
100
AcDbSymbolTableRecord
100
AcDbTextStyleTableRecord
  2
STANDARD
 70
     0
 40
0.0
 41
0.8
 50
0.0
 71
     0
 42
0.0
  3
txt.shx
  4
extfont.shx
  0
ENDTAB
  0
TABLE
  2
VIEW
  5
5
330
0
100
AcDbSymbolTable
 70
     0
  0
ENDTAB
  0
TABLE
  2
UCS
  5
6
330
0
100
AcDbSymbolTable
 70
     0
  0
ENDTAB
  0
TABLE
  2
APPID
  5
8
330
0
100
AcDbSymbolTable
 70
    17
  0
APPID
  5
16
330
8
100
AcDbSymbolTableRecord
100
AcDbRegAppTableRecord
  2
ACAD
 70
     0
  0
APPID
  5
8AA
330
8
100
AcDbSymbolTableRecord
100
AcDbRegAppTableRecord
  2
ACAD_DSTYLE_DIMRADIAL_EXTENSION
 70
     0
  0
APPID
  5
D4A
330
8
100
AcDbSymbolTableRecord
100
AcDbRegAppTableRecord
  2
DCO15
 70
     0
  0
APPID
  5
D4B
330
8
100
AcDbSymbolTableRecord
100
AcDbRegAppTableRecord
  2
ACAD_EXEMPT_FROM_CAD_STANDARDS
 70
     0
  0
APPID
  5
D4C
330
8
100
AcDbSymbolTableRecord
100
AcDbRegAppTableRecord
  2
ACAD_DSTYLE_DIMTEXT_FILL
 70
     0
  0
APPID
  5
D4D
330
8
100
AcDbSymbolTableRecord
100
AcDbRegAppTableRecord
  2
ACAD_DSTYLE_DIMEXT_LENGTH
 70
     0
  0
APPID
  5
D4E
330
8
100
AcDbSymbolTableRecord
100
AcDbRegAppTableRecord
  2
ACAD_DSTYLE_DIMEXT_ENABLED
 70
     0
  0
APPID
  5
D4F
330
8
100
AcDbSymbolTableRecord
100
AcDbRegAppTableRecord
  2
ACAD_DSTYLE_DIM_LINETYPE
 70
     0
  0
APPID
  5
D50
330
8
100
AcDbSymbolTableRecord
100
AcDbRegAppTableRecord
  2
ACAD_DSTYLE_DIM_EXT1_LINETYPE
 70
     0
  0
APPID
  5
D51
330
8
100
AcDbSymbolTableRecord
100
AcDbRegAppTableRecord
  2
ACAD_DSTYLE_DIM_EXT2_LINETYPE
 70
     0
  0
APPID
  5
D52
330
8
100
AcDbSymbolTableRecord
100
AcDbRegAppTableRecord
  2
ACAD_DSTYLE_DIMJOGGED_JOGANGLE_SYMBOL
 70
     0
  0
APPID
  5
D53
330
8
100
AcDbSymbolTableRecord
100
AcDbRegAppTableRecord
  2
ACAD_DSTYLE_DIMARC_LENGTH_SYMBOL
 70
     0
  0
APPID
  5
D54
330
8
100
AcDbSymbolTableRecord
100
AcDbRegAppTableRecord
  2
ACAD_PSEXT
 70
     0
  0
APPID
  5
D55
330
8
100
AcDbSymbolTableRecord
100
AcDbRegAppTableRecord
  2
ACAD_MLEADERVER
 70
     0
  0
APPID
  5
D56
330
8
100
AcDbSymbolTableRecord
100
AcDbRegAppTableRecord
  2
ACAD_DSTYLE_DIMJAG
 70
     0
  0
APPID
  5
D57
330
8
100
AcDbSymbolTableRecord
100
AcDbRegAppTableRecord
  2
ACAD_DSTYLE_DIMTALN
 70
     0
  0
APPID
  5
D58
330
8
100
AcDbSymbolTableRecord
100
AcDbRegAppTableRecord
  2
AcadStringInfo
 70
     0
  0
ENDTAB
  0
TABLE
  2
DIMSTYLE
  5
9
330
0
100
AcDbSymbolTable
 70
     1
100
AcDbDimStyleTable
 71
     0
  0
DIMSTYLE
105
18
330
9
100
AcDbSymbolTableRecord
100
AcDbDimStyleTableRecord
  2
STANDARD
 70
     0
340
17
  0
ENDTAB
  0
TABLE
  2
BLOCK_RECORD
  5
1
330
0
100
AcDbSymbolTable
 70
     1
  0
BLOCK_RECORD
  5
A
102
{ACAD_XDICTIONARY
360
767
102
}
330
1
100
AcDbSymbolTableRecord
100
AcDbBlockTableRecord
  2
*MODEL_SPACE
340
771
  0
BLOCK_RECORD
  5
B
102
{ACAD_XDICTIONARY
360
769
102
}
330
1
100
AcDbSymbolTableRecord
100
AcDbBlockTableRecord
  2
*PAPER_SPACE
340
772
  0
BLOCK_RECORD
  5
D2D
330
1
100
AcDbSymbolTableRecord
100
AcDbBlockTableRecord
  2
SDI2HDMI BOARD
340
0
102
{BLKREFS
331
12CF
102
}
  0
ENDTAB
  0
ENDSEC
  0
SECTION
  2
BLOCKS
  0
BLOCK
  5
D
330
A
100
AcDbEntity
  8
0
100
AcDbBlockBegin
  2
*MODEL_SPACE
 70
     0
 10
0.0
 20
0.0
 30
0.0
  3
*MODEL_SPACE
  1

  0
ENDBLK
  5
E
330
A
100
AcDbEntity
  8
0
100
AcDbBlockEnd
  0
BLOCK
  5
F
330
B
100
AcDbEntity
 67
     1
  8
0
100
AcDbBlockBegin
  2
*PAPER_SPACE
 70
     0
 10
0.0
 20
0.0
 30
0.0
  3
*PAPER_SPACE
  1

  0
ENDBLK
  5
10
330
B
100
AcDbEntity
 67
     1
  8
0
100
AcDbBlockEnd
  0
BLOCK
  5
D2E
330
D2D
100
AcDbEntity
  8
0
100
AcDbBlockBegin
  2
SDI2HDMI BOARD
 70
     0
 10
0.0
 20
0.0
 30
0.0
  3
SDI2HDMI BOARD
  1

  0
ENDBLK
  5
D2F
330
D2D
100
AcDbEntity
  8
0
100
AcDbBlockEnd
  0
ENDSEC
  0
SECTION
  2
ENTITIES
  0
LINE
  5
A6
330
A
100
AcDbEntity
  8
002
100
AcDbLine
 10
-122.8482225777588
 20
38.41143130920081
 30
0.0
 11
-121.8482225777588
 21
38.41143130920081
 31
0.0
  0
LINE
  5
A5
330
A
100
AcDbEntity
  8
002
100
AcDbLine
 10
-122.6482222314168
 20
38.49143196725049
 30
0.0
 11
-122.6482222314168
 21
38.41143130920081
 31
0.0
  0
LINE
  5
A3
330
A
100
AcDbEntity
  8
002
100
AcDbLine
 10
-121.9482218850749
 20
37.71143866799767
 30
0.0
 11
-121.9482218850749
 21
37.51144005336541
 31
0.0
  0
LINE
  5
A2
330
A
100
AcDbEntity
  8
002
100
AcDbLine
 10
-122.7482224045878
 20
37.71143866799767
 30
0.0
 11
-122.7482224045878
 21
37.51144005336541
 31
0.0
  0
LINE
  5
A0
330
A
100
AcDbEntity
  8
002
100
AcDbLine
 10
-122.7482224045878
 20
37.67143790604541
 30
0.0
 11
-121.9482218850749
 21
37.67143790604541
 31
0.0
  0
LINE
  5
9F
330
A
100
AcDbEntity
  8
002
100
AcDbLine
 10
-122.7482224045878
 20
37.63143887580283
 30
0.0
 11
-121.9482218850749
 21
37.63143887580283
 31
0.0
  0
LINE
  5
9E
330
A
100
AcDbEntity
  8
002
100
AcDbLine
 10
-122.7482224045878
 20
37.59143811385057
 30
0.0
 11
-121.9482218850749
 21
37.59143811385057
 31
0.0
  0
LINE
  5
9D
330
A
100
AcDbEntity
  8
002
100
AcDbLine
 10
-122.593222266051
 20
37.71143866799767
 30
0.0
 11
-122.593222266051
 21
37.51144005336542
 31
0.0
  0
LINE
  5
9C
330
A
100
AcDbEntity
  8
002
100
AcDbLine
 10
-122.7482224045878
 20
37.71143866799767
 30
0.0
 11
-121.9482218850749
 21
37.71143866799767
 31
0.0
  0
TEXT
  5
26B
330
A
100
AcDbEntity
  8
002
  6
Continuous
100
AcDbText
 10
-122.5717204927803
 20
37.638942330079
 30
0.0
 40
0.024999993243562
  1
圧延鋼板アルミ合金
 41
0.7
100
AcDbText
  0
TEXT
  5
4D4
330
A
100
AcDbEntity
  8
002
  6
Continuous
100
AcDbText
 10
-122.0333947841037
 20
38.36893169017694
 30
0.0
 40
0.024999993243562
  1
WH-31L
 41
0.8
100
AcDbText
  0
TEXT
  5
4D5
330
A
100
AcDbEntity
  8
002
  6
Continuous
100
AcDbText
 10
-122.5544440911345
 20
38.43143169017694
 30
0.0
 40
0.0399999901963199
  1
天井／壁付金具
 41
0.8
100
AcDbText
  0
TEXT
  5
4D7
330
A
100
AcDbEntity
  8
002
  6
Continuous
100
AcDbText
 10
-122.5765562920682
 20
37.67894136032158
 30
0.0
 40
0.024999993243562
  1
壁面／天井用（伸縮なし 長さ２０１．５ｍｍ）
 41
0.7
100
AcDbText
  0
TEXT
  5
4D9
330
A
100
AcDbEntity
  8
002
  6
Continuous
100
AcDbText
 10
-122.5721101274588
 20
37.59894156812674
 30
0.0
 40
0.024999993243562
  1
前後９０°～０°～－２０° 回転３６０°
 41
0.6
100
AcDbText
  0
TEXT
  5
4DA
330
A
100
AcDbEntity
  8
002
  6
Continuous
100
AcDbText
 10
-122.7290956711464
 20
37.638942330079
 30
0.0
 40
0.024999993243562
  1
材　　質
 41
0.8
100
AcDbText
  0
TEXT
  5
4DC
330
A
100
AcDbEntity
  8
002
  6
Continuous
100
AcDbText
 10
-122.7290956711464
 20
37.59894156812674
 30
0.0
 40
0.024999993243562
  1
最大回転角度
 41
0.75
100
AcDbText
  0
TEXT
  5
4DD
330
A
100
AcDbEntity
  8
002
  6
Continuous
100
AcDbText
 10
-122.7290956711464
 20
37.67894136032158
 30
0.0
 40
0.024999993243562
  1
設置条件
 41
0.8
100
AcDbText
  0
LINE
  5
651
330
A
100
AcDbEntity
  8
002
100
AcDbLine
 10
-122.7482224045878
 20
37.51144005336541
 30
0.0
 11
-121.9482218850749
 21
37.51144005336541
 31
0.0
  0
TEXT
  5
67A
330
A
100
AcDbEntity
  8
002
  6
Continuous
100
AcDbText
 10
-122.572109720371
 20
37.5589425590898
 30
0.0
 40
0.0249999769310372
  1
４．０Ｋｇ／約０．２８Ｋｇ
 41
0.7
100
AcDbText
  0
TEXT
  5
67D
330
A
100
AcDbEntity
  8
002
  6
Continuous
100
AcDbText
 10
-122.7290951616253
 20
37.55894169323552
 30
0.0
 40
0.0249999769310372
  1
最大搭載荷重/重量
 41
0.5
100
AcDbText
  0
LINE
  5
74E
330
A
100
AcDbEntity
  8
002
100
AcDbLine
 10
-122.7482224045878
 20
37.55143908360799
 30
0.0
 11
-121.9482218850749
 21
37.55143908360799
 31
0.0
  0
INSERT
  5
12CF
330
A
100
AcDbEntity
  8
0
  6
Continuous
100
AcDbBlockReference
  2
SDI2HDMI BOARD
 10
-4275.899559001942
 20
802.2038705106574
 30
0.0
  0
LINE
  5
37EB
330
A
100
AcDbEntity
  8
001
  6
Continuous
370
    15
100
AcDbLine
 10
-122.295461270583
 20
38.1113628305939
 30
0.0
 11
-122.2778227412425
 21
38.1129542113569
 31
0.0
  0
LINE
  5
37EC
330
A
100
AcDbEntity
  8
001
  6
Continuous
370
    15
100
AcDbLine
 10
-122.2778227412425
 20
38.12310478379715
 30
0.0
 11
-122.295461270583
 21
38.1246961645604
 31
0.0
  0
ARC
  5
37ED
330
A
100
AcDbEntity
  8
001
  6
Continuous
370
    15
100
AcDbCircle
 10
-122.2777179035195
 20
38.12426673090115
 30
0.0
 40
0.0011666666666667
100
AcDbArc
 50
264.8446322808998
 51
334.5226648175
  0
ARC
  5
37EE
330
A
100
AcDbEntity
  8
001
  6
Continuous
370
    15
100
AcDbCircle
 10
-122.2777179035195
 20
38.11179226425315
 30
0.0
 40
0.0011666666666667
100
AcDbArc
 50
25.47733518249991
 51
95.15536771910017
  0
LINE
  5
37EF
330
A
100
AcDbEntity
  8
001
  6
Continuous
370
    15
100
AcDbLine
 10
-122.3176279399517
 20
38.12329616437764
 30
0.0
 11
-122.3187946263675
 21
38.1221294977524
 31
0.0
  0
LINE
  5
37F0
330
A
100
AcDbEntity
  8
001
  6
Continuous
370
    15
100
AcDbLine
 10
-122.3187946263675
 20
38.1139294974019
 30
0.0
 11
-122.3176279399517
 21
38.11276283077665
 31
0.0
  0
LINE
  5
37F1
330
A
100
AcDbEntity
  8
001
  6
Continuous
370
    15
100
AcDbLine
 10
-122.310461276146
 20
38.12329616437764
 30
0.0
 11
-122.3176279399517
 21
38.12329616437764
 31
0.0
  0
LINE
  5
37F2
330
A
100
AcDbEntity
  8
001
  6
Continuous
370
    15
100
AcDbLine
 10
-122.3176279399517
 20
38.11276283077665
 30
0.0
 11
-122.310461276146
 21
38.11276283077665
 31
0.0
  0
LINE
  5
37F3
330
A
100
AcDbEntity
  8
001
  6
Continuous
370
    15
100
AcDbLine
 10
-122.254627941422
 20
38.1362755550204
 30
0.0
 11
-122.2755049152895
 21
38.1359111471234
 31
0.0
  0
LINE
  5
37F4
330
A
100
AcDbEntity
  8
001
  6
Continuous
370
    15
100
AcDbLine
 10
-122.2755049152895
 20
38.1001478480309
 30
0.0
 11
-122.254627941422
 21
38.0997834401339
 31
0.0
  0
ARC
  5
37F5
330
A
100
AcDbEntity
  8
001
  6
Continuous
370
    15
100
AcDbCircle
 10
-122.275461281908
 20
38.10264746757464
 30
0.0
 40
0.0025
100
AcDbArc
 50
180.0
 51
268.9999999998003
  0
ARC
  5
37F6
330
A
100
AcDbEntity
  8
001
  6
Continuous
370
    15
100
AcDbCircle
 10
-122.275461281908
 20
38.13341152757965
 30
0.0
 40
0.0025
100
AcDbArc
 50
91.00000000019965
 51
180.0
  0
LINE
  5
37F7
330
A
100
AcDbEntity
  8
001
  6
Continuous
370
    15
100
AcDbLine
 10
-122.3091279450777
 20
38.1430294970184
 30
0.0
 11
-122.310461276146
 21
38.1430294970184
 31
0.0
  0
LINE
  5
37F8
330
A
100
AcDbEntity
  8
001
  6
Continuous
370
    15
100
AcDbLine
 10
-122.310461276146
 20
38.0930294981359
 30
0.0
 11
-122.3091279450777
 21
38.0930294981359
 31
0.0
  0
LINE
  5
37F9
330
A
100
AcDbEntity
  8
001
  6
Continuous
370
    15
100
AcDbLine
 10
-122.2434354308965
 20
38.16032662989039
 30
0.0
 11
-122.2446279459917
 21
38.1466961652174
 31
0.0
  0
LINE
  5
37FA
330
A
100
AcDbEntity
  8
001
  6
Continuous
370
    15
100
AcDbLine
 10
-122.2446279459917
 20
38.1466961652174
 30
0.0
 11
-122.2445360306625
 21
38.14494227060515
 31
0.0
  0
LINE
  5
37FB
330
A
100
AcDbEntity
  8
001
  6
Continuous
370
    15
100
AcDbLine
 10
-122.2213865303717
 20
38.14494227060515
 30
0.0
 11
-122.2212946150425
 21
38.1466961652174
 31
0.0
  0
ARC
  5
37FC
330
A
100
AcDbEntity
  8
001
  6
Continuous
370
    15
100
AcDbCircle
 10
-122.22305091545
 20
38.14502949757715
 30
0.0
 40
0.0016666666666667
100
AcDbArc
 50
270.0
 51
357.0
  0
ARC
  5
37FD
330
A
100
AcDbEntity
  8
001
  6
Continuous
370
    15
100
AcDbCircle
 10
-122.2428716483657
 20
38.14502949757715
 30
0.0
 40
0.0016666666666666
100
AcDbArc
 50
182.9999999999999
 51
270.0
  0
SPLINE
  5
37FE
330
A
100
AcDbEntity
  8
001
  6
Continuous
370
    15
100
AcDbSpline
210
0.0
220
0.0
230
1.0
 70
     8
 71
     3
 72
    15
 73
    11
 74
     0
 42
0.0000000001
 43
0.0000000001
 40
0.0
 40
0.0
 40
0.0
 40
0.0
 40
0.0892263911691856
 40
0.2175234275193113
 40
0.3463313600992091
 40
0.4756358863672652
 40
0.6058403792817398
 40
0.7366882351402403
 40
0.8680764199007825
 40
1.0
 40
1.0
 40
1.0
 40
1.0
 10
-122.2315574172857
 20
38.16237600521581
 30
0.0
 10
-122.2320263291763
 20
38.16234920267005
 30
0.0
 10
-122.2331694811104
 20
38.16228386122178
 30
0.0
 10
-122.2350286490667
 20
38.16217698126669
 30
0.0
 10
-122.2370031586029
 20
38.1620626104987
 30
0.0
 10
-122.238804628132
 20
38.1619568674716
 30
0.0
 10
-122.2403215177921
 20
38.16186581881628
 30
0.0
 10
-122.241477966838
 20
38.16179340424066
 30
0.0
 10
-122.2422414108141
 20
38.16174137821521
 30
0.0
 10
-122.2423576537837
 20
38.16172703246173
 30
0.0
 10
-122.2424158934477
 20
38.16171984500028
 30
0.0
  0
LINE
  5
37FF
330
A
100
AcDbEntity
  8
001
  6
Continuous
370
    15
100
AcDbLine
 10
-122.2309456252777
 20
38.16241100121365
 30
0.0
 11
-122.2315574172857
 21
38.1623760052159
 31
0.0
  0
SPLINE
  5
3800
330
A
100
AcDbEntity
  8
001
  6
Continuous
370
    15
100
AcDbSpline
210
0.0
220
0.0
230
1.0
 70
     8
 71
     3
 72
    11
 73
     7
 74
     0
 42
0.0000000001
 43
0.0000000001
 40
0.0
 40
0.0
 40
0.0
 40
0.0
 40
0.2546864312741322
 40
0.5125126580316123
 40
0.7638136890521686
 40
1.0
 40
1.0
 40
1.0
 40
1.0
 10
-122.2424158934477
 20
38.16171984500028
 30
0.0
 10
-122.2425545693257
 20
38.16164841581174
 30
0.0
 10
-122.2428336306893
 20
38.16150467684966
 30
0.0
 10
-122.2431511293316
 20
38.16115456877151
 30
0.0
 10
-122.243369253172
 20
38.16074897934013
 30
0.0
 10
-122.2434146856038
 20
38.16045415455624
 30
0.0
 10
-122.2434366974953
 20
38.16031131273843
 30
0.0
  0
SPLINE
  5
3801
330
A
100
AcDbEntity
  8
001
  6
Continuous
370
    15
100
AcDbSpline
210
0.0
220
0.0
230
1.0
 70
     8
 71
     3
 72
     9
 73
     5
 74
     0
 42
0.0000000001
 43
0.0000000001
 40
0.0
 40
0.0
 40
0.0
 40
0.0
 40
0.499174787993479
 40
1.0
 40
1.0
 40
1.0
 40
1.0
 10
-122.1829873555624
 20
38.16318996562399
 30
0.0
 10
-122.1829823558861
 20
38.16323892722036
 30
0.0
 10
-122.1829723400032
 20
38.16333701229507
 30
0.0
 10
-122.1829719363421
 20
38.16342443391718
 30
0.0
 10
-122.1829717341784
 20
38.16346821686961
 30
0.0
  0
SPLINE
  5
3802
330
A
100
AcDbEntity
  8
001
  6
Continuous
370
    15
100
AcDbSpline
210
0.0
220
0.0
230
1.0
 70
     8
 71
     3
 72
     9
 73
     5
 74
     0
 42
0.0000000001
 43
0.0000000001
 40
0.0
 40
0.0
 40
0.0
 40
0.0
 40
0.2897573130966257
 40
1.0
 40
1.0
 40
1.0
 40
1.0
 10
-122.1829751986984
 20
38.16327458559312
 30
0.0
 10
-122.1829740264388
 20
38.16330141318503
 30
0.0
 10
-122.1829699807791
 20
38.1633939996037
 30
0.0
 10
-122.1829760231874
 20
38.16347437250878
 30
0.0
 10
-122.1829803147637
 20
38.16353145677684
 30
0.0
  0
LINE
  5
3803
330
A
100
AcDbEntity
  8
001
  6
Continuous
370
    15
100
AcDbLine
 10
-122.238711290928
 20
38.14336283133765
 30
0.0
 11
-122.238711290928
 21
38.1420294971649
 31
0.0
  0
LINE
  5
3804
330
A
100
AcDbEntity
  8
001
  6
Continuous
370
    15
100
AcDbLine
 10
-122.2272112701062
 20
38.1420294971649
 30
0.0
 11
-122.2272112701062
 21
38.14336283133765
 31
0.0
  0
ARC
  5
3806
330
A
100
AcDbEntity
  8
001
  6
Continuous
370
    15
100
AcDbCircle
 10
-122.292461281908
 20
38.13580410010365
 30
0.0
 40
0.0083333333333334
100
AcDbArc
 50
180.0
 51
248.8998039758999
  0
ARC
  5
3807
330
A
100
AcDbEntity
  8
001
  6
Continuous
370
    15
100
AcDbCircle
 10
-122.292461281908
 20
38.10025489505065
 30
0.0
 40
0.0083333333333334
100
AcDbArc
 50
111.1001960241
 51
180.0
  0
ARC
  5
3808
330
A
100
AcDbEntity
  8
001
  6
Continuous
370
    15
100
AcDbCircle
 10
-122.3016279485745
 20
38.08948064162765
 30
0.0
 40
0.0008333333333342
100
AcDbArc
 50
272.0739117730003
 51
359.9252564592003
  0
ARC
  5
3809
330
A
100
AcDbEntity
  8
001
  6
Continuous
370
    15
100
AcDbCircle
 10
-122.3016279485745
 20
38.1465783535264
 30
0.0
 40
0.0008333333333334
100
AcDbArc
 50
0.6831476337999992
 51
87.92608788069999
  0
LINE
  5
380A
330
A
100
AcDbEntity
  8
001
  6
Continuous
370
    15
100
AcDbLine
 10
-122.3015900436762
 20
38.1474128241474
 30
0.0
 11
-122.307118448985
 21
38.1472126549864
 31
0.0
  0
LINE
  5
380B
330
A
100
AcDbEntity
  8
001
  6
Continuous
370
    15
100
AcDbLine
 10
-122.307118448985
 20
38.08884631533265
 30
0.0
 11
-122.301624589535
 21
38.0886473972484
 31
0.0
  0
LINE
  5
380C
330
A
100
AcDbEntity
  8
001
  6
Continuous
370
    15
100
AcDbLine
 10
-122.3016175114832
 20
38.08864713958239
 30
0.0
 11
-122.3015900436762
 21
38.08864614617165
 31
0.0
  0
LINE
  5
380D
330
A
100
AcDbEntity
  8
001
  6
Continuous
370
    15
100
AcDbLine
 10
-122.3016245150292
 20
38.0886468850209
 30
0.0
 11
-122.30159779228
 21
38.0886478535964
 31
0.0
  0
LINE
  5
380E
330
A
100
AcDbEntity
  8
001
  6
Continuous
370
    15
100
AcDbLine
 10
-122.30159779228
 20
38.1474111415579
 30
0.0
 11
-122.3016254587692
 21
38.1474121411774
 31
0.0
  0
LINE
  5
380F
330
A
100
AcDbEntity
  8
001
  6
Continuous
370
    15
100
AcDbLine
 10
-122.3071183744792
 20
38.08884631222815
 30
0.0
 11
-122.301624589535
 21
38.0886473972484
 31
0.0
  0
LINE
  5
3810
330
A
100
AcDbEntity
  8
001
  6
Continuous
370
    15
100
AcDbLine
 10
-122.3016175114832
 20
38.08864713958239
 30
0.0
 11
-122.3015900436762
 21
38.08864614617165
 31
0.0
  0
LINE
  5
3811
330
A
100
AcDbEntity
  8
001
  6
Continuous
370
    15
100
AcDbLine
 10
-122.3015900436762
 20
38.14741284898265
 30
0.0
 11
-122.307118448985
 21
38.14721267982164
 31
0.0
  0
LINE
  5
3812
330
A
100
AcDbEntity
  8
001
  6
Continuous
370
    15
100
AcDbLine
 10
-122.3016254587692
 20
38.0886468539769
 30
0.0
 11
-122.3016245150292
 21
38.0886468850209
 31
0.0
  0
ARC
  5
3813
330
A
100
AcDbEntity
  8
001
  6
Continuous
370
    15
100
AcDbCircle
 10
-122.2512946152412
 20
38.09736283091039
 30
0.0
 40
0.0033333333333334
100
AcDbArc
 50
180.0
 51
270.0
  0
ARC
  5
3814
330
A
100
AcDbEntity
  8
001
  6
Continuous
370
    15
100
AcDbCircle
 10
-122.2512946152412
 20
38.1386961642439
 30
0.0
 40
0.0033333333333334
100
AcDbArc
 50
90.0
 51
180.0
  0
LINE
  5
3815
330
A
100
AcDbEntity
  8
001
  6
Continuous
370
    15
100
AcDbLine
 10
-122.238725248349
 20
38.1420294971649
 30
0.0
 11
-122.2512946261687
 21
38.1420294971649
 31
0.0
  0
LINE
  5
3816
330
A
100
AcDbEntity
  8
001
  6
Continuous
370
    15
100
AcDbLine
 10
-122.213794612261
 20
38.1420294971649
 30
0.0
 11
-122.2271973126852
 21
38.1420294971649
 31
0.0
  0
LINE
  5
3817
330
A
100
AcDbEntity
  8
001
  6
Continuous
370
    15
100
AcDbLine
 10
-122.2162946049097
 20
38.0940294979894
 30
0.0
 11
-122.213794612261
 21
38.0940294979894
 31
0.0
  0
LINE
  5
3818
330
A
100
AcDbEntity
  8
001
  6
Continuous
370
    15
100
AcDbLine
 10
-122.2297520671012
 20
38.0940294979894
 30
0.0
 11
-122.2212946150425
 21
38.0940294979894
 31
0.0
  0
LINE
  5
3819
330
A
100
AcDbEntity
  8
001
  6
Continuous
370
    15
100
AcDbLine
 10
-122.2512946261687
 20
38.0940294979894
 30
0.0
 11
-122.236170493933
 21
38.0940294979894
 31
0.0
  0
LINE
  5
381A
330
A
100
AcDbEntity
  8
001
  6
Continuous
370
    15
100
AcDbLine
 10
-122.213794612261
 20
38.0940294979894
 30
0.0
 11
-122.2129612896565
 21
38.0948628314594
 31
0.0
  0
LINE
  5
381B
330
A
100
AcDbEntity
  8
001
  6
Continuous
370
    15
100
AcDbLine
 10
-122.2129612896565
 20
38.1411961636949
 30
0.0
 11
-122.213794612261
 21
38.1420294971649
 31
0.0
  0
LINE
  5
381C
330
A
100
AcDbEntity
  8
001
  6
Continuous
370
    15
100
AcDbLine
 10
-122.2212946150425
 20
38.09331817243339
 30
0.0
 11
-122.2207946065787
 21
38.0930294981359
 31
0.0
  0
LINE
  5
381D
330
A
100
AcDbEntity
  8
001
  6
Continuous
370
    15
100
AcDbLine
 10
-122.2167946133735
 20
38.0930294981359
 30
0.0
 11
-122.2162946049097
 21
38.09331817243339
 31
0.0
  0
LINE
  5
381E
330
A
100
AcDbEntity
  8
001
  6
Continuous
370
    15
100
AcDbLine
 10
-122.2212946150425
 20
38.0940294979894
 30
0.0
 11
-122.2212946150425
 21
38.09331817243339
 31
0.0
  0
LINE
  5
381F
330
A
100
AcDbEntity
  8
001
  6
Continuous
370
    15
100
AcDbLine
 10
-122.2162946049097
 20
38.09331817243339
 30
0.0
 11
-122.2162946049097
 21
38.0940294979894
 31
0.0
  0
LINE
  5
3820
330
A
100
AcDbEntity
  8
001
  6
Continuous
370
    15
100
AcDbLine
 10
-122.2129612896565
 20
38.0971961639334
 30
0.0
 11
-122.0112946147692
 21
38.0971961639334
 31
0.0
  0
LINE
  5
3821
330
A
100
AcDbEntity
  8
001
  6
Continuous
370
    15
100
AcDbLine
 10
-122.0112946147692
 20
38.1388628312209
 30
0.0
 11
-122.2129612896565
 21
38.1388628312209
 31
0.0
  0
LINE
  5
3822
330
A
100
AcDbEntity
  8
001
  6
Continuous
370
    15
100
AcDbLine
 10
-121.9762946152412
 20
38.2180294953419
 30
0.0
 11
-121.979627948733
 21
38.2180294953419
 31
0.0
  0
LINE
  5
3823
330
A
100
AcDbEntity
  8
001
  6
Continuous
370
    15
100
AcDbLine
 10
-121.979627948733
 20
38.0180294998124
 30
0.0
 11
-121.9762946152412
 21
38.0180294998124
 31
0.0
  0
ARC
  5
3824
330
A
100
AcDbEntity
  8
001
  6
Continuous
370
    15
100
AcDbCircle
 10
-121.987961281908
 20
38.0734896069599
 30
0.0
 40
0.0083333333333333
100
AcDbArc
 50
0.0
 51
38.04704253179968
  0
ARC
  5
3825
330
A
100
AcDbEntity
  8
001
  6
Continuous
370
    15
100
AcDbCircle
 10
-121.987961281908
 20
38.16256938819415
 30
0.0
 40
0.0083333333333333
100
AcDbArc
 50
321.9529574682003
 51
0.0
  0
LINE
  5
3826
330
A
100
AcDbEntity
  8
001
  6
Continuous
370
    15
100
AcDbLine
 10
-121.981398740253
 20
38.15743348562565
 30
0.0
 11
-121.9936270141947
 21
38.14180846948265
 31
0.0
  0
LINE
  5
3827
330
A
100
AcDbEntity
  8
001
  6
Continuous
370
    15
100
AcDbLine
 10
-121.9936270141947
 20
38.09425052567165
 30
0.0
 11
-121.981398740253
 21
38.07862550952865
 31
0.0
  0
ARC
  5
3828
330
A
100
AcDbEntity
  8
001
  6
Continuous
370
    15
100
AcDbCircle
 10
-121.996252030275
 20
38.0921961642439
 30
0.0
 40
0.0033333333333333
100
AcDbArc
 50
38.04704253209954
 51
90.0
  0
ARC
  5
3829
330
A
100
AcDbEntity
  8
001
  6
Continuous
370
    15
100
AcDbCircle
 10
-121.996252030275
 20
38.1438628309104
 30
0.0
 40
0.0033333333333333
100
AcDbArc
 50
270.0
 51
321.9529574679004
  0
LINE
  5
382A
330
A
100
AcDbEntity
  8
001
  6
Continuous
370
    15
100
AcDbLine
 10
-122.0112946147692
 20
38.0955294969934
 30
0.0
 11
-121.9962520306902
 21
38.0955294969934
 31
0.0
  0
LINE
  5
382B
330
A
100
AcDbEntity
  8
001
  6
Continuous
370
    15
100
AcDbLine
 10
-121.9962520306902
 20
38.14052949816065
 30
0.0
 11
-122.0112946147692
 21
38.14052949816065
 31
0.0
  0
LINE
  5
382C
330
A
100
AcDbEntity
  8
001
  6
Continuous
370
    15
100
AcDbLine
 10
-121.9830379292962
 20
38.0602034740284
 30
0.0
 11
-121.979627948733
 21
38.05817977216189
 31
0.0
  0
SPLINE
  5
382D
330
A
100
AcDbEntity
  8
001
  6
Continuous
370
    15
100
AcDbSpline
210
0.0
220
0.0
230
1.0
 70
     8
 71
     3
 72
    11
 73
     7
 74
     0
 42
0.0000000001
 43
0.0000000001
 40
0.0
 40
0.0
 40
0.0
 40
0.0
 40
0.180177303979014
 40
0.4563459612659684
 40
0.7300061733254834
 40
1.0
 40
1.0
 40
1.0
 40
1.0
 10
-121.9841566215553
 20
38.06150772920586
 30
0.0
 10
-121.9841238099398
 20
38.06141389886992
 30
0.0
 10
-121.9840407059756
 20
38.0611762490999
 30
0.0
 10
-121.983796342699
 20
38.06082872649954
 30
0.0
 10
-121.9834554808863
 20
38.06047456797744
 30
0.0
 10
-121.9831685026406
 20
38.06028936591854
 30
0.0
 10
-121.9830259812038
 20
38.06019738938747
 30
0.0
  0
LINE
  5
382E
330
A
100
AcDbEntity
  8
001
  6
Continuous
370
    15
100
AcDbLine
 10
-121.9842156216165
 20
38.06165797016365
 30
0.0
 11
-121.9841566215552
 21
38.0615077292059
 31
0.0
  0
SPLINE
  5
382F
330
A
100
AcDbEntity
  8
001
  6
Continuous
370
    15
100
AcDbSpline
210
0.0
220
0.0
230
1.0
 70
     8
 71
     3
 72
    11
 73
     7
 74
     0
 42
0.0000000001
 43
0.0000000001
 40
0.0
 40
0.0
 40
0.0
 40
0.0
 40
0.2474947329100421
 40
0.4967968745311618
 40
0.7477027624625943
 40
1.0
 40
1.0
 40
1.0
 40
1.0
 10
-121.9830259812038
 20
38.07686665407159
 30
0.0
 10
-121.9832020221204
 20
38.0767490812927
 30
0.0
 10
-121.9835553895482
 20
38.07651307712244
 30
0.0
 10
-121.9839361938537
 20
38.07606176482407
 30
0.0
 10
-121.9841956205975
 20
38.07556277202227
 30
0.0
 10
-121.9842362059904
 20
38.07520877311221
 30
0.0
 10
-121.9842565547959
 20
38.07503128425615
 30
0.0
  0
LINE
  5
3830
330
A
100
AcDbEntity
  8
001
  6
Continuous
370
    15
100
AcDbLine
 10
-121.980999746528
 20
38.07807015877315
 30
0.0
 11
-121.9830379292962
 21
38.07686057253515
 31
0.0
  0
LINE
  5
3831
330
A
100
AcDbEntity
  8
001
  6
Continuous
370
    15
100
AcDbLine
 10
-122.3187946263675
 20
38.1221294977524
 30
0.0
 11
-122.3187946263675
 21
38.1139294974019
 31
0.0
  0
LINE
  5
3832
330
A
100
AcDbEntity
  8
001
  6
Continuous
370
    15
100
AcDbLine
 10
-122.3176279399517
 20
38.12329616437764
 30
0.0
 11
-122.3176279399517
 21
38.11276283077665
 31
0.0
  0
LINE
  5
3833
330
A
100
AcDbEntity
  8
001
  6
Continuous
370
    15
100
AcDbLine
 10
-122.2755049152895
 20
38.1238628310904
 30
0.0
 11
-122.2646279368522
 21
38.1238628310904
 31
0.0
  0
LINE
  5
3834
330
A
100
AcDbEntity
  8
001
  6
Continuous
370
    15
100
AcDbLine
 10
-122.2646279368522
 20
38.11219616406365
 30
0.0
 11
-122.2755049152895
 21
38.11219616406365
 31
0.0
  0
SPLINE
  5
3835
330
A
100
AcDbEntity
  8
001
  6
Continuous
370
    15
100
AcDbSpline
210
0.0
220
0.0
230
1.0
 70
     8
 71
     3
 72
    17
 73
    13
 74
     0
 42
0.0000000001
 43
0.0000000001
 40
0.0
 40
0.0
 40
0.0
 40
0.0
 40
0.1038067412539754
 40
0.2074683077015141
 40
0.3148151391456367
 40
0.4243781123230195
 40
0.4999934663978939
 40
0.6031803705527423
 40
0.7062427832192985
 40
0.8125923117563415
 40
0.9222802700280702
 40
1.0
 40
1.0
 40
1.0
 40
1.0
 10
-122.2646279368523
 20
38.12386283109052
 30
0.0
 10
-122.2639890698993
 20
38.12380130406927
 30
0.0
 10
-122.2627122294555
 20
38.12367833607295
 30
0.0
 10
-122.2610034729874
 20
38.12272627480388
 30
0.0
 10
-122.2596595908284
 20
38.12129917458172
 30
0.0
 10
-122.2589311892404
 20
38.11963116245829
 30
0.0
 10
-122.2587180322801
 20
38.11786110783124
 30
0.0
 10
-122.2590049731846
 20
38.11612345403633
 30
0.0
 10
-122.2599129026962
 20
38.11441898768224
 30
0.0
 10
-122.2613373083579
 20
38.1130851390734
 30
0.0
 10
-122.2629997916059
 20
38.11231498370332
 30
0.0
 10
-122.2641506606439
 20
38.11223099497774
 30
0.0
 10
-122.2646279368523
 20
38.11219616406374
 30
0.0
  0
SPLINE
  5
3836
330
A
100
AcDbEntity
  8
001
  6
Continuous
370
    15
100
AcDbSpline
210
0.0
220
0.0
230
1.0
 70
    24
 71
     3
 72
    14
 73
    10
 74
     0
 42
0.0000000001
 43
0.0000000001
 40
0.0
 40
0.0
 40
0.0
 40
0.0
 40
0.1177369670828905
 40
0.2665479423324257
 40
0.417728533566343
 40
0.5689091117568824
 40
0.7177200994034151
 40
0.8620071923119921
 40
1.0
 40
1.0
 40
1.0
 40
1.0
 10
-122.2779612723711
 20
38.13337799318222
 30
0.0
 10
-122.2779612723711
 20
38.13336268386206
 30
0.0
 10
-122.2779612723711
 20
38.13332802467312
 30
0.0
 10
-122.2779612723711
 20
38.13271851102471
 30
0.0
 10
-122.2779612723711
 20
38.13164933162576
 30
0.0
 10
-122.2779612723711
 20
38.13013573786329
 30
0.0
 10
-122.2779612723711
 20
38.12827125737222
 30
0.0
 10
-122.2779612723711
 20
38.12617323302219
 30
0.0
 10
-122.2779612723711
 20
38.12462143102612
 30
0.0
 10
-122.2779612723711
 20
38.12386283109052
 30
0.0
  0
SPLINE
  5
3837
330
A
100
AcDbEntity
  8
001
  6
Continuous
370
    15
100
AcDbSpline
210
0.0
220
0.0
230
1.0
 70
    24
 71
     3
 72
    14
 73
    10
 74
     0
 42
0.0000000001
 43
0.0000000001
 40
0.0
 40
0.0
 40
0.0
 40
0.0
 40
0.1379928076880079
 40
0.282279900596585
 40
0.431090888243118
 40
0.5822714664336571
 40
0.7334520576675743
 40
0.8822630329171095
 40
1.0
 40
1.0
 40
1.0
 40
1.0
 10
-122.2779612723711
 20
38.11219616406374
 30
0.0
 10
-122.2779612723711
 20
38.11143756412814
 30
0.0
 10
-122.2779612723711
 20
38.10988576213206
 30
0.0
 10
-122.2779612723711
 20
38.10778773778203
 30
0.0
 10
-122.2779612723711
 20
38.10592325729096
 30
0.0
 10
-122.2779612723711
 20
38.10440966352849
 30
0.0
 10
-122.2779612723711
 20
38.10334048412954
 30
0.0
 10
-122.2779612723711
 20
38.10273097048112
 30
0.0
 10
-122.2779612723711
 20
38.10269631129219
 30
0.0
 10
-122.2779612723711
 20
38.10268100197204
 30
0.0
  0
SPLINE
  5
3838
330
A
100
AcDbEntity
  8
001
  6
Continuous
370
    15
100
AcDbSpline
210
0.0
220
0.0
230
1.0
 70
    24
 71
     3
 72
    12
 73
     8
 74
     0
 42
0.0000000001
 43
0.0000000001
 40
0.0
 40
0.0
 40
0.0
 40
0.0
 40
0.2010366701017745
 40
0.4019174142435574
 40
0.6072656657524024
 40
0.8235743870636548
 40
1.0
 40
1.0
 40
1.0
 40
1.0
 10
-122.2755049152894
 20
38.11219616406374
 30
0.0
 10
-122.2757739816007
 20
38.11219616406374
 30
0.0
 10
-122.276311905533
 20
38.11219616406374
 30
0.0
 10
-122.2770259611074
 20
38.11219616406374
 30
0.0
 10
-122.2775788490539
 20
38.11219616406374
 30
0.0
 10
-122.2779071807901
 20
38.11219616406374
 30
0.0
 10
-122.2779445053088
 20
38.11219616406374
 30
0.0
 10
-122.2779612723711
 20
38.11219616406374
 30
0.0
  0
SPLINE
  5
3839
330
A
100
AcDbEntity
  8
001
  6
Continuous
370
    15
100
AcDbSpline
210
0.0
220
0.0
230
1.0
 70
    24
 71
     3
 72
    12
 73
     8
 74
     0
 42
0.0000000001
 43
0.0000000001
 40
0.0
 40
0.0
 40
0.0
 40
0.0
 40
0.2374040835189739
 40
0.4752248597597088
 40
0.7014265067700936
 40
0.9131061479777336
 40
1.0
 40
1.0
 40
1.0
 40
1.0
 10
-122.2779612723711
 20
38.12386283109052
 30
0.0
 10
-122.2779311153014
 20
38.12386283109052
 30
0.0
 10
-122.27787074823
 20
38.12386283109052
 30
0.0
 10
-122.2773901801321
 20
38.12386283109052
 30
0.0
 10
-122.2766938381841
 20
38.12386283109052
 30
0.0
 10
-122.276018772766
 20
38.12386283109052
 30
0.0
 10
-122.2756207514454
 20
38.12386283109052
 30
0.0
 10
-122.2755049152894
 20
38.12386283109052
 30
0.0
  0
LINE
  5
383A
330
A
100
AcDbEntity
  8
001
  6
Continuous
370
    15
100
AcDbLine
 10
-122.2779612723712
 20
38.11247116499365
 30
0.0
 11
-122.2779612723712
 21
38.1129417114559
 31
0.0
  0
LINE
  5
383B
330
A
100
AcDbEntity
  8
001
  6
Continuous
370
    15
100
AcDbLine
 10
-122.2779612723712
 20
38.1231172836984
 30
0.0
 11
-122.2779612723712
 21
38.1236137636139
 31
0.0
  0
LINE
  5
383C
330
A
100
AcDbEntity
  8
001
  6
Continuous
370
    15
100
AcDbLine
 10
-122.310461276146
 20
38.1430294970184
 30
0.0
 11
-122.310461276146
 21
38.0930294981359
 31
0.0
  0
LINE
  5
383D
330
A
100
AcDbEntity
  8
001
  6
Continuous
370
    15
100
AcDbLine
 10
-122.230461263033
 20
38.14669559090165
 30
0.0
 11
-122.2307562811895
 21
38.1609009175384
 31
0.0
  0
LINE
  5
383E
330
A
100
AcDbEntity
  8
001
  6
Continuous
370
    15
100
AcDbLine
 10
-122.2446279459917
 20
38.1466961652174
 30
0.0
 11
-122.2304612878682
 21
38.1466961652174
 31
0.0
  0
SPLINE
  5
383F
330
A
100
AcDbEntity
  8
001
  6
Continuous
370
    15
100
AcDbSpline
210
0.0
220
0.0
230
1.0
 70
     8
 71
     3
 72
     9
 73
     5
 74
     0
 42
0.0000000001
 43
0.0000000001
 40
0.0
 40
0.0
 40
0.0
 40
0.0
 40
0.5013489135360613
 40
1.0
 40
1.0
 40
1.0
 40
1.0
 10
-122.2294137859069
 20
38.14669610312916
 30
0.0
 10
-122.229587836399
 20
38.14664885590093
 30
0.0
 10
-122.2299350007936
 20
38.14655461568826
 30
0.0
 10
-122.2302860586433
 20
38.14664902554936
 30
0.0
 10
-122.2304611140215
 20
38.14669610312916
 30
0.0
  0
SPLINE
  5
3840
330
A
100
AcDbEntity
  8
001
  6
Continuous
370
    15
100
AcDbSpline
210
0.0
220
0.0
230
1.0
 70
    24
 71
     3
 72
    15
 73
    11
 74
     0
 42
0.0000000001
 43
0.0000000001
 40
0.0
 40
0.0
 40
0.0
 40
0.0
 40
0.1165155805367216
 40
0.2400112672892991
 40
0.3686410217976799
 40
0.5000002585661165
 40
0.6313590908607394
 40
0.7599889936050806
 40
0.8834839706660734
 40
1.0
 40
1.0
 40
1.0
 40
1.0
 10
-122.2329612805171
 20
38.14336283133762
 30
0.0
 10
-122.2335657292043
 20
38.14336283133762
 30
0.0
 10
-122.2348108373243
 20
38.14336283133762
 30
0.0
 10
-122.2366578550205
 20
38.14336283133762
 30
0.0
 10
-122.2384340819051
 20
38.14336283133762
 30
0.0
 10
-122.2400185555796
 20
38.14336283133762
 30
0.0
 10
-122.2413075903731
 20
38.14336283133762
 30
0.0
 10
-122.2422219085008
 20
38.14336283133762
 30
0.0
 10
-122.2427732553575
 20
38.14336283133762
 30
0.0
 10
-122.2428394907502
 20
38.14336283133762
 30
0.0
 10
-122.2428716454628
 20
38.14336283133762
 30
0.0
  0
SPLINE
  5
3841
330
A
100
AcDbEntity
  8
001
  6
Continuous
370
    15
100
AcDbSpline
210
0.0
220
0.0
230
1.0
 70
    24
 71
     3
 72
    15
 73
    11
 74
     0
 42
0.0000000001
 43
0.0000000001
 40
0.0
 40
0.0
 40
0.0
 40
0.0
 40
0.1165156147340058
 40
0.2400113377325264
 40
0.3686411299936976
 40
0.5000004053160263
 40
0.6313592761644231
 40
0.7599884816092521
 40
0.8834839364686573
 40
1.0
 40
1.0
 40
1.0
 40
1.0
 10
-122.2329612805171
 20
38.14336283133762
 30
0.0
 10
-122.2323568318164
 20
38.14336283133762
 30
0.0
 10
-122.2311117236686
 20
38.14336283133762
 30
0.0
 10
-122.2292647061937
 20
38.14336283133762
 30
0.0
 10
-122.2274884784175
 20
38.14336283133762
 30
0.0
 10
-122.2259040081698
 20
38.14336283133762
 30
0.0
 10
-122.224614963046
 20
38.14336283133762
 30
0.0
 10
-122.2237006906405
 20
38.14336283133762
 30
0.0
 10
-122.2231492971668
 20
38.14336283133762
 30
0.0
 10
-122.2230830674631
 20
38.14336283133762
 30
0.0
 10
-122.2230509155714
 20
38.14336283133762
 30
0.0
  0
LINE
  5
3842
330
A
100
AcDbEntity
  8
001
  6
Continuous
370
    15
100
AcDbLine
 10
-122.22941361206
 20
38.1466961652174
 30
0.0
 11
-122.1860160910807
 21
38.1466961652174
 31
0.0
  0
SPLINE
  5
3843
330
A
100
AcDbEntity
  8
001
  6
Continuous
370
    15
100
AcDbSpline
210
0.0
220
0.0
230
1.0
 70
     8
 71
     3
 72
    11
 73
     7
 74
     0
 42
0.0000000001
 43
0.0000000001
 40
0.0
 40
0.0
 40
0.0
 40
0.0
 40
0.2409452123015694
 40
0.4998798872809033
 40
0.758879245774968
 40
1.0
 40
1.0
 40
1.0
 40
1.0
 10
-122.2312806530519
 20
38.16241763843931
 30
0.0
 10
-122.2312263567677
 20
38.16239959897215
 30
0.0
 10
-122.2311137103278
 20
38.16236217317427
 30
0.0
 10
-122.2309504516152
 20
38.16201843654087
 30
0.0
 10
-122.2308186255316
 20
38.1615087806996
 30
0.0
 10
-122.2307765613918
 20
38.1610986514066
 30
0.0
 10
-122.2307562811894
 20
38.16090091753838
 30
0.0
  0
SPLINE
  5
3844
330
A
100
AcDbEntity
  8
001
  6
Continuous
370
    15
100
AcDbSpline
210
0.0
220
0.0
230
1.0
 70
     8
 71
     3
 72
    15
 73
    11
 74
     0
 42
0.0000000001
 43
0.0000000001
 40
0.0
 40
0.0
 40
0.0
 40
0.0
 40
0.1243589794937941
 40
0.252872520042914
 40
0.3790995034157995
 40
0.5036378953369026
 40
0.6274994309842004
 40
0.7513141864447042
 40
0.876988390333868
 40
1.0
 40
1.0
 40
1.0
 40
1.0
 10
-122.2312806530519
 20
38.16241764154372
 30
0.0
 10
-122.2319219461951
 20
38.16238297650712
 30
0.0
 10
-122.2332259566806
 20
38.16231248835099
 30
0.0
 10
-122.2351951151155
 20
38.16220604798576
 30
0.0
 10
-122.2370604103454
 20
38.16210522088598
 30
0.0
 10
-122.2387029275027
 20
38.16201643586946
 30
0.0
 10
-122.2400688623818
 20
38.16194260308435
 30
0.0
 10
-122.2410818076139
 20
38.161887847485
 30
0.0
 10
-122.2417478999868
 20
38.16185184363254
 30
0.0
 10
-122.2418232703206
 20
38.16184776907157
 30
0.0
 10
-122.2418605520053
 20
38.16184575360356
 30
0.0
  0
SPLINE
  5
3845
330
A
100
AcDbEntity
  8
001
  6
Continuous
370
    15
100
AcDbSpline
210
0.0
220
0.0
230
1.0
 70
     8
 71
     3
 72
    10
 73
     6
 74
     0
 42
0.0000000001
 43
0.0000000001
 40
0.0
 40
0.0
 40
0.0
 40
0.0
 40
0.3332506766821082
 40
0.6667741767089647
 40
1.0
 40
1.0
 40
1.0
 40
1.0
 10
-122.1847535901987
 20
38.16493261606829
 30
0.0
 10
-122.189983680959
 20
38.16464990801985
 30
0.0
 10
-122.2004481442138
 20
38.1640842604775
 30
0.0
 10
-122.2159972530063
 20
38.16324377118571
 30
0.0
 10
-122.2261877029119
 20
38.16269293611582
 30
0.0
 10
-122.2312806530519
 20
38.16241764154372
 30
0.0
  0
SPLINE
  5
3846
330
A
100
AcDbEntity
  8
001
  6
Continuous
370
    15
100
AcDbSpline
210
0.0
220
0.0
230
1.0
 70
     8
 71
     3
 72
    11
 73
     7
 74
     0
 42
0.0000000001
 43
0.0000000001
 40
0.0
 40
0.0
 40
0.0
 40
0.0
 40
0.2411588643120416
 40
0.5000221951839171
 40
0.7588730750425733
 40
1.0
 40
1.0
 40
1.0
 40
1.0
 10
-122.1845341706001
 20
38.16341360411383
 30
0.0
 10
-122.1845479406405
 20
38.16361021752577
 30
0.0
 10
-122.1845764916367
 20
38.16401787855086
 30
0.0
 10
-122.1846363727502
 20
38.16452600860789
 30
0.0
 10
-122.184699710614
 20
38.16487143828344
 30
0.0
 10
-122.1847360598578
 20
38.16491271117423
 30
0.0
 10
-122.1847535901987
 20
38.16493261606829
 30
0.0
  0
LINE
  5
3847
330
A
100
AcDbEntity
  8
001
  6
Continuous
370
    15
100
AcDbLine
 10
-122.1829612785302
 20
38.1466961652174
 30
0.0
 11
-122.1829612785302
 21
38.14675245435365
 31
0.0
  0
SPLINE
  5
3848
330
A
100
AcDbEntity
  8
001
  6
Continuous
370
    15
100
AcDbSpline
210
0.0
220
0.0
230
1.0
 70
    24
 71
     3
 72
    12
 73
     8
 74
     0
 42
0.0000000001
 43
0.0000000001
 40
0.0
 40
0.0
 40
0.0
 40
0.0
 40
0.179673854936322
 40
0.4051254964489317
 40
0.6316864570039027
 40
0.8574922120898875
 40
1.0
 40
1.0
 40
1.0
 40
1.0
 10
-122.1860160910808
 20
38.14669616521733
 30
0.0
 10
-122.1857221544162
 20
38.14669616521733
 30
0.0
 10
-122.1850593911154
 20
38.14669616521733
 30
0.0
 10
-122.1841388665877
 20
38.14669616521733
 30
0.0
 10
-122.1833981163803
 20
38.14669616521733
 30
0.0
 10
-122.1830142483464
 20
38.14669616521733
 30
0.0
 10
-122.1829760559306
 20
38.14669616521733
 30
0.0
 10
-122.1829612785303
 20
38.14669616521733
 30
0.0
  0
SPLINE
  5
3849
330
A
100
AcDbEntity
  8
001
  6
Continuous
370
    15
100
AcDbSpline
210
0.0
220
0.0
230
1.0
 70
     8
 71
     3
 72
    12
 73
     8
 74
     0
 42
0.0000000001
 43
0.0000000001
 40
0.0
 40
0.0
 40
0.0
 40
0.0
 40
0.1364450409508015
 40
0.2689873742240875
 40
0.5081190475085755
 40
0.7629384373385864
 40
1.0
 40
1.0
 40
1.0
 40
1.0
 10
-122.1829612785303
 20
38.16327030771809
 30
0.0
 10
-122.1829681449007
 20
38.16327596697876
 30
0.0
 10
-122.1829816812442
 20
38.1632871236295
 30
0.0
 10
-122.1831145636711
 20
38.16331161892838
 30
0.0
 10
-122.1834087017234
 20
38.16334391663
 30
0.0
 10
-122.1839226784909
 20
38.16338172860692
 30
0.0
 10
-122.1843353054332
 20
38.16340323778545
 30
0.0
 10
-122.1845341706001
 20
38.16341360411383
 30
0.0
  0
SPLINE
  5
384A
330
A
100
AcDbEntity
  8
001
  6
Continuous
370
    15
100
AcDbSpline
210
0.0
220
0.0
230
1.0
 70
    24
 71
     3
 72
    12
 73
     8
 74
     0
 42
0.0000000001
 43
0.0000000001
 40
0.0
 40
0.0
 40
0.0
 40
0.0
 40
0.1953596127199955
 40
0.3843271265244105
 40
0.6195912754213636
 40
0.8053706854549492
 40
1.0
 40
1.0
 40
1.0
 40
1.0
 10
-122.1829612785303
 20
38.14675245435374
 30
0.0
 10
-122.1829612785303
 20
38.14782731616064
 30
0.0
 10
-122.1829612785303
 20
38.14994187066812
 30
0.0
 10
-122.1829612785303
 20
38.15335599901322
 30
0.0
 10
-122.1829612785303
 20
38.15671268939885
 30
0.0
 10
-122.1829612785303
 20
38.16010327272688
 30
0.0
 10
-122.1829612785303
 20
38.16219838237135
 30
0.0
 10
-122.1829612785303
 20
38.16327030771809
 30
0.0
  0
LINE
  5
384B
330
A
100
AcDbEntity
  8
001
  6
Continuous
370
    15
100
AcDbLine
 10
-122.1846279485745
 20
38.1649369746579
 30
0.0
 11
-122.1847179019177
 21
38.16493454390615
 31
0.0
  0
SPLINE
  5
384C
330
A
100
AcDbEntity
  8
001
  6
Continuous
370
    15
100
AcDbSpline
210
0.0
220
0.0
230
1.0
 70
     8
 71
     3
 72
    11
 73
     7
 74
     0
 42
0.0000000001
 43
0.0000000001
 40
0.0
 40
0.0
 40
0.0
 40
0.0
 40
0.1961514296459718
 40
0.4641014451084676
 40
0.7320496863522868
 40
1.0
 40
1.0
 40
1.0
 40
1.0
 10
-122.1829952780131
 20
38.16344121161936
 30
0.0
 10
-122.1830154498071
 20
38.16360047099056
 30
0.0
 10
-122.1830631770083
 20
38.16397728447828
 30
0.0
 10
-122.1834241703029
 20
38.16447562166528
 30
0.0
 10
-122.1839721851276
 20
38.16486201193537
 30
0.0
 10
-122.1844093601953
 20
38.16491198701934
 30
0.0
 10
-122.1846279485745
 20
38.16493697465794
 30
0.0
  0
SPLINE
  5
384D
330
A
100
AcDbEntity
  8
001
  6
Continuous
370
    15
100
AcDbSpline
210
0.0
220
0.0
230
1.0
 70
     8
 71
     3
 72
    12
 73
     8
 74
     0
 42
0.0000000001
 43
0.0000000001
 40
0.0
 40
0.0
 40
0.0
 40
0.0
 40
0.2626992932714658
 40
0.3800890332051687
 40
0.4935792463156361
 40
0.7269945853402956
 40
1.0
 40
1.0
 40
1.0
 40
1.0
 10
-122.1847179019176
 20
38.16493454390602
 30
0.0
 10
-122.1847185069371
 20
38.16493451201841
 30
0.0
 10
-122.1847193823156
 20
38.1649344658815
 30
0.0
 10
-122.1847236190466
 20
38.16493423562396
 30
0.0
 10
-122.1847290437335
 20
38.16493394393853
 30
0.0
 10
-122.184739102032
 20
38.16493339868494
 30
0.0
 10
-122.1847485155064
 20
38.16493289019123
 30
0.0
 10
-122.1847535901987
 20
38.16493261606829
 30
0.0
  0
ARC
  5
384E
330
A
100
AcDbEntity
  8
001
  6
Continuous
370
    15
100
AcDbCircle
 10
-122.232961281908
 20
38.1503152118629
 30
0.0
 40
0.0112668430228112
100
AcDbArc
 50
69.99466631869966
 51
81.49320638740032
  0
SPLINE
  5
384F
330
A
100
AcDbEntity
  8
001
  6
Continuous
370
    15
100
AcDbSpline
210
0.0
220
0.0
230
1.0
 70
     8
 71
     3
 72
     9
 73
     5
 74
     0
 42
0.0000000001
 43
0.0000000001
 40
0.0
 40
0.0
 40
0.0
 40
0.0
 40
0.3773200897960445
 40
1.0
 40
1.0
 40
1.0
 40
1.0
 10
-122.3016279671314
 20
38.1123447480434
 30
0.0
 10
-122.3016264579502
 20
38.11228894357814
 30
0.0
 10
-122.3016224582129
 20
38.11214104669493
 30
0.0
 10
-122.3016258378587
 20
38.11198649116263
 30
0.0
 10
-122.3016279422962
 20
38.11189025253765
 30
0.0
  0
SPLINE
  5
3850
330
A
100
AcDbEntity
  8
001
  6
Continuous
370
    15
100
AcDbSpline
210
0.0
220
0.0
230
1.0
 70
     8
 71
     3
 72
     9
 73
     5
 74
     0
 42
0.0000000001
 43
0.0000000001
 40
0.0
 40
0.0
 40
0.0
 40
0.0
 40
0.3772629178573714
 40
1.0
 40
1.0
 40
1.0
 40
1.0
 10
-122.3016279422962
 20
38.12416877870535
 30
0.0
 10
-122.301626442094
 20
38.12411114505406
 30
0.0
 10
-122.301622465551
 20
38.12395837718698
 30
0.0
 10
-122.3016258558602
 20
38.12380791418284
 30
0.0
 10
-122.3016279671314
 20
38.12371421529067
 30
0.0
  0
SPLINE
  5
3851
330
A
100
AcDbEntity
  8
001
  6
Continuous
370
    15
100
AcDbSpline
210
0.0
220
0.0
230
1.0
 70
    24
 71
     3
 72
     9
 73
     5
 74
     0
 42
0.0000000001
 43
0.0000000001
 40
0.0
 40
0.0
 40
0.0
 40
0.0
 40
0.4999999336625118
 40
1.0
 40
1.0
 40
1.0
 40
1.0
 10
-122.3007946196917
 20
38.1120606085108
 30
0.0
 10
-122.3007946196917
 20
38.11029747992733
 30
0.0
 10
-122.3007946196917
 20
38.10677122229256
 30
0.0
 10
-122.3007946196917
 20
38.10363244041308
 30
0.0
 10
-122.3007946196917
 20
38.10206304926512
 30
0.0
  0
SPLINE
  5
3852
330
A
100
AcDbEntity
  8
001
  6
Continuous
370
    15
100
AcDbSpline
210
0.0
220
0.0
230
1.0
 70
    24
 71
     3
 72
     9
 73
     5
 74
     0
 42
0.0000000001
 43
0.0000000001
 40
0.0
 40
0.0
 40
0.0
 40
0.0
 40
0.5000000663374881
 40
1.0
 40
1.0
 40
1.0
 40
1.0
 10
-122.3007946196917
 20
38.13399594588913
 30
0.0
 10
-122.3007946196917
 20
38.13242655474117
 30
0.0
 10
-122.3007946196917
 20
38.12928777286169
 30
0.0
 10
-122.3007946196917
 20
38.12576151522692
 30
0.0
 10
-122.3007946196917
 20
38.12399838664346
 30
0.0
  0
LINE
  5
3853
330
A
100
AcDbEntity
  8
001
  6
Continuous
370
    15
100
AcDbLine
 10
-122.3016279422962
 20
38.1016063317789
 30
0.0
 11
-122.3016279422962
 21
38.11189025253765
 31
0.0
  0
LINE
  5
3854
330
A
100
AcDbEntity
  8
001
  6
Continuous
370
    15
100
AcDbLine
 10
-122.3016279422962
 20
38.1241687787054
 30
0.0
 11
-122.3016279422962
 21
38.13445263233115
 31
0.0
  0
SPLINE
  5
3855
330
A
100
AcDbEntity
  8
001
  6
Continuous
370
    15
100
AcDbSpline
210
0.0
220
0.0
230
1.0
 70
    24
 71
     3
 72
     9
 73
     5
 74
     0
 42
0.0000000001
 43
0.0000000001
 40
0.0
 40
0.0
 40
0.0
 40
0.0
 40
0.5000000146791809
 40
1.0
 40
1.0
 40
1.0
 40
1.0
 10
-122.3007946196917
 20
38.12399838664346
 30
0.0
 10
-122.3007946196917
 20
38.1230264568351
 30
0.0
 10
-122.3007946196917
 20
38.12108259727544
 30
0.0
 10
-122.3007946196917
 20
38.11904719745665
 30
0.0
 10
-122.3007946196917
 20
38.11802949757713
 30
0.0
  0
SPLINE
  5
3856
330
A
100
AcDbEntity
  8
001
  6
Continuous
370
    15
100
AcDbSpline
210
0.0
220
0.0
230
1.0
 70
    24
 71
     3
 72
     9
 73
     5
 74
     0
 42
0.0000000001
 43
0.0000000001
 40
0.0
 40
0.0
 40
0.0
 40
0.0
 40
0.4999999853208757
 40
1.0
 40
1.0
 40
1.0
 40
1.0
 10
-122.3007946196917
 20
38.11802949757713
 30
0.0
 10
-122.3007946196917
 20
38.11701179769761
 30
0.0
 10
-122.3007946196917
 20
38.11497639787881
 30
0.0
 10
-122.3007946196917
 20
38.11303253831916
 30
0.0
 10
-122.3007946196917
 20
38.1120606085108
 30
0.0
  0
LINE
  5
3857
330
A
100
AcDbEntity
  8
001
  6
Continuous
370
    15
100
AcDbLine
 10
-122.3016279422962
 20
38.12371421529065
 30
0.0
 11
-122.3016279422962
 21
38.11234474765539
 31
0.0
  0
SPLINE
  5
3858
330
A
100
AcDbEntity
  8
001
  6
Continuous
370
    15
100
AcDbSpline
210
0.0
220
0.0
230
1.0
 70
    24
 71
     3
 72
     9
 73
     5
 74
     0
 42
0.0000000001
 43
0.0000000001
 40
0.0
 40
0.0
 40
0.0
 40
0.0
 40
0.4999999723669545
 40
1.0
 40
1.0
 40
1.0
 40
1.0
 10
-122.3091279450777
 20
38.12409072844088
 30
0.0
 10
-122.3091279450777
 20
38.12563329665289
 30
0.0
 10
-122.3091279450777
 20
38.12871843324742
 30
0.0
 10
-122.3091279450777
 20
38.1314893213292
 30
0.0
 10
-122.3091279450777
 20
38.13287476544665
 30
0.0
  0
SPLINE
  5
3859
330
A
100
AcDbEntity
  8
001
  6
Continuous
370
    15
100
AcDbSpline
210
0.0
220
0.0
230
1.0
 70
    24
 71
     3
 72
     9
 73
     5
 74
     0
 42
0.0000000001
 43
0.0000000001
 40
0.0
 40
0.0
 40
0.0
 40
0.0
 40
0.5000000276330457
 40
1.0
 40
1.0
 40
1.0
 40
1.0
 10
-122.3091279450777
 20
38.10318422970759
 30
0.0
 10
-122.3091279450777
 20
38.10456967382505
 30
0.0
 10
-122.3091279450777
 20
38.10734056190684
 30
0.0
 10
-122.3091279450777
 20
38.11042569850136
 30
0.0
 10
-122.3091279450777
 20
38.11196826671337
 30
0.0
  0
SPLINE
  5
385A
330
A
100
AcDbEntity
  8
001
  6
Continuous
370
    15
100
AcDbSpline
210
0.0
220
0.0
230
1.0
 70
    24
 71
     3
 72
     9
 73
     5
 74
     0
 42
0.0000000001
 43
0.0000000001
 40
0.0
 40
0.0
 40
0.0
 40
0.0
 40
0.4999999729093846
 40
1.0
 40
1.0
 40
1.0
 40
1.0
 10
-122.3091279450777
 20
38.11196826671337
 30
0.0
 10
-122.3091279450777
 20
38.11295814858361
 30
0.0
 10
-122.3091279450777
 20
38.11493791243135
 30
0.0
 10
-122.3091279450777
 20
38.11699896915798
 30
0.0
 10
-122.3091279450777
 20
38.11802949757712
 30
0.0
  0
SPLINE
  5
385B
330
A
100
AcDbEntity
  8
001
  6
Continuous
370
    15
100
AcDbSpline
210
0.0
220
0.0
230
1.0
 70
    24
 71
     3
 72
     9
 73
     5
 74
     0
 42
0.0000000001
 43
0.0000000001
 40
0.0
 40
0.0
 40
0.0
 40
0.0
 40
0.5000000270905744
 40
1.0
 40
1.0
 40
1.0
 40
1.0
 10
-122.3091279450777
 20
38.11802949757712
 30
0.0
 10
-122.3091279450777
 20
38.11906002599627
 30
0.0
 10
-122.3091279450777
 20
38.1211210827229
 30
0.0
 10
-122.3091279450777
 20
38.12310084657064
 30
0.0
 10
-122.3091279450777
 20
38.12409072844088
 30
0.0
  0
SPLINE
  5
385C
330
A
100
AcDbEntity
  8
001
  6
Continuous
370
    15
100
AcDbSpline
210
0.0
220
0.0
230
1.0
 70
    24
 71
     3
 72
    11
 73
     7
 74
     0
 42
0.0000000001
 43
0.0000000001
 40
0.0
 40
0.0
 40
0.0
 40
0.0
 40
0.2483346929188147
 40
0.5
 40
0.7516653070811853
 40
1.0
 40
1.0
 40
1.0
 40
1.0
 10
-122.3091279450777
 20
38.13287476544665
 30
0.0
 10
-122.3091279450777
 20
38.13337057201977
 30
0.0
 10
-122.3091279450777
 20
38.13436883482244
 30
0.0
 10
-122.3091279450777
 20
38.1364043485488
 30
0.0
 10
-122.3091279450777
 20
38.13875079797353
 30
0.0
 10
-122.3091279450777
 20
38.14055202531802
 30
0.0
 10
-122.3091279450777
 20
38.14144663979696
 30
0.0
  0
SPLINE
  5
385D
330
A
100
AcDbEntity
  8
001
  6
Continuous
370
    15
100
AcDbSpline
210
0.0
220
0.0
230
1.0
 70
     8
 71
     3
 72
     9
 73
     5
 74
     0
 42
0.0000000001
 43
0.0000000001
 40
0.0
 40
0.0
 40
0.0
 40
0.0
 40
0.3772619784307025
 40
1.0
 40
1.0
 40
1.0
 40
1.0
 10
-122.3016279671314
 20
38.13475120348321
 30
0.0
 10
-122.3016264580367
 20
38.13472369434014
 30
0.0
 10
-122.3016224579125
 20
38.13465077646172
 30
0.0
 10
-122.3016258376224
 20
38.1345286716439
 30
0.0
 10
-122.3016279422962
 20
38.13445263233123
 30
0.0
  0
SPLINE
  5
385E
330
A
100
AcDbEntity
  8
001
  6
Continuous
370
    15
100
AcDbSpline
210
0.0
220
0.0
230
1.0
 70
     8
 71
     3
 72
     9
 73
     5
 74
     0
 42
0.0000000001
 43
0.0000000001
 40
0.0
 40
0.0
 40
0.0
 40
0.0
 40
0.3773209681501512
 40
1.0
 40
1.0
 40
1.0
 40
1.0
 10
-122.3016279422962
 20
38.10160633022674
 30
0.0
 10
-122.3016264420075
 20
38.10155933224644
 30
0.0
 10
-122.301622465847
 20
38.1014347752134
 30
0.0
 10
-122.3016258560951
 20
38.10135652833276
 30
0.0
 10
-122.3016279671314
 20
38.10130780564087
 30
0.0
  0
SPLINE
  5
385F
330
A
100
AcDbEntity
  8
001
  6
Continuous
370
    15
100
AcDbSpline
210
0.0
220
0.0
230
1.0
 70
    24
 71
     3
 72
    11
 73
     7
 74
     0
 42
0.0000000001
 43
0.0000000001
 40
0.0
 40
0.0
 40
0.0
 40
0.0
 40
0.2480975264377917
 40
0.5
 40
0.7519024735622083
 40
1.0
 40
1.0
 40
1.0
 40
1.0
 10
-122.3007946196917
 20
38.10206304926512
 30
0.0
 10
-122.3007946196917
 20
38.1015909285521
 30
0.0
 10
-122.3007946196917
 20
38.10063944644788
 30
0.0
 10
-122.3007946196917
 20
38.09863952425557
 30
0.0
 10
-122.3007946196917
 20
38.09631063972282
 30
0.0
 10
-122.3007946196917
 20
38.0945134989027
 30
0.0
 10
-122.3007946196917
 20
38.09362176651843
 30
0.0
  0
SPLINE
  5
3860
330
A
100
AcDbEntity
  8
001
  6
Continuous
370
    15
100
AcDbSpline
210
0.0
220
0.0
230
1.0
 70
    24
 71
     3
 72
    11
 73
     7
 74
     0
 42
0.0000000001
 43
0.0000000001
 40
0.0
 40
0.0
 40
0.0
 40
0.0
 40
0.2480975264377917
 40
0.5
 40
0.7519024735622083
 40
1.0
 40
1.0
 40
1.0
 40
1.0
 10
-122.3007946196917
 20
38.14243722863583
 30
0.0
 10
-122.3007946196917
 20
38.14154549625156
 30
0.0
 10
-122.3007946196917
 20
38.13974835543143
 30
0.0
 10
-122.3007946196917
 20
38.13741947089868
 30
0.0
 10
-122.3007946196917
 20
38.13541954870637
 30
0.0
 10
-122.3007946196917
 20
38.13446806660215
 30
0.0
 10
-122.3007946196917
 20
38.13399594588913
 30
0.0
  0
LINE
  5
3861
330
A
100
AcDbEntity
  8
001
  6
Continuous
370
    15
100
AcDbLine
 10
-122.3016279422962
 20
38.10130780719315
 30
0.0
 11
-122.3016279422962
 21
38.0932683559889
 31
0.0
  0
LINE
  5
3862
330
A
100
AcDbEntity
  8
001
  6
Continuous
370
    15
100
AcDbLine
 10
-122.3016279422962
 20
38.1427906391654
 30
0.0
 11
-122.3016279422962
 21
38.13475120348315
 31
0.0
  0
SPLINE
  5
3863
330
A
100
AcDbEntity
  8
001
  6
Continuous
370
    15
100
AcDbSpline
210
0.0
220
0.0
230
1.0
 70
    24
 71
     3
 72
    11
 73
     7
 74
     0
 42
0.0000000001
 43
0.0000000001
 40
0.0
 40
0.0
 40
0.0
 40
0.0
 40
0.2483346929188147
 40
0.5
 40
0.7516653070811853
 40
1.0
 40
1.0
 40
1.0
 40
1.0
 10
-122.3091279450777
 20
38.09461235535728
 30
0.0
 10
-122.3091279450777
 20
38.09550696983624
 30
0.0
 10
-122.3091279450777
 20
38.09730819718073
 30
0.0
 10
-122.3091279450777
 20
38.09965464660545
 30
0.0
 10
-122.3091279450777
 20
38.10169016033182
 30
0.0
 10
-122.3091279450777
 20
38.10268842313448
 30
0.0
 10
-122.3091279450777
 20
38.10318422970759
 30
0.0
  0
LINE
  5
3864
330
A
100
AcDbEntity
  8
001
  6
Continuous
370
    15
100
AcDbLine
 10
-122.295461270583
 20
38.12802949766415
 30
0.0
 11
-122.295461270583
 21
38.10802949749015
 31
0.0
  0
SPLINE
  5
3865
330
A
100
AcDbEntity
  8
001
  6
Continuous
370
    15
100
AcDbSpline
210
0.0
220
0.0
230
1.0
 70
     8
 71
     3
 72
     9
 73
     5
 74
     0
 42
0.0000000001
 43
0.0000000001
 40
0.0
 40
0.0
 40
0.0
 40
0.0
 40
0.3772924810454655
 40
1.0
 40
1.0
 40
1.0
 40
1.0
 10
-122.3016279671314
 20
38.09326835598884
 30
0.0
 10
-122.3016264579913
 20
38.09321694787759
 30
0.0
 10
-122.3016224580702
 20
38.09308069254829
 30
0.0
 10
-122.3016258377464
 20
38.09298419676868
 30
0.0
 10
-122.3016279422962
 20
38.09292410812117
 30
0.0
  0
SPLINE
  5
3866
330
A
100
AcDbEntity
  8
001
  6
Continuous
370
    15
100
AcDbSpline
210
0.0
220
0.0
230
1.0
 70
     8
 71
     3
 72
     9
 73
     5
 74
     0
 42
0.0000000001
 43
0.0000000001
 40
0.0
 40
0.0
 40
0.0
 40
0.0
 40
0.3773209681501512
 40
1.0
 40
1.0
 40
1.0
 40
1.0
 10
-122.3016279422962
 20
38.14313486685442
 30
0.0
 10
-122.3016264420075
 20
38.14310035802254
 30
0.0
 10
-122.301622465847
 20
38.14300890052404
 30
0.0
 10
-122.3016258560951
 20
38.14287439372735
 30
0.0
 10
-122.3016279671314
 20
38.14279063916542
 30
0.0
  0
SPLINE
  5
3867
330
A
100
AcDbEntity
  8
001
  6
Continuous
370
    15
100
AcDbSpline
210
0.0
220
0.0
230
1.0
 70
    24
 71
     3
 72
     9
 73
     5
 74
     0
 42
0.0000000001
 43
0.0000000001
 40
0.0
 40
0.0
 40
0.0
 40
0.0
 40
0.4999999336625118
 40
1.0
 40
1.0
 40
1.0
 40
1.0
 10
-122.3007946196917
 20
38.14657835291164
 30
0.0
 10
-122.3007946196917
 20
38.14612202793733
 30
0.0
 10
-122.3007946196917
 20
38.14520937786761
 30
0.0
 10
-122.3007946196917
 20
38.14336127846148
 30
0.0
 10
-122.3007946196917
 20
38.14243722863583
 30
0.0
  0
SPLINE
  5
3868
330
A
100
AcDbEntity
  8
001
  6
Continuous
370
    15
100
AcDbSpline
210
0.0
220
0.0
230
1.0
 70
    24
 71
     3
 72
     9
 73
     5
 74
     0
 42
0.0000000001
 43
0.0000000001
 40
0.0
 40
0.0
 40
0.0
 40
0.0
 40
0.5000000663374881
 40
1.0
 40
1.0
 40
1.0
 40
1.0
 10
-122.3007946196917
 20
38.09362176651843
 30
0.0
 10
-122.3007946196917
 20
38.09269771669277
 30
0.0
 10
-122.3007946196917
 20
38.09084961728665
 30
0.0
 10
-122.3007946196917
 20
38.08993696721692
 30
0.0
 10
-122.3007946196917
 20
38.0894806422426
 30
0.0
  0
LINE
  5
3869
330
A
100
AcDbEntity
  8
001
  6
Continuous
370
    15
100
AcDbLine
 10
-122.3016279422962
 20
38.1431348668544
 30
0.0
 11
-122.3016279422962
 21
38.14739460747765
 31
0.0
  0
LINE
  5
386A
330
A
100
AcDbEntity
  8
001
  6
Continuous
370
    15
100
AcDbLine
 10
-122.3016279422962
 20
38.0886643938854
 30
0.0
 11
-122.3016279422962
 21
38.0929241065689
 31
0.0
  0
SPLINE
  5
386B
330
A
100
AcDbEntity
  8
001
  6
Continuous
370
    15
100
AcDbSpline
210
0.0
220
0.0
230
1.0
 70
     8
 71
     3
 72
    12
 73
     8
 74
     0
 42
0.0000000001
 43
0.0000000001
 40
0.0
 40
0.0
 40
0.0
 40
0.0
 40
0.1460007919025454
 40
0.2790002559248775
 40
0.5050835593481873
 40
0.7588030798360654
 40
1.0
 40
1.0
 40
1.0
 40
1.0
 10
-122.3091279450777
 20
38.09097388760584
 30
0.0
 10
-122.3091180319781
 20
38.09081764047895
 30
0.0
 10
-122.3090990885376
 20
38.09051905998619
 30
0.0
 10
-122.308922852827
 20
38.09000316044414
 30
0.0
 10
-122.3085534211998
 20
38.08945144488887
 30
0.0
 10
-122.3079052163847
 20
38.08897965359366
 30
0.0
 10
-122.3073754919508
 20
38.08890156010461
 30
0.0
 10
-122.3071173313978
 20
38.08886350133853
 30
0.0
  0
SPLINE
  5
386C
330
A
100
AcDbEntity
  8
001
  6
Continuous
370
    15
100
AcDbSpline
210
0.0
220
0.0
230
1.0
 70
    24
 71
     3
 72
     9
 73
     5
 74
     0
 42
0.0000000001
 43
0.0000000001
 40
0.0
 40
0.0
 40
0.0
 40
0.0
 40
0.4999999723669545
 40
1.0
 40
1.0
 40
1.0
 40
1.0
 10
-122.3091279450777
 20
38.09097388760584
 30
0.0
 10
-122.3091279450777
 20
38.09139063313892
 30
0.0
 10
-122.3091279450777
 20
38.09222412425114
 30
0.0
 10
-122.3091279450777
 20
38.09381627829257
 30
0.0
 10
-122.3091279450777
 20
38.09461235535728
 30
0.0
  0
SPLINE
  5
386D
330
A
100
AcDbEntity
  8
001
  6
Continuous
370
    15
100
AcDbSpline
210
0.0
220
0.0
230
1.0
 70
     8
 71
     3
 72
    12
 73
     8
 74
     0
 42
0.0000000001
 43
0.0000000001
 40
0.0
 40
0.0
 40
0.0
 40
0.0
 40
0.2411882175934542
 40
0.4949081158066063
 40
0.7210675832230828
 40
0.8540511084470498
 40
1.0
 40
1.0
 40
1.0
 40
1.0
 10
-122.3071173313978
 20
38.14719549381571
 30
0.0
 10
-122.3073754843119
 20
38.14715744060528
 30
0.0
 10
-122.3079052032741
 20
38.14707935701202
 30
0.0
 10
-122.308553455483
 20
38.14660750699033
 30
0.0
 10
-122.3089229272384
 20
38.14605573146931
 30
0.0
 10
-122.3090991232466
 20
38.14553980842119
 30
0.0
 10
-122.309118044632
 20
38.1452412996121
 30
0.0
 10
-122.3091279450777
 20
38.14508510754841
 30
0.0
  0
SPLINE
  5
386E
330
A
100
AcDbEntity
  8
001
  6
Continuous
370
    15
100
AcDbSpline
210
0.0
220
0.0
230
1.0
 70
    24
 71
     3
 72
     9
 73
     5
 74
     0
 42
0.0000000001
 43
0.0000000001
 40
0.0
 40
0.0
 40
0.0
 40
0.0
 40
0.5000000276330457
 40
1.0
 40
1.0
 40
1.0
 40
1.0
 10
-122.3091279450777
 20
38.14144663979696
 30
0.0
 10
-122.3091279450777
 20
38.14224271686168
 30
0.0
 10
-122.3091279450777
 20
38.14383487090312
 30
0.0
 10
-122.3091279450777
 20
38.14466836201534
 30
0.0
 10
-122.3091279450777
 20
38.14508510754841
 30
0.0
  0
LINE
  5
386F
330
A
100
AcDbEntity
  8
001
  6
Continuous
370
    15
100
AcDbLine
 10
-122.3071173313977
 20
38.14719549381565
 30
0.0
 11
-122.3071183248085
 21
38.1472094481324
 31
0.0
  0
LINE
  5
3870
330
A
100
AcDbEntity
  8
001
  6
Continuous
370
    15
100
AcDbLine
 10
-122.3016255332752
 20
38.14740118571965
 30
0.0
 11
-122.3016279422962
 21
38.14739460747765
 31
0.0
  0
SPLINE
  5
3871
330
A
100
AcDbEntity
  8
001
  6
Continuous
370
    15
100
AcDbSpline
210
0.0
220
0.0
230
1.0
 70
     8
 71
     3
 72
     9
 73
     5
 74
     0
 42
0.0000000001
 43
0.0000000001
 40
0.0
 40
0.0
 40
0.0
 40
0.0
 40
0.3772907097375349
 40
1.0
 40
1.0
 40
1.0
 40
1.0
 10
-122.3016279422962
 20
38.08866439698972
 30
0.0
 10
-122.3016264420526
 20
38.08865556309555
 30
0.0
 10
-122.3016224656928
 20
38.08863214907038
 30
0.0
 10
-122.3016258559727
 20
38.08867193161174
 30
0.0
 10
-122.3016279671314
 20
38.08869670456983
 30
0.0
  0
SPLINE
  5
3872
330
A
100
AcDbEntity
  8
001
  6
Continuous
370
    15
100
AcDbSpline
210
0.0
220
0.0
230
1.0
 70
    24
 71
     3
 72
    16
 73
    12
 74
     0
 42
0.0000000001
 43
0.0000000001
 40
0.0
 40
0.0
 40
0.0
 40
0.0
 40
0.1164967855705196
 40
0.2399716908914316
 40
0.3043719195117482
 40
0.3687450692988548
 40
0.500082561609961
 40
0.631420053921067
 40
0.7600283091085684
 40
0.8835032144294803
 40
1.0
 40
1.0
 40
1.0
 40
1.0
 10
-122.254627941422
 20
38.11802949757712
 30
0.0
 10
-122.254627941422
 20
38.11676911553012
 30
0.0
 10
-122.254627941422
 20
38.1141728549594
 30
0.0
 10
-122.254627941422
 20
38.11099058778259
 30
0.0
 10
-122.254627941422
 20
38.10850639356113
 30
0.0
 10
-122.254627941422
 20
38.10607584138582
 30
0.0
 10
-122.254627941422
 20
38.10331204423137
 30
0.0
 10
-122.254627941422
 20
38.10062456955845
 30
0.0
 10
-122.254627941422
 20
38.09871777925112
 30
0.0
 10
-122.254627941422
 20
38.09756799790348
 30
0.0
 10
-122.254627941422
 20
38.09742988074609
 30
0.0
 10
-122.254627941422
 20
38.09736283031689
 30
0.0
  0
SPLINE
  5
3873
330
A
100
AcDbEntity
  8
001
  6
Continuous
370
    15
100
AcDbSpline
210
0.0
220
0.0
230
1.0
 70
    24
 71
     3
 72
    16
 73
    12
 74
     0
 42
0.0000000001
 43
0.0000000001
 40
0.0
 40
0.0
 40
0.0
 40
0.0
 40
0.1164967855705196
 40
0.2399716908914316
 40
0.3043719195117482
 40
0.3687450692988548
 40
0.500082561609961
 40
0.631420053921067
 40
0.7600283091085684
 40
0.8835032144294803
 40
1.0
 40
1.0
 40
1.0
 40
1.0
 10
-122.254627941422
 20
38.13869616483735
 30
0.0
 10
-122.254627941422
 20
38.13862943132141
 30
0.0
 10
-122.254627941422
 20
38.13849196697351
 30
0.0
 10
-122.254627941422
 20
38.13753819310613
 30
0.0
 10
-122.254627941422
 20
38.13641218146621
 30
0.0
 10
-122.254627941422
 20
38.13499118785157
 30
0.0
 10
-122.254627941422
 20
38.13274714032793
 30
0.0
 10
-122.254627941422
 20
38.12944205740196
 30
0.0
 10
-122.254627941422
 20
38.1257382286234
 30
0.0
 10
-122.254627941422
 20
38.12188648137217
 30
0.0
 10
-122.254627941422
 20
38.11928999112366
 30
0.0
 10
-122.254627941422
 20
38.11802949757712
 30
0.0
  0
SPLINE
  5
3874
330
A
100
AcDbEntity
  8
001
  6
Continuous
370
    15
100
AcDbSpline
210
0.0
220
0.0
230
1.0
 70
     8
 71
     3
 72
    18
 73
    14
 74
     0
 42
0.0000000001
 43
0.0000000001
 40
0.0
 40
0.0
 40
0.0
 40
0.0
 40
0.0324839020962464
 40
0.1366392465104201
 40
0.241719350535457
 40
0.3494859832759534
 40
0.4576896705208874
 40
0.5002531060457893
 40
0.6054453315789756
 40
0.7105614906740331
 40
0.8176488470634948
 40
0.9261155548404985
 40
1.0
 40
1.0
 40
1.0
 40
1.0
 10
-122.2271973126852
 20
38.1420127985511
 30
0.0
 10
-122.2271773752872
 20
38.14201759365337
 30
0.0
 10
-122.2270935112543
 20
38.14203776361819
 30
0.0
 10
-122.2275945219053
 20
38.14191594976784
 30
0.0
 10
-122.2286540266045
 20
38.14169317293014
 30
0.0
 10
-122.2302481742846
 20
38.14144445709745
 30
0.0
 10
-122.2317811488082
 20
38.14132523950792
 30
0.0
 10
-122.2333429450024
 20
38.14129885437366
 30
0.0
 10
-122.2348957975694
 20
38.141365265298
 30
0.0
 10
-122.2366234913753
 20
38.14157997578993
 30
0.0
 10
-122.237941056841
 20
38.14182835131946
 30
0.0
 10
-122.2387131860611
 20
38.14200938819543
 30
0.0
 10
-122.2387217702396
 20
38.14201181518955
 30
0.0
 10
-122.238725248349
 20
38.1420127985511
 30
0.0
  0
SPLINE
  5
3875
330
A
100
AcDbEntity
  8
001
  6
Continuous
370
    15
100
AcDbSpline
210
0.0
220
0.0
230
1.0
 70
     8
 71
     3
 72
    12
 73
     8
 74
     0
 42
0.0000000001
 43
0.0000000001
 40
0.0
 40
0.0
 40
0.0
 40
0.0
 40
0.2134978138476654
 40
0.4269445921784041
 40
0.641625783231726
 40
0.8571300689989943
 40
1.0
 40
1.0
 40
1.0
 40
1.0
 10
-122.2329612805171
 20
38.09425056758113
 30
0.0
 10
-122.2325978891909
 20
38.09424558871448
 30
0.0
 10
-122.2318711934054
 20
38.09423563217134
 30
0.0
 10
-122.2308992743433
 20
38.09416578757974
 30
0.0
 10
-122.230169466607
 20
38.09408989011386
 30
0.0
 10
-122.2297515858499
 20
38.09403501922146
 30
0.0
 10
-122.2297519299299
 20
38.09403498256917
 30
0.0
 10
-122.2297520671013
 20
38.09403496795731
 30
0.0
  0
SPLINE
  5
3876
330
A
100
AcDbEntity
  8
001
  6
Continuous
370
    15
100
AcDbSpline
210
0.0
220
0.0
230
1.0
 70
     8
 71
     3
 72
    13
 73
     9
 74
     0
 42
0.0000000001
 43
0.0000000001
 40
0.0
 40
0.0
 40
0.0
 40
0.0
 40
0.0712364583360699
 40
0.2838249956883884
 40
0.4970916869192202
 40
0.7120641536895855
 40
0.9271377850498831
 40
1.0
 40
1.0
 40
1.0
 40
1.0
 10
-122.2361704939329
 20
38.09403496795731
 30
0.0
 10
-122.2361818313149
 20
38.094033449988
 30
0.0
 10
-122.2362270024599
 20
38.09402740199454
 30
0.0
 10
-122.2359322133267
 20
38.09406725053817
 30
0.0
 10
-122.2353158762233
 20
38.0941383431635
 30
0.0
 10
-122.2344086858057
 20
38.09421340587823
 30
0.0
 10
-122.2335735041242
 20
38.09424763363773
 30
0.0
 10
-122.2330849174566
 20
38.09424997507901
 30
0.0
 10
-122.2329612805171
 20
38.09425056758113
 30
0.0
  0
LINE
  5
3877
330
A
100
AcDbEntity
  8
001
  6
Continuous
370
    15
100
AcDbLine
 10
-122.213794612261
 20
38.11802949757715
 30
0.0
 11
-122.213794612261
 21
38.1420294971649
 31
0.0
  0
LINE
  5
3878
330
A
100
AcDbEntity
  8
001
  6
Continuous
370
    15
100
AcDbLine
 10
-122.213794612261
 20
38.0940294979894
 30
0.0
 11
-122.213794612261
 21
38.11802949757715
 31
0.0
  0
LINE
  5
3879
330
A
100
AcDbEntity
  8
001
  6
Continuous
370
    15
100
AcDbLine
 10
-122.2129612896565
 20
38.0948628314594
 30
0.0
 11
-122.2129612896565
 21
38.1411961636949
 31
0.0
  0
LINE
  5
387A
330
A
100
AcDbEntity
  8
001
  6
Continuous
370
    15
100
AcDbLine
 10
-122.2187946223937
 20
38.0930294981359
 30
0.0
 11
-122.2167946133735
 21
38.0930294981359
 31
0.0
  0
LINE
  5
387B
330
A
100
AcDbEntity
  8
001
  6
Continuous
370
    15
100
AcDbLine
 10
-122.2207946065787
 20
38.0930294981359
 30
0.0
 11
-122.2187946223937
 21
38.0930294981359
 31
0.0
  0
LINE
  5
387C
330
A
100
AcDbEntity
  8
001
  6
Continuous
370
    15
100
AcDbLine
 10
-122.2187946223937
 20
38.09331817243339
 30
0.0
 11
-122.2162946049097
 21
38.09331817243339
 31
0.0
  0
LINE
  5
387D
330
A
100
AcDbEntity
  8
001
  6
Continuous
370
    15
100
AcDbLine
 10
-122.2212946150425
 20
38.09331817243339
 30
0.0
 11
-122.2187946223937
 21
38.09331817243339
 31
0.0
  0
LINE
  5
387E
330
A
100
AcDbEntity
  8
001
  6
Continuous
370
    15
100
AcDbLine
 10
-122.1521279447995
 20
38.1055294978564
 30
0.0
 11
-122.1871279412232
 21
38.1055294978564
 31
0.0
  0
LINE
  5
387F
330
A
100
AcDbEntity
  8
001
  6
Continuous
370
    15
100
AcDbLine
 10
-122.1871279412232
 20
38.13052949729765
 30
0.0
 11
-122.1521279447995
 21
38.13052949729765
 31
0.0
  0
SPLINE
  5
3880
330
A
100
AcDbEntity
  8
001
  6
Continuous
370
    15
100
AcDbSpline
210
0.0
220
0.0
230
1.0
 70
     8
 71
     3
 72
    27
 73
    23
 74
     0
 42
0.0000000001
 43
0.0000000001
 40
0.0
 40
0.0
 40
0.0
 40
0.0
 40
0.0467668823396296
 40
0.0935672051861258
 40
0.1400362888833522
 40
0.1865366413963833
 40
0.238734111822185
 40
0.2909289418916852
 40
0.3487816611858109
 40
0.4065788394125173
 40
0.4532956741817308
 40
0.4999973155997936
 40
0.5476387990104258
 40
0.5952970195263964
 40
0.6427539495219879
 40
0.6902373568852262
 40
0.7413601515481532
 40
0.7924930451547776
 40
0.8499107441702111
 40
0.9072641366704539
 40
0.9536480183435912
 40
1.0
 40
1.0
 40
1.0
 40
1.0
 10
-122.1521279447996
 20
38.13052949729772
 30
0.0
 10
-122.1514991682907
 20
38.13050115362857
 30
0.0
 10
-122.1502411656683
 20
38.13044444602322
 30
0.0
 10
-122.1484221680199
 20
38.13001251149851
 30
0.0
 10
-122.1467203077184
 20
38.12934718607993
 30
0.0
 10
-122.1450941983592
 20
38.12842104279872
 30
0.0
 10
-122.1435818335912
 20
38.12722298700729
 30
0.0
 10
-122.1421765295767
 20
38.12569378897188
 30
0.0
 10
-122.140999318349
 20
38.1238638529677
 30
0.0
 10
-122.1401751312351
 20
38.1218854166072
 30
0.0
 10
-122.1397255015377
 20
38.11991325549445
 30
0.0
 10
-122.1395781828647
 20
38.11801687547246
 30
0.0
 10
-122.1397295069003
 20
38.11610776023558
 30
0.0
 10
-122.1401625053415
 20
38.11424801377269
 30
0.0
 10
-122.1408657781607
 20
38.11250398945204
 30
0.0
 10
-122.1418243827082
 20
38.11086599889851
 30
0.0
 10
-122.143038783391
 20
38.10937542367392
 30
0.0
 10
-122.1445552757663
 20
38.10801149555933
 30
0.0
 10
-122.146356893039
 20
38.10686827742016
 30
0.0
 10
-122.1483073856723
 20
38.10607145544077
 30
0.0
 10
-122.1502579175539
 20
38.10561312219913
 30
0.0
 10
-122.1515047453489
 20
38.10555736624427
 30
0.0
 10
-122.1521279447996
 20
38.10552949785652
 30
0.0
  0
SPLINE
  5
3881
330
A
100
AcDbEntity
  8
001
  6
Continuous
370
    15
100
AcDbSpline
210
0.0
220
0.0
230
1.0
 70
     8
 71
     3
 72
    27
 73
    23
 74
     0
 42
0.0000000001
 43
0.0000000001
 40
0.0
 40
0.0
 40
0.0
 40
0.0
 40
0.0467668587103088
 40
0.0935674546517336
 40
0.1400365148701042
 40
0.1865368438884807
 40
0.2387342879411159
 40
0.2909292896584662
 40
0.3487818195395284
 40
0.4065789685637737
 40
0.4532957797289531
 40
0.4999973975506585
 40
0.5476388807217583
 40
0.5952970771580528
 40
0.6427539831756716
 40
0.6902372164639161
 40
0.7413599852966648
 40
0.7924928530680083
 40
0.8499105230727154
 40
0.9072638865947228
 40
0.9536480417632803
 40
1.0
 40
1.0
 40
1.0
 40
1.0
 10
-122.1871279412233
 20
38.10552949785652
 30
0.0
 10
-122.1877567176092
 20
38.10555784189377
 30
0.0
 10
-122.1890147239753
 20
38.10561455041544
 30
0.0
 10
-122.1908337271175
 20
38.10604648144265
 30
0.0
 10
-122.1925355904433
 20
38.106711809431
 30
0.0
 10
-122.1941617009328
 20
38.10763795168651
 30
0.0
 10
-122.1956740633012
 20
38.10883601231471
 30
0.0
 10
-122.1970793844725
 20
38.11036519853889
 30
0.0
 10
-122.1982565766868
 20
38.1121951466275
 30
0.0
 10
-122.1990807684724
 20
38.1141735780526
 30
0.0
 10
-122.1995303955129
 20
38.11614573968924
 30
0.0
 10
-122.199677720126
 20
38.11804212034227
 30
0.0
 10
-122.1995263743901
 20
38.11995123413602
 30
0.0
 10
-122.1990933828009
 20
38.1218109819506
 30
0.0
 10
-122.1983901049237
 20
38.12355500206892
 30
0.0
 10
-122.1974315184429
 20
38.12519299981616
 30
0.0
 10
-122.1962171139632
 20
38.12668357089588
 30
0.0
 10
-122.1947006230257
 20
38.12804749983386
 30
0.0
 10
-122.1928990052158
 20
38.12919071740601
 30
0.0
 10
-122.1909485095101
 20
38.12998754214465
 30
0.0
 10
-122.1889979721145
 20
38.13044587170899
 30
0.0
 10
-122.1877511405584
 20
38.1305016285542
 30
0.0
 10
-122.1871279412233
 20
38.13052949729772
 30
0.0
  0
LINE
  5
3882
330
A
100
AcDbEntity
  8
001
  6
Continuous
370
    15
100
AcDbLine
 10
-121.9762946152412
 20
38.0180294998124
 30
0.0
 11
-121.9762946152412
 21
38.2180294953419
 31
0.0
  0
LINE
  5
3883
330
A
100
AcDbEntity
  8
001
  6
Continuous
370
    15
100
AcDbLine
 10
-121.979627948733
 20
38.0180294998124
 30
0.0
 11
-121.979627948733
 21
38.2180294953419
 31
0.0
  0
LINE
  5
3884
330
A
100
AcDbEntity
  8
001
  6
Continuous
370
    15
100
AcDbLine
 10
-122.0112946147692
 20
38.14052949816065
 30
0.0
 11
-122.0112946147692
 21
38.0955294969934
 31
0.0
  0
LINE
  5
3885
330
A
100
AcDbEntity
  8
001
  6
Continuous
370
    15
100
AcDbLine
 10
-121.9799662865827
 20
38.0758400323624
 30
0.0
 11
-121.9809612817415
 21
38.07524953659715
 31
0.0
  0
LINE
  5
3886
330
A
100
AcDbEntity
  8
001
  6
Continuous
370
    15
100
AcDbLine
 10
-121.9809612817415
 20
38.07524953659715
 30
0.0
 11
-121.9809612817415
 21
38.06652855439815
 31
0.0
  0
LINE
  5
3887
330
A
100
AcDbEntity
  8
001
  6
Continuous
370
    15
100
AcDbLine
 10
-121.9809612817415
 20
38.06652855439815
 30
0.0
 11
-121.979627948733
 21
38.0657372685904
 31
0.0
  0
LINE
  5
3888
330
A
100
AcDbEntity
  8
001
  6
Continuous
370
    15
100
AcDbLine
 10
-121.9842946156212
 20
38.06617499951364
 30
0.0
 11
-121.9842946156212
 21
38.06216806174665
 31
0.0
  0
ARC
  5
3889
330
A
100
AcDbEntity
  8
001
  6
Continuous
370
    15
100
AcDbCircle
 10
-121.9825659506272
 20
38.06217405556365
 30
0.0
 40
0.0017286753851539
100
AcDbArc
 50
180.1986614211
 51
201.9854426853002
  0
LINE
  5
388A
330
A
100
AcDbEntity
  8
001
  6
Continuous
370
    15
100
AcDbLine
 10
-121.9842946156212
 20
38.06617499951364
 30
0.0
 11
-121.9842946156212
 21
38.0748959848169
 31
0.0
  0
LINE
  5
388C
330
A
100
AcDbEntity
  8
001
  6
Continuous
370
    15
100
AcDbLine
 10
-121.9830258818627
 20
38.0768666975334
 30
0.0
 11
-121.9830379292962
 21
38.07686057253515
 31
0.0
  0
LINE
  5
388D
330
A
100
AcDbEntity
  8
001
  6
Continuous
370
    15
100
AcDbLine
 10
-121.9809612817415
 20
38.07053549216515
 30
0.0
 11
-121.979627948733
 21
38.07132677797315
 31
0.0
  0
LINE
  5
388E
330
A
100
AcDbEntity
  8
001
  6
Continuous
370
    15
100
AcDbLine
 10
-122.0040386930082
 20
38.1169520865794
 30
0.0
 11
-122.0037946150922
 21
38.11719616420415
 31
0.0
  0
LINE
  5
388F
330
A
100
AcDbEntity
  8
001
  6
Continuous
370
    15
100
AcDbLine
 10
-122.0037946150922
 20
38.11719616420415
 30
0.0
 11
-122.0021279481522
 21
38.11719616420415
 31
0.0
  0
LINE
  5
3890
330
A
100
AcDbEntity
  8
001
  6
Continuous
370
    15
100
AcDbLine
 10
-122.0021279481522
 20
38.11719616420415
 30
0.0
 11
-122.0018838702365
 21
38.1169520865794
 31
0.0
  0
SPLINE
  5
3891
330
A
100
AcDbEntity
  8
001
  6
Continuous
370
    15
100
AcDbSpline
210
0.0
220
0.0
230
1.0
 70
     8
 71
     3
 72
    11
 73
     7
 74
     0
 42
0.0000000001
 43
0.0000000001
 40
0.0
 40
0.0
 40
0.0
 40
0.0
 40
0.3850313883578412
 40
0.5000009315369607
 40
0.6149499860167252
 40
1.0
 40
1.0
 40
1.0
 40
1.0
 10
-122.0021279481523
 20
38.11527393022329
 30
0.0
 10
-122.0023418512307
 20
38.11527286077392
 30
0.0
 10
-122.0026196253074
 20
38.11527147198928
 30
0.0
 10
-122.0029612717916
 20
38.11527171673942
 30
0.0
 10
-122.0033029286232
 20
38.11527147202822
 30
0.0
 10
-122.0035807016658
 20
38.11527286075939
 30
0.0
 10
-122.0037946150922
 20
38.11527393022329
 30
0.0
  0
LINE
  5
3892
330
A
100
AcDbEntity
  8
001
  6
Continuous
370
    15
100
AcDbLine
 10
-122.0021279481522
 20
38.11886283095015
 30
0.0
 11
-122.0021279481522
 21
38.11719616420415
 31
0.0
  0
LINE
  5
3893
330
A
100
AcDbEntity
  8
001
  6
Continuous
370
    15
100
AcDbLine
 10
-122.0018838702365
 20
38.11910690857489
 30
0.0
 11
-122.0021279481522
 21
38.11886283095015
 31
0.0
  0
SPLINE
  5
3894
330
A
100
AcDbEntity
  8
001
  6
Continuous
370
    15
100
AcDbSpline
210
0.0
220
0.0
230
1.0
 70
     8
 71
     3
 72
    11
 73
     7
 74
     0
 42
0.0000000001
 43
0.0000000001
 40
0.0
 40
0.0
 40
0.0
 40
0.0
 40
0.3850180598386417
 40
0.5000000020891605
 40
0.614981947436994
 40
1.0
 40
1.0
 40
1.0
 40
1.0
 10
-122.0002057138804
 20
38.11719616420421
 30
0.0
 10
-122.0002046445803
 20
38.11741005985327
 30
0.0
 10
-122.0002032559441
 20
38.11768783338167
 30
0.0
 10
-122.0002035012961
 20
38.11802949758233
 30
0.0
 10
-122.0002032559441
 20
38.11837116177895
 30
0.0
 10
-122.0002046445803
 20
38.11864893530502
 30
0.0
 10
-122.0002057138804
 20
38.11886283095004
 30
0.0
  0
LINE
  5
3895
330
A
100
AcDbEntity
  8
001
  6
Continuous
370
    15
100
AcDbLine
 10
-122.0037946150922
 20
38.11886283095015
 30
0.0
 11
-122.0040386930082
 21
38.11910690857489
 31
0.0
  0
LINE
  5
3896
330
A
100
AcDbEntity
  8
001
  6
Continuous
370
    15
100
AcDbLine
 10
-122.0037946150922
 20
38.11719616420415
 30
0.0
 11
-122.0037946150922
 21
38.11886283095015
 31
0.0
  0
SPLINE
  5
3897
330
A
100
AcDbEntity
  8
001
  6
Continuous
370
    15
100
AcDbSpline
210
0.0
220
0.0
230
1.0
 70
     8
 71
     3
 72
    11
 73
     7
 74
     0
 42
0.0000000001
 43
0.0000000001
 40
0.0
 40
0.0
 40
0.0
 40
0.0
 40
0.3850082302919794
 40
0.5000000000000544
 40
0.6149917697080206
 40
1.0
 40
1.0
 40
1.0
 40
1.0
 10
-122.0057168493642
 20
38.11886283095004
 30
0.0
 10
-122.0057179175958
 20
38.11864894076202
 30
0.0
 10
-122.0057193048799
 20
38.11837116723511
 30
0.0
 10
-122.0057190644104
 20
38.11802949757712
 30
0.0
 10
-122.0057193048799
 20
38.11768782791914
 30
0.0
 10
-122.0057179175958
 20
38.11741005439223
 30
0.0
 10
-122.0057168493642
 20
38.11719616420421
 30
0.0
  0
LINE
  5
3898
330
A
100
AcDbEntity
  8
001
  6
Continuous
370
    15
100
AcDbLine
 10
-122.0021279481522
 20
38.11886283095015
 30
0.0
 11
-122.0037946150922
 21
38.11886283095015
 31
0.0
  0
SPLINE
  5
3899
330
A
100
AcDbEntity
  8
001
  6
Continuous
370
    15
100
AcDbSpline
210
0.0
220
0.0
230
1.0
 70
     8
 71
     3
 72
    11
 73
     7
 74
     0
 42
0.0000000001
 43
0.0000000001
 40
0.0
 40
0.0
 40
0.0
 40
0.0
 40
0.3850071744183462
 40
0.4999990687187337
 40
0.6149909630191213
 40
1.0
 40
1.0
 40
1.0
 40
1.0
 10
-122.0037946150922
 20
38.12078506493097
 30
0.0
 10
-122.0035807254663
 20
38.12078613436432
 30
0.0
 10
-122.003302952425
 20
38.12078752321033
 30
0.0
 10
-122.0029612831745
 20
38.12078727838701
 30
0.0
 10
-122.0026196128892
 20
38.12078752320985
 30
0.0
 10
-122.0023418388131
 20
38.12078613436478
 30
0.0
 10
-122.0021279481523
 20
38.12078506493097
 30
0.0
  0
LINE
  5
389A
330
A
100
AcDbEntity
  8
001
  6
Continuous
370
    15
100
AcDbLine
 10
-122.0021279481522
 20
38.1163628308314
 30
0.0
 11
-122.0021279481522
 21
38.1153936034279
 31
0.0
  0
ARC
  5
389B
330
A
100
AcDbEntity
  8
001
  6
Continuous
370
    15
100
AcDbCircle
 10
-122.0012946152412
 20
38.1163628309104
 30
0.0
 40
0.0008333333333333
100
AcDbArc
 50
90.0
 51
180.0
  0
LINE
  5
389C
330
A
100
AcDbEntity
  8
001
  6
Continuous
370
    15
100
AcDbLine
 10
-122.000325387279
 20
38.11719616420415
 30
0.0
 11
-122.0012946146825
 21
38.11719616420415
 31
0.0
  0
LINE
  5
389D
330
A
100
AcDbEntity
  8
001
  6
Continuous
370
    15
100
AcDbLine
 10
-122.0046279501142
 20
38.11719616420415
 30
0.0
 11
-122.0055971744132
 21
38.11719616420415
 31
0.0
  0
ARC
  5
389E
330
A
100
AcDbEntity
  8
001
  6
Continuous
370
    15
100
AcDbCircle
 10
-122.0046279485745
 20
38.1163628309104
 30
0.0
 40
0.0008333333333333
100
AcDbArc
 50
0.0
 51
90.0
  0
LINE
  5
389F
330
A
100
AcDbEntity
  8
001
  6
Continuous
370
    15
100
AcDbLine
 10
-122.0037946150922
 20
38.1163628308314
 30
0.0
 11
-122.0037946150922
 21
38.1153936034279
 31
0.0
  0
LINE
  5
38A0
330
A
100
AcDbEntity
  8
001
  6
Continuous
370
    15
100
AcDbLine
 10
-122.000325387279
 20
38.11886283095015
 30
0.0
 11
-122.0012946146825
 21
38.11886283095015
 31
0.0
  0
ARC
  5
38A1
330
A
100
AcDbEntity
  8
001
  6
Continuous
370
    15
100
AcDbCircle
 10
-122.0012946152412
 20
38.1196961642439
 30
0.0
 40
0.0008333333333333
100
AcDbArc
 50
180.0
 51
270.0
  0
LINE
  5
38A2
330
A
100
AcDbEntity
  8
001
  6
Continuous
370
    15
100
AcDbLine
 10
-122.0021279481522
 20
38.1206653917264
 30
0.0
 11
-122.0021279481522
 21
38.1196961643229
 31
0.0
  0
LINE
  5
38A3
330
A
100
AcDbEntity
  8
001
  6
Continuous
370
    15
100
AcDbLine
 10
-122.0037946150922
 20
38.1206653917264
 30
0.0
 11
-122.0037946150922
 21
38.1196961643229
 31
0.0
  0
ARC
  5
38A4
330
A
100
AcDbEntity
  8
001
  6
Continuous
370
    15
100
AcDbCircle
 10
-122.0046279485745
 20
38.1196961642439
 30
0.0
 40
0.0008333333333333
100
AcDbArc
 50
270.0
 51
0.0
  0
LINE
  5
38A5
330
A
100
AcDbEntity
  8
001
  6
Continuous
370
    15
100
AcDbLine
 10
-122.0046279501142
 20
38.11886283095015
 30
0.0
 11
-122.0055971744132
 21
38.11886283095015
 31
0.0
  0
LINE
  5
38A6
330
A
100
AcDbEntity
  8
001
  6
Continuous
370
    15
100
AcDbLine
 10
-122.0055971744132
 20
38.11719616420415
 30
0.0
 11
-122.0057168493642
 21
38.11719616420415
 31
0.0
  0
LINE
  5
38A7
330
A
100
AcDbEntity
  8
001
  6
Continuous
370
    15
100
AcDbLine
 10
-122.0021279481522
 20
38.1153936034279
 30
0.0
 11
-122.0021279481522
 21
38.1152739302234
 31
0.0
  0
LINE
  5
38A8
330
A
100
AcDbEntity
  8
001
  6
Continuous
370
    15
100
AcDbLine
 10
-122.0002057138805
 20
38.11886283095015
 30
0.0
 11
-122.000325387279
 21
38.11886283095015
 31
0.0
  0
LINE
  5
38A9
330
A
100
AcDbEntity
  8
001
  6
Continuous
370
    15
100
AcDbLine
 10
-122.0037946150922
 20
38.1207850649309
 30
0.0
 11
-122.0037946150922
 21
38.1206653917264
 31
0.0
  0
LINE
  5
38AA
330
A
100
AcDbEntity
  8
001
  6
Continuous
370
    15
100
AcDbLine
 10
-122.0055971744132
 20
38.11886283095015
 30
0.0
 11
-122.0057168493642
 21
38.11886283095015
 31
0.0
  0
LINE
  5
38AB
330
A
100
AcDbEntity
  8
001
  6
Continuous
370
    15
100
AcDbLine
 10
-122.0037946150922
 20
38.1153936034279
 30
0.0
 11
-122.0037946150922
 21
38.1152739302234
 31
0.0
  0
LINE
  5
38AC
330
A
100
AcDbEntity
  8
001
  6
Continuous
370
    15
100
AcDbLine
 10
-122.0021279481522
 20
38.1207850649309
 30
0.0
 11
-122.0021279481522
 21
38.1206653917264
 31
0.0
  0
LINE
  5
38AD
330
A
100
AcDbEntity
  8
001
  6
Continuous
370
    15
100
AcDbLine
 10
-122.0002057138805
 20
38.11719616420415
 30
0.0
 11
-122.000325387279
 21
38.11719616420415
 31
0.0
  0
CIRCLE
  5
38AE
330
A
100
AcDbEntity
  8
001
  6
Continuous
370
    15
100
AcDbCircle
 10
-122.002961281908
 20
38.11802949757715
 30
0.0
 40
0.0045833333333564
  0
LINE
  5
38AF
330
A
100
AcDbEntity
  8
001
  6
PHANTOM
370
     0
100
AcDbLine
 10
-122.2766646975005
 20
38.1237648846714
 30
0.0
 11
-122.2766646975005
 21
38.11229411048289
 31
0.0
  0
LINE
  5
38B0
330
A
100
AcDbEntity
  8
001
  6
PHANTOM
370
     0
100
AcDbLine
 10
-122.2778227412425
 20
38.1129542113569
 30
0.0
 11
-122.2778227412425
 21
38.12310478379715
 31
0.0
  0
LINE
  5
38B1
330
A
100
AcDbEntity
  8
001
  6
PHANTOM
370
     0
100
AcDbLine
 10
-122.2755049152895
 20
38.11219616406365
 30
0.0
 11
-122.2755049152895
 21
38.1001478480309
 31
0.0
  0
LINE
  5
38B2
330
A
100
AcDbEntity
  8
001
  6
PHANTOM
370
     0
100
AcDbLine
 10
-122.2755049152895
 20
38.1359111471234
 30
0.0
 11
-122.2755049152895
 21
38.1238628310904
 31
0.0
  0
SPLINE
  5
38B3
330
A
100
AcDbEntity
  8
001
  6
PHANTOM
370
     0
100
AcDbSpline
210
0.0
220
0.0
230
1.0
 70
     8
 71
     3
 72
    16
 73
    12
 74
     0
 42
0.0000000001
 43
0.0000000001
 40
0.0
 40
0.0
 40
0.0
 40
0.0
 40
0.1568704908550901
 40
0.3047021398990606
 40
0.4434547028221317
 40
0.5730955279264842
 40
0.6935929242154008
 40
0.8049221723393557
 40
0.9070623415054884
 40
0.9999979338200335
 40
1.0
 40
1.0
 40
1.0
 40
1.0
 10
-122.2329612308466
 20
38.16080425867276
 30
0.0
 10
-122.2338207795144
 20
38.16076631128604
 30
0.0
 10
-122.2354903498523
 20
38.16069260303233
 30
0.0
 10
-122.2377791899533
 20
38.16059573035254
 30
0.0
 10
-122.2396903321524
 20
38.16051323660939
 30
0.0
 10
-122.2411868849019
 20
38.16044574516395
 30
0.0
 10
-122.2422720264237
 20
38.16039309106465
 30
0.0
 10
-122.2429783179239
 20
38.16035529461951
 30
0.0
 10
-122.2433570240278
 20
38.16033233849324
 30
0.0
 10
-122.2434354311728
 20
38.16032662676564
 30
0.0
 10
-122.2434354308966
 20
38.16032662678597
 30
0.0
 10
-122.2434354308966
 20
38.16032662678597
 30
0.0
  0
LINE
  5
38B4
330
A
100
AcDbEntity
  8
001
  6
PHANTOM
370
     0
100
AcDbLine
 10
-122.2307562811895
 20
38.1609009175384
 30
0.0
 11
-122.2329612308465
 21
38.16080425867265
 31
0.0
  0
LINE
  5
38B5
330
A
100
AcDbEntity
  8
001
  6
PHANTOM
370
     0
100
AcDbLine
 10
-122.232961280517
 20
38.14494227060515
 30
0.0
 11
-122.2213865303717
 21
38.14494227060515
 31
0.0
  0
LINE
  5
38B6
330
A
100
AcDbEntity
  8
001
  6
PHANTOM
370
     0
100
AcDbLine
 10
-122.2445360306625
 20
38.14494227060515
 30
0.0
 11
-122.232961280517
 21
38.14494227060515
 31
0.0
  0
SPLINE
  5
38B7
330
A
100
AcDbEntity
  8
001
  6
PHANTOM
370
     0
100
AcDbSpline
210
0.0
220
0.0
230
1.0
 70
     8
 71
     3
 72
    11
 73
     7
 74
     0
 42
0.0000000001
 43
0.0000000001
 40
0.0
 40
0.0
 40
0.0
 40
0.0
 40
0.2496515826854712
 40
0.5003173198329859
 40
0.7507430216294332
 40
1.0
 40
1.0
 40
1.0
 40
1.0
 10
-122.1845341706001
 20
38.16341360411383
 30
0.0
 10
-122.1846257656826
 20
38.16204765128603
 30
0.0
 10
-122.1848093279325
 20
38.15931019674849
 30
0.0
 10
-122.1853463466079
 20
38.15523081566514
 30
0.0
 10
-122.1858525519424
 20
38.15114789065282
 30
0.0
 10
-122.1859609671724
 20
38.14840904917651
 30
0.0
 10
-122.1860150479995
 20
38.14704283141928
 30
0.0
  0
LINE
  5
38B8
330
A
100
AcDbEntity
  8
001
  6
PHANTOM
370
     0
100
AcDbLine
 10
-122.1860150479995
 20
38.1470428314194
 30
0.0
 11
-122.1860160910807
 21
38.1466961652174
 31
0.0
  0
SPLINE
  5
38B9
330
A
100
AcDbEntity
  8
001
  6
PHANTOM
370
     0
100
AcDbSpline
210
0.0
220
0.0
230
1.0
 70
     8
 71
     3
 72
    14
 73
    10
 74
     0
 42
0.0000000001
 43
0.0000000001
 40
0.0
 40
0.0
 40
0.0
 40
0.0
 40
0.1305641313479426
 40
0.2709596437079824
 40
0.4211908351292958
 40
0.5869610360039128
 40
0.7453606525043102
 40
0.8830429927901409
 40
1.0
 40
1.0
 40
1.0
 40
1.0
 10
-122.2307562811894
 20
38.16090091753838
 30
0.0
 10
-122.228780029838
 20
38.1610099872195
 30
0.0
 10
-122.2246787168928
 20
38.16123633944679
 30
0.0
 10
-122.2182514538752
 20
38.16158888877643
 30
0.0
 10
-122.2112482551563
 20
38.16197132255558
 30
0.0
 10
-122.2039262418748
 20
38.16236935193265
 30
0.0
 10
-122.1967630854608
 20
38.16275655085864
 30
0.0
 10
-122.1903347054585
 20
38.16310262792304
 30
0.0
 10
-122.1863598429692
 20
38.16331572682271
 30
0.0
 10
-122.1845341706001
 20
38.16341360411383
 30
0.0
  0
SPLINE
  5
38BA
330
A
100
AcDbEntity
  8
001
  6
PHANTOM
370
     0
100
AcDbSpline
210
0.0
220
0.0
230
1.0
 70
     8
 71
     3
 72
    11
 73
     7
 74
     0
 42
0.0000000001
 43
0.0000000001
 40
0.0
 40
0.0
 40
0.0
 40
0.0
 40
0.2411584521061555
 40
0.5000020722919291
 40
0.7588461813209216
 40
1.0
 40
1.0
 40
1.0
 40
1.0
 10
-122.1829612785303
 20
38.14675245435374
 30
0.0
 10
-122.1830030571688
 20
38.14678730568845
 30
0.0
 10
-122.18308967825
 20
38.14685956415345
 30
0.0
 10
-122.1837856157209
 20
38.14695415714347
 30
0.0
 10
-122.1848053753507
 20
38.14702270232427
 30
0.0
 10
-122.1856214482002
 20
38.14703628187238
 30
0.0
 10
-122.1860150479995
 20
38.14704283141928
 30
0.0
  0
LINE
  5
38BB
330
A
100
AcDbEntity
  8
001
  6
PHANTOM
370
     0
100
AcDbLine
 10
-122.3015988601965
 20
38.11234453034665
 30
0.0
 11
-122.3016279422962
 21
38.11234474765539
 31
0.0
  0
ARC
  5
38BC
330
A
100
AcDbEntity
  8
001
  6
PHANTOM
370
     0
100
AcDbCircle
 10
-122.3242930595652
 20
38.1121174226804
 30
0.0
 40
0.0226953357075748
100
AcDbArc
 50
359.4266430721002
 51
0.5733569278998232
  0
LINE
  5
38BD
330
A
100
AcDbEntity
  8
001
  6
PHANTOM
370
     0
100
AcDbLine
 10
-122.3015988601965
 20
38.1118903150139
 30
0.0
 11
-122.3016279422962
 21
38.11189025253765
 31
0.0
  0
LINE
  5
38BE
330
A
100
AcDbEntity
  8
001
  6
PHANTOM
370
     0
100
AcDbLine
 10
-122.3071183993145
 20
38.11204681290715
 30
0.0
 11
-122.3071173313977
 21
38.11232843631665
 31
0.0
  0
LINE
  5
38BF
330
A
100
AcDbEntity
  8
001
  6
PHANTOM
370
     0
100
AcDbLine
 10
-122.3016279422962
 20
38.11234474765539
 30
0.0
 11
-122.3071173313977
 21
38.11232843631665
 31
0.0
  0
LINE
  5
38C0
330
A
100
AcDbEntity
  8
001
  6
PHANTOM
370
     0
100
AcDbLine
 10
-122.3016279422962
 20
38.11189025253765
 30
0.0
 11
-122.3071173313977
 21
38.1118748387609
 31
0.0
  0
LINE
  5
38C1
330
A
100
AcDbEntity
  8
001
  6
PHANTOM
370
     0
100
AcDbLine
 10
-122.3071173313977
 20
38.1118748387609
 30
0.0
 11
-122.3071183993145
 21
38.11204681290715
 31
0.0
  0
LINE
  5
38C2
330
A
100
AcDbEntity
  8
001
  6
PHANTOM
370
     0
100
AcDbLine
 10
-122.3071183993145
 20
38.12401218224715
 30
0.0
 11
-122.3071173313977
 21
38.12418415639315
 31
0.0
  0
LINE
  5
38C3
330
A
100
AcDbEntity
  8
001
  6
PHANTOM
370
     0
100
AcDbLine
 10
-122.3071173313977
 20
38.12418415639315
 30
0.0
 11
-122.3016279422962
 21
38.1241687787054
 31
0.0
  0
LINE
  5
38C4
330
A
100
AcDbEntity
  8
001
  6
PHANTOM
370
     0
100
AcDbLine
 10
-122.3071173313977
 20
38.12373055883765
 30
0.0
 11
-122.3016279422962
 21
38.12371421529065
 31
0.0
  0
LINE
  5
38C5
330
A
100
AcDbEntity
  8
001
  6
PHANTOM
370
     0
100
AcDbLine
 10
-122.3071173313977
 20
38.12373055883765
 30
0.0
 11
-122.3071183993145
 21
38.12401218224715
 31
0.0
  0
LINE
  5
38C6
330
A
100
AcDbEntity
  8
001
  6
PHANTOM
370
     0
100
AcDbLine
 10
-122.3016279422962
 20
38.1241687787054
 30
0.0
 11
-122.3015988601965
 21
38.12416878918265
 31
0.0
  0
ARC
  5
38C7
330
A
100
AcDbEntity
  8
001
  6
PHANTOM
370
     0
100
AcDbCircle
 10
-122.3243039047012
 20
38.12394162699515
 30
0.0
 40
0.0227061808461682
100
AcDbArc
 50
359.4267793500996
 51
0.5732206499003232
  0
LINE
  5
38C8
330
A
100
AcDbEntity
  8
001
  6
PHANTOM
370
     0
100
AcDbLine
 10
-122.3016279422962
 20
38.12371421529065
 30
0.0
 11
-122.3015988601965
 21
38.1237144648074
 31
0.0
  0
SPLINE
  5
38C9
330
A
100
AcDbEntity
  8
001
  6
PHANTOM
370
     0
100
AcDbSpline
210
0.0
220
0.0
230
1.0
 70
     8
 71
     3
 72
    11
 73
     7
 74
     0
 42
0.0000000001
 43
0.0000000001
 40
0.0
 40
0.0
 40
0.0
 40
0.0
 40
0.2500044425801617
 40
0.5000004359087224
 40
0.750000770737131
 40
1.0
 40
1.0
 40
1.0
 40
1.0
 10
-122.3015988601966
 20
38.11234453034674
 30
0.0
 10
-122.3014925715769
 20
38.11233919211921
 30
0.0
 10
-122.3012799979297
 20
38.11232851584456
 30
0.0
 10
-122.3010151128655
 20
38.11226238753716
 30
0.0
 10
-122.3008305052575
 20
38.11216982225571
 30
0.0
 10
-122.3008065815293
 20
38.11209701303877
 30
0.0
 10
-122.3007946196917
 20
38.1120606085108
 30
0.0
  0
SPLINE
  5
38CA
330
A
100
AcDbEntity
  8
001
  6
PHANTOM
370
     0
100
AcDbSpline
210
0.0
220
0.0
230
1.0
 70
     8
 71
     3
 72
    11
 73
     7
 74
     0
 42
0.0000000001
 43
0.0000000001
 40
0.0
 40
0.0
 40
0.0
 40
0.0
 40
0.2499997107687855
 40
0.4999984761723952
 40
0.7499953789256751
 40
1.0
 40
1.0
 40
1.0
 40
1.0
 10
-122.3007946196917
 20
38.1120606085108
 30
0.0
 10
-122.3008065813158
 20
38.1120387699566
 30
0.0
 10
-122.3008305045188
 20
38.1119950929308
 30
0.0
 10
-122.30101511432
 20
38.11193956730501
 30
0.0
 10
-122.3012799972872
 20
38.11189990681124
 30
0.0
 10
-122.3014925714663
 20
38.11189351231257
 30
0.0
 10
-122.3015988601966
 20
38.11189031501388
 30
0.0
  0
SPLINE
  5
38CB
330
A
100
AcDbEntity
  8
001
  6
PHANTOM
370
     0
100
AcDbSpline
210
0.0
220
0.0
230
1.0
 70
     8
 71
     3
 72
    11
 73
     7
 74
     0
 42
0.0000000001
 43
0.0000000001
 40
0.0
 40
0.0
 40
0.0
 40
0.0
 40
0.2500043121836166
 40
0.5000007857687472
 40
0.7500009816870483
 40
1.0
 40
1.0
 40
1.0
 40
1.0
 10
-122.3015988601966
 20
38.12416878918273
 30
0.0
 10
-122.3014925715096
 20
38.12416558272245
 30
0.0
 10
-122.3012799974681
 20
38.12415916990241
 30
0.0
 10
-122.301015113267
 20
38.1241194814448
 30
0.0
 10
-122.3008305052137
 20
38.12406392925327
 30
0.0
 10
-122.3008065815136
 20
38.12402023414576
 30
0.0
 10
-122.3007946196917
 20
38.12399838664346
 30
0.0
  0
SPLINE
  5
38CC
330
A
100
AcDbEntity
  8
001
  6
PHANTOM
370
     0
100
AcDbSpline
210
0.0
220
0.0
230
1.0
 70
     8
 71
     3
 72
    11
 73
     7
 74
     0
 42
0.0000000001
 43
0.0000000001
 40
0.0
 40
0.0
 40
0.0
 40
0.0
 40
0.249999229262869
 40
0.4999995640912775
 40
0.7499955574198383
 40
1.0
 40
1.0
 40
1.0
 40
1.0
 10
-122.3007946196917
 20
38.12399838664346
 30
0.0
 10
-122.3008065815293
 20
38.12396198211549
 30
0.0
 10
-122.3008305052575
 20
38.12388917289855
 30
0.0
 10
-122.3010151128655
 20
38.12379660761709
 30
0.0
 10
-122.3012799979297
 20
38.12373047930969
 30
0.0
 10
-122.3014925715769
 20
38.12371980303504
 30
0.0
 10
-122.3015988601966
 20
38.12371446480751
 30
0.0
  0
SPLINE
  5
38CD
330
A
100
AcDbEntity
  8
001
  6
PHANTOM
370
     0
100
AcDbSpline
210
0.0
220
0.0
230
1.0
 70
     8
 71
     3
 72
    11
 73
     7
 74
     0
 42
0.0000000001
 43
0.0000000001
 40
0.0
 40
0.0
 40
0.0
 40
0.0
 40
0.2500043665116231
 40
0.500001444477595
 40
0.7500007556869612
 40
1.0
 40
1.0
 40
1.0
 40
1.0
 10
-122.3015988601966
 20
38.10160701164441
 30
0.0
 10
-122.3014925714329
 20
38.10161560738939
 30
0.0
 10
-122.3012799970041
 20
38.10163279862873
 30
0.0
 10
-122.3010151141508
 20
38.10173901848358
 30
0.0
 10
-122.3008305047987
 20
38.10188767325431
 30
0.0
 10
-122.300806581393
 20
38.10200459060006
 30
0.0
 10
-122.3007946196917
 20
38.10206304926512
 30
0.0
  0
LINE
  5
38CE
330
A
100
AcDbEntity
  8
001
  6
PHANTOM
370
     0
100
AcDbLine
 10
-122.3015988601965
 20
38.1016070116444
 30
0.0
 11
-122.3015988601965
 21
38.1118903150139
 31
0.0
  0
LINE
  5
38CF
330
A
100
AcDbEntity
  8
001
  6
PHANTOM
370
     0
100
AcDbLine
 10
-122.3015988601965
 20
38.12416878918265
 30
0.0
 11
-122.3015988601965
 21
38.1344519835099
 31
0.0
  0
SPLINE
  5
38D0
330
A
100
AcDbEntity
  8
001
  6
PHANTOM
370
     0
100
AcDbSpline
210
0.0
220
0.0
230
1.0
 70
     8
 71
     3
 72
    11
 73
     7
 74
     0
 42
0.0000000001
 43
0.0000000001
 40
0.0
 40
0.0
 40
0.0
 40
0.0
 40
0.2499992443130387
 40
0.4999985555224051
 40
0.7499956334883771
 40
1.0
 40
1.0
 40
1.0
 40
1.0
 10
-122.3007946196917
 20
38.13399594588913
 30
0.0
 10
-122.300806581393
 20
38.13405440455419
 30
0.0
 10
-122.3008305047987
 20
38.13417132189994
 30
0.0
 10
-122.3010151141508
 20
38.13431997667068
 30
0.0
 10
-122.3012799970041
 20
38.13442619652553
 30
0.0
 10
-122.3014925714329
 20
38.13444338776486
 30
0.0
 10
-122.3015988601966
 20
38.13445198350983
 30
0.0
  0
LINE
  5
38D1
330
A
100
AcDbEntity
  8
001
  6
PHANTOM
370
     0
100
AcDbLine
 10
-122.3071173313977
 20
38.10175802404765
 30
0.0
 11
-122.3016279422962
 21
38.1016063317789
 31
0.0
  0
LINE
  5
38D2
330
A
100
AcDbEntity
  8
001
  6
PHANTOM
370
     0
100
AcDbLine
 10
-122.3071173313977
 20
38.10175802404765
 30
0.0
 11
-122.3071173313977
 21
38.1118748387609
 31
0.0
  0
LINE
  5
38D3
330
A
100
AcDbEntity
  8
001
  6
PHANTOM
370
     0
100
AcDbLine
 10
-122.3016279422962
 20
38.1016063317789
 30
0.0
 11
-122.3015988601965
 21
38.1016070116444
 31
0.0
  0
LINE
  5
38D4
330
A
100
AcDbEntity
  8
001
  6
PHANTOM
370
     0
100
AcDbLine
 10
-122.3015988601965
 20
38.1344519835099
 30
0.0
 11
-122.3016279422962
 21
38.13445263233115
 31
0.0
  0
LINE
  5
38D5
330
A
100
AcDbEntity
  8
001
  6
PHANTOM
370
     0
100
AcDbLine
 10
-122.3071173313977
 20
38.12418415639315
 30
0.0
 11
-122.3071173313977
 21
38.13430097110665
 31
0.0
  0
LINE
  5
38D6
330
A
100
AcDbEntity
  8
001
  6
PHANTOM
370
     0
100
AcDbLine
 10
-122.3016279422962
 20
38.13445263233115
 30
0.0
 11
-122.3071173313977
 21
38.13430097110665
 31
0.0
  0
LINE
  5
38D7
330
A
100
AcDbEntity
  8
001
  6
PHANTOM
370
     0
100
AcDbLine
 10
-122.3015988601965
 20
38.1237144648074
 30
0.0
 11
-122.3015988601965
 21
38.11234453034665
 31
0.0
  0
LINE
  5
38D8
330
A
100
AcDbEntity
  8
001
  6
PHANTOM
370
     0
100
AcDbLine
 10
-122.3071173313977
 20
38.11232843631665
 30
0.0
 11
-122.3071173313977
 21
38.12373055883765
 31
0.0
  0
SPLINE
  5
38D9
330
A
100
AcDbEntity
  8
001
  6
PHANTOM
370
     0
100
AcDbSpline
210
0.0
220
0.0
230
1.0
 70
     8
 71
     3
 72
    12
 73
     8
 74
     0
 42
0.0000000001
 43
0.0000000001
 40
0.0
 40
0.0
 40
0.0
 40
0.0
 40
0.1459335819658582
 40
0.2789111012948761
 40
0.5050902991488686
 40
0.7587954475036706
 40
1.0
 40
1.0
 40
1.0
 40
1.0
 10
-122.3091279450777
 20
38.12409072844088
 30
0.0
 10
-122.3091180411791
 20
38.12409870542682
 30
0.0
 10
-122.3090991126553
 20
38.12411395119757
 30
0.0
 10
-122.308922951245
 20
38.12413955398932
 30
0.0
 10
-122.3085534781639
 20
38.12416248089104
 30
0.0
 10
-122.3079052261431
 20
38.12418122214551
 30
0.0
 10
-122.3073755030045
 20
38.12418319492035
 30
0.0
 10
-122.3071173313978
 20
38.12418415639326
 30
0.0
  0
SPLINE
  5
38DA
330
A
100
AcDbEntity
  8
001
  6
PHANTOM
370
     0
100
AcDbSpline
210
0.0
220
0.0
230
1.0
 70
     8
 71
     3
 72
    12
 73
     8
 74
     0
 42
0.0000000001
 43
0.0000000001
 40
0.0
 40
0.0
 40
0.0
 40
0.0
 40
0.2392333806288144
 40
0.4952550924526454
 40
0.7090970046251092
 40
0.8449871110476063
 40
1.0
 40
1.0
 40
1.0
 40
1.0
 10
-122.3071173313978
 20
38.12373055883771
 30
0.0
 10
-122.3073732675961
 20
38.12373711330039
 30
0.0
 10
-122.3079031004529
 20
38.12375068218872
 30
0.0
 10
-122.3085419169994
 20
38.12383564245772
 30
0.0
 10
-122.3089111573508
 20
38.12392764404032
 30
0.0
 10
-122.3090958988689
 20
38.12401472705916
 30
0.0
 10
-122.3091168049152
 20
38.12406430822541
 30
0.0
 10
-122.3091279450777
 20
38.12409072844088
 30
0.0
  0
SPLINE
  5
38DB
330
A
100
AcDbEntity
  8
001
  6
PHANTOM
370
     0
100
AcDbSpline
210
0.0
220
0.0
230
1.0
 70
     8
 71
     3
 72
    12
 73
     8
 74
     0
 42
0.0000000001
 43
0.0000000001
 40
0.0
 40
0.0
 40
0.0
 40
0.0
 40
0.1549952715624552
 40
0.2908815525379977
 40
0.5047438237974776
 40
0.7607508362541379
 40
1.0
 40
1.0
 40
1.0
 40
1.0
 10
-122.3091279450777
 20
38.11196826671337
 30
0.0
 10
-122.309116814502
 20
38.11199468399898
 30
0.0
 10
-122.3090959256122
 20
38.11204426164721
 30
0.0
 10
-122.3089111647925
 20
38.11213134404964
 30
0.0
 10
-122.3085419474915
 20
38.11222334759992
 30
0.0
 10
-122.3079031225597
 20
38.1123083100114
 30
0.0
 10
-122.3073732858043
 20
38.11232188060971
 30
0.0
 10
-122.3071173313978
 20
38.11232843631655
 30
0.0
  0
SPLINE
  5
38DC
330
A
100
AcDbEntity
  8
001
  6
PHANTOM
370
     0
100
AcDbSpline
210
0.0
220
0.0
230
1.0
 70
     8
 71
     3
 72
    12
 73
     8
 74
     0
 42
0.0000000001
 43
0.0000000001
 40
0.0
 40
0.0
 40
0.0
 40
0.0
 40
0.2411882175934542
 40
0.4949081158066063
 40
0.7210675832230828
 40
0.8540511084470498
 40
1.0
 40
1.0
 40
1.0
 40
1.0
 10
-122.3071173313978
 20
38.111874838761
 30
0.0
 10
-122.3073754843119
 20
38.11187579915715
 30
0.0
 10
-122.3079052032741
 20
38.11187776984981
 30
0.0
 10
-122.308553455483
 20
38.11189651277691
 30
0.0
 10
-122.3089229272384
 20
38.11191944125766
 30
0.0
 10
-122.3090991232466
 20
38.11194504168729
 30
0.0
 10
-122.309118044632
 20
38.11196028879873
 30
0.0
 10
-122.3091279450777
 20
38.11196826671337
 30
0.0
  0
SPLINE
  5
38DD
330
A
100
AcDbEntity
  8
001
  6
PHANTOM
370
     0
100
AcDbSpline
210
0.0
220
0.0
230
1.0
 70
     8
 71
     3
 72
    12
 73
     8
 74
     0
 42
0.0000000001
 43
0.0000000001
 40
0.0
 40
0.0
 40
0.0
 40
0.0
 40
0.2411882108938873
 40
0.4949081624957595
 40
0.7210675227365879
 40
0.854051343771764
 40
1.0
 40
1.0
 40
1.0
 40
1.0
 10
-122.3071173313978
 20
38.13430097110657
 30
0.0
 10
-122.3073754843381
 20
38.13427474196935
 30
0.0
 10
-122.3079052034186
 20
38.13422092087231
 30
0.0
 10
-122.3085534551727
 20
38.13390052668443
 30
0.0
 10
-122.3089229276585
 20
38.13352657542463
 30
0.0
 10
-122.3090991229997
 20
38.13317986393958
 30
0.0
 10
-122.3091180445591
 20
38.13297956820571
 30
0.0
 10
-122.3091279450777
 20
38.13287476544665
 30
0.0
  0
SPLINE
  5
38DE
330
A
100
AcDbEntity
  8
001
  6
PHANTOM
370
     0
100
AcDbSpline
210
0.0
220
0.0
230
1.0
 70
     8
 71
     3
 72
    12
 73
     8
 74
     0
 42
0.0000000001
 43
0.0000000001
 40
0.0
 40
0.0
 40
0.0
 40
0.0
 40
0.1459337734018801
 40
0.2789113589096651
 40
0.505090528218183
 40
0.7587953899659051
 40
1.0
 40
1.0
 40
1.0
 40
1.0
 10
-122.3091279450777
 20
38.10318422970759
 30
0.0
 10
-122.3091180411909
 20
38.1030794383173
 30
0.0
 10
-122.3090991126969
 20
38.10287915905098
 30
0.0
 10
-122.3089229513
 20
38.1025324428857
 30
0.0
 10
-122.3085534785612
 20
38.10215849001626
 30
0.0
 10
-122.3079052255078
 20
38.10183807171634
 30
0.0
 10
-122.307375502918
 20
38.1017842534966
 30
0.0
 10
-122.3071173313978
 20
38.10175802404769
 30
0.0
  0
SPLINE
  5
38DF
330
A
100
AcDbEntity
  8
001
  6
PHANTOM
370
     0
100
AcDbSpline
210
0.0
220
0.0
230
1.0
 70
     8
 71
     3
 72
    12
 73
     8
 74
     0
 42
0.0000000001
 43
0.0000000001
 40
0.0
 40
0.0
 40
0.0
 40
0.0
 40
0.1549950987097924
 40
0.2908818297747333
 40
0.5047440037141246
 40
0.7607506831205432
 40
1.0
 40
1.0
 40
1.0
 40
1.0
 10
-122.3091279450777
 20
38.13287476544665
 30
0.0
 10
-122.3091168144077
 20
38.13300938498234
 30
0.0
 10
-122.3090959252977
 20
38.13326202766065
 30
0.0
 10
-122.308911165321
 20
38.13368137035782
 30
0.0
 10
-122.3085419477733
 20
38.13412341162783
 30
0.0
 10
-122.3079031216926
 20
38.13450556212009
 30
0.0
 10
-122.3073732856951
 20
38.13456904014238
 30
0.0
 10
-122.3071173313978
 20
38.13459970524
 30
0.0
  0
SPLINE
  5
38E0
330
A
100
AcDbEntity
  8
001
  6
PHANTOM
370
     0
100
AcDbSpline
210
0.0
220
0.0
230
1.0
 70
     8
 71
     3
 72
    12
 73
     8
 74
     0
 42
0.0000000001
 43
0.0000000001
 40
0.0
 40
0.0
 40
0.0
 40
0.0
 40
0.23923319381383
 40
0.4952551121281998
 40
0.7090966881973046
 40
0.8449870217147855
 40
1.0
 40
1.0
 40
1.0
 40
1.0
 10
-122.3071173313978
 20
38.14266222375222
 30
0.0
 10
-122.3073732677169
 20
38.14264083023751
 30
0.0
 10
-122.3079031012588
 20
38.14259654187036
 30
0.0
 10
-122.308541916054
 20
38.14233456467786
 30
0.0
 10
-122.3089111579069
 20
38.14202264450235
 30
0.0
 10
-122.3090958987335
 20
38.14172645144403
 30
0.0
 10
-122.3091168048719
 20
38.14154391015406
 30
0.0
 10
-122.3091279450777
 20
38.14144663979696
 30
0.0
  0
LINE
  5
38E1
330
A
100
AcDbEntity
  8
001
  6
PHANTOM
370
     0
100
AcDbLine
 10
-122.3071173313977
 20
38.13459970523989
 30
0.0
 11
-122.3071173313977
 21
38.14266222375215
 31
0.0
  0
ARC
  5
38E2
330
A
100
AcDbEntity
  8
001
  6
PHANTOM
370
     0
100
AcDbCircle
 10
-122.3111824826985
 20
38.13460117672965
 30
0.0
 40
0.0095847837155267
100
AcDbArc
 50
359.1081189407003
 51
0.8918810592995958
  0
SPLINE
  5
38E3
330
A
100
AcDbEntity
  8
001
  6
PHANTOM
370
     0
100
AcDbSpline
210
0.0
220
0.0
230
1.0
 70
     8
 71
     3
 72
    11
 73
     7
 74
     0
 42
0.0000000001
 43
0.0000000001
 40
0.0
 40
0.0
 40
0.0
 40
0.0
 40
0.2500042863279339
 40
0.5000018395854738
 40
0.7500003835746289
 40
1.0
 40
1.0
 40
1.0
 40
1.0
 10
-122.3015988601966
 20
38.13475036994951
 30
0.0
 10
-122.3014925713598
 20
38.13473616478727
 30
0.0
 10
-122.3012799965487
 20
38.13470775484535
 30
0.0
 10
-122.3010151148979
 20
38.13453203775905
 30
0.0
 10
-122.3008305043953
 20
38.13428610234952
 30
0.0
 10
-122.3008065812767
 20
38.13409266484756
 30
0.0
 10
-122.3007946196917
 20
38.13399594588913
 30
0.0
  0
ARC
  5
38E4
330
A
100
AcDbEntity
  8
001
  6
PHANTOM
370
     0
100
AcDbCircle
 10
-122.311179877092
 20
38.1014578401554
 30
0.0
 40
0.0095821780865101
100
AcDbArc
 50
359.1080063502999
 51
0.8919936497001021
  0
SPLINE
  5
38E5
330
A
100
AcDbEntity
  8
001
  6
PHANTOM
370
     0
100
AcDbSpline
210
0.0
220
0.0
230
1.0
 70
     8
 71
     3
 72
    11
 73
     7
 74
     0
 42
0.0000000001
 43
0.0000000001
 40
0.0
 40
0.0
 40
0.0
 40
0.0
 40
0.2499986086922922
 40
0.4999985883854831
 40
0.7499952824685408
 40
1.0
 40
1.0
 40
1.0
 40
1.0
 10
-122.3007946196917
 20
38.10206304926512
 30
0.0
 10
-122.3008065815173
 20
38.10196633456612
 30
0.0
 10
-122.3008305052341
 20
38.10177290463771
 30
0.0
 10
-122.3010151134921
 20
38.10152697920876
 30
0.0
 10
-122.3012799975763
 20
38.10135127501874
 30
0.0
 10
-122.3014925715194
 20
38.10132287093582
 30
0.0
 10
-122.3015988601966
 20
38.10130866866646
 30
0.0
  0
SPLINE
  5
38E6
330
A
100
AcDbEntity
  8
001
  6
PHANTOM
370
     0
100
AcDbSpline
210
0.0
220
0.0
230
1.0
 70
     8
 71
     3
 72
     9
 73
     5
 74
     0
 42
0.0000000001
 43
0.0000000001
 40
0.0
 40
0.0
 40
0.0
 40
0.0
 40
0.499997732909444
 40
1.0
 40
1.0
 40
1.0
 40
1.0
 10
-122.3071173313978
 20
38.13430097110657
 30
0.0
 10
-122.3071179026073
 20
38.1343626656126
 30
0.0
 10
-122.3071190450314
 20
38.13448605518416
 30
0.0
 10
-122.3071179026107
 20
38.13456182177354
 30
0.0
 10
-122.3071173313978
 20
38.13459970524
 30
0.0
  0
LINE
  5
38E7
330
A
100
AcDbEntity
  8
001
  6
PHANTOM
370
     0
100
AcDbLine
 10
-122.3016279422962
 20
38.13475120348315
 30
0.0
 11
-122.3071173313977
 21
38.13459970523989
 31
0.0
  0
SPLINE
  5
38E8
330
A
100
AcDbEntity
  8
001
  6
PHANTOM
370
     0
100
AcDbSpline
210
0.0
220
0.0
230
1.0
 70
     8
 71
     3
 72
     9
 73
     5
 74
     0
 42
0.0000000001
 43
0.0000000001
 40
0.0
 40
0.0
 40
0.0
 40
0.0
 40
0.5000022670905561
 40
1.0
 40
1.0
 40
1.0
 40
1.0
 10
-122.3071173313978
 20
38.10145928991424
 30
0.0
 10
-122.3071179026107
 20
38.10149717338071
 30
0.0
 10
-122.3071190450314
 20
38.1015729399701
 30
0.0
 10
-122.3071179026073
 20
38.10169632954165
 30
0.0
 10
-122.3071173313978
 20
38.10175802404769
 30
0.0
  0
LINE
  5
38E9
330
A
100
AcDbEntity
  8
001
  6
PHANTOM
370
     0
100
AcDbLine
 10
-122.3071173313977
 20
38.10145928991415
 30
0.0
 11
-122.3016279422962
 21
38.10130780719315
 31
0.0
  0
LINE
  5
38EA
330
A
100
AcDbEntity
  8
001
  6
PHANTOM
370
     0
100
AcDbLine
 10
-122.3015988601965
 20
38.1347503699494
 30
0.0
 11
-122.3016279422962
 21
38.13475120348315
 31
0.0
  0
LINE
  5
38EB
330
A
100
AcDbEntity
  8
001
  6
PHANTOM
370
     0
100
AcDbLine
 10
-122.3016279422962
 20
38.10130780719315
 30
0.0
 11
-122.3015988601965
 21
38.1013086686664
 31
0.0
  0
SPLINE
  5
38EC
330
A
100
AcDbEntity
  8
001
  6
PHANTOM
370
     0
100
AcDbSpline
210
0.0
220
0.0
230
1.0
 70
     8
 71
     3
 72
    11
 73
     7
 74
     0
 42
0.0000000001
 43
0.0000000001
 40
0.0
 40
0.0
 40
0.0
 40
0.0
 40
0.2500042863279339
 40
0.5000018395854738
 40
0.7500003835746289
 40
1.0
 40
1.0
 40
1.0
 40
1.0
 10
-122.3015988601966
 20
38.09326900481023
 30
0.0
 10
-122.3014925713598
 20
38.09327564905338
 30
0.0
 10
-122.3012799965487
 20
38.09328893736074
 30
0.0
 10
-122.3010151148979
 20
38.09337110292815
 30
0.0
 10
-122.3008305043953
 20
38.0934860959838
 30
0.0
 10
-122.3008065812767
 20
38.09357654294222
 30
0.0
 10
-122.3007946196917
 20
38.09362176651843
 30
0.0
  0
LINE
  5
38ED
330
A
100
AcDbEntity
  8
001
  6
PHANTOM
370
     0
100
AcDbLine
 10
-122.3015988601965
 20
38.1013086686664
 30
0.0
 11
-122.3015988601965
 21
38.09326900481015
 31
0.0
  0
SPLINE
  5
38EE
330
A
100
AcDbEntity
  8
001
  6
PHANTOM
370
     0
100
AcDbSpline
210
0.0
220
0.0
230
1.0
 70
     8
 71
     3
 72
    12
 73
     8
 74
     0
 42
0.0000000001
 43
0.0000000001
 40
0.0
 40
0.0
 40
0.0
 40
0.0
 40
0.2392252125385547
 40
0.49525682944405
 40
0.7088488791058767
 40
0.8448025962729962
 40
1.0
 40
1.0
 40
1.0
 40
1.0
 10
-122.3071173313978
 20
38.10145928991424
 30
0.0
 10
-122.3073732583424
 20
38.10148994526327
 30
0.0
 10
-122.3079030919906
 20
38.10155340960637
 30
0.0
 10
-122.3085416928279
 20
38.10193543385579
 30
0.0
 10
-122.3089108913478
 20
38.10237725318998
 30
0.0
 10
-122.3090958552836
 20
38.10279654285896
 30
0.0
 10
-122.309116787311
 20
38.10304942923432
 30
0.0
 10
-122.3091279450777
 20
38.10318422970759
 30
0.0
  0
LINE
  5
38EF
330
A
100
AcDbEntity
  8
001
  6
PHANTOM
370
     0
100
AcDbLine
 10
-122.3015988601965
 20
38.1427900850284
 30
0.0
 11
-122.3015988601965
 21
38.1347503699494
 31
0.0
  0
SPLINE
  5
38F0
330
A
100
AcDbEntity
  8
001
  6
PHANTOM
370
     0
100
AcDbSpline
210
0.0
220
0.0
230
1.0
 70
     8
 71
     3
 72
    11
 73
     7
 74
     0
 42
0.0000000001
 43
0.0000000001
 40
0.0
 40
0.0
 40
0.0
 40
0.0
 40
0.2499986086922922
 40
0.4999985883854831
 40
0.7499952824685408
 40
1.0
 40
1.0
 40
1.0
 40
1.0
 10
-122.3007946196917
 20
38.14243722863583
 30
0.0
 10
-122.3008065815173
 20
38.14248245985869
 30
0.0
 10
-122.3008305052341
 20
38.14257292255248
 30
0.0
 10
-122.3010151134921
 20
38.14268794090294
 30
0.0
 10
-122.3012799975763
 20
38.14277012681823
 30
0.0
 10
-122.3014925715194
 20
38.14278343222056
 30
0.0
 10
-122.3015988601966
 20
38.14279008502849
 30
0.0
  0
LINE
  5
38F1
330
A
100
AcDbEntity
  8
001
  6
PHANTOM
370
     0
100
AcDbLine
 10
-122.3015988601965
 20
38.09326900481015
 30
0.0
 11
-122.3016279422962
 21
38.0932683559889
 31
0.0
  0
LINE
  5
38F2
330
A
100
AcDbEntity
  8
001
  6
PHANTOM
370
     0
100
AcDbLine
 10
-122.3016279422962
 20
38.0932683559889
 30
0.0
 11
-122.3071173313977
 21
38.09339677140215
 31
0.0
  0
LINE
  5
38F3
330
A
100
AcDbEntity
  8
001
  6
PHANTOM
370
     0
100
AcDbLine
 10
-122.3071173313977
 20
38.09339677140215
 30
0.0
 11
-122.3071173313977
 21
38.10145928991415
 31
0.0
  0
LINE
  5
38F4
330
A
100
AcDbEntity
  8
001
  6
PHANTOM
370
     0
100
AcDbLine
 10
-122.3071173313977
 20
38.14266222375215
 30
0.0
 11
-122.3016279422962
 21
38.1427906391654
 31
0.0
  0
LINE
  5
38F5
330
A
100
AcDbEntity
  8
001
  6
PHANTOM
370
     0
100
AcDbLine
 10
-122.3016279422962
 20
38.1427906391654
 30
0.0
 11
-122.3015988601965
 21
38.1427900850284
 31
0.0
  0
SPLINE
  5
38F6
330
A
100
AcDbEntity
  8
001
  6
PHANTOM
370
     0
100
AcDbSpline
210
0.0
220
0.0
230
1.0
 70
     8
 71
     3
 72
    12
 73
     8
 74
     0
 42
0.0000000001
 43
0.0000000001
 40
0.0
 40
0.0
 40
0.0
 40
0.0
 40
0.1551780233136151
 40
0.2911220306974284
 40
0.5047417070248343
 40
0.7607586325370645
 40
1.0
 40
1.0
 40
1.0
 40
1.0
 10
-122.3091279450777
 20
38.09461235535728
 30
0.0
 10
-122.3091167805143
 20
38.09451498604336
 30
0.0
 10
-122.3090958352135
 20
38.09433231615369
 30
0.0
 10
-122.3089109473173
 20
38.0940361520279
 30
0.0
 10
-122.3085417130493
 20
38.09372436628335
 30
0.0
 10
-122.3079031176139
 20
38.09346247712515
 30
0.0
 10
-122.3073732778318
 20
38.09341817308252
 30
0.0
 10
-122.3071173313978
 20
38.09339677140204
 30
0.0
  0
ARC
  5
38F7
330
A
100
AcDbEntity
  8
001
  6
PHANTOM
370
     0
100
AcDbCircle
 10
-122.314463872282
 20
38.1429621228149
 30
0.0
 40
0.0128661623242853
100
AcDbArc
 50
359.2338560181998
 51
0.7661439818001748
  0
SPLINE
  5
38F8
330
A
100
AcDbEntity
  8
001
  6
PHANTOM
370
     0
100
AcDbSpline
210
0.0
220
0.0
230
1.0
 70
     8
 71
     3
 72
    11
 73
     7
 74
     0
 42
0.0000000001
 43
0.0000000001
 40
0.0
 40
0.0
 40
0.0
 40
0.0
 40
0.250004602784717
 40
0.5000011684981764
 40
0.7500006039540664
 40
1.0
 40
1.0
 40
1.0
 40
1.0
 10
-122.3015988601966
 20
38.14313416060148
 30
0.0
 10
-122.3014925715133
 20
38.14312103752087
 30
0.0
 10
-122.3012799975637
 20
38.14309479178152
 30
0.0
 10
-122.3010151137265
 20
38.14293246896077
 30
0.0
 10
-122.3008305048585
 20
38.14270527466161
 30
0.0
 10
-122.3008065814133
 20
38.14252657730639
 30
0.0
 10
-122.3007946196917
 20
38.14243722863583
 30
0.0
  0
ARC
  5
38F9
330
A
100
AcDbEntity
  8
001
  6
PHANTOM
370
     0
100
AcDbCircle
 10
-122.3144664147682
 20
38.09309695072565
 30
0.0
 40
0.0128687048013265
100
AcDbArc
 50
359.2339348233996
 51
0.766065176600376
  0
SPLINE
  5
38FA
330
A
100
AcDbEntity
  8
001
  6
PHANTOM
370
     0
100
AcDbSpline
210
0.0
220
0.0
230
1.0
 70
     8
 71
     3
 72
    11
 73
     7
 74
     0
 42
0.0000000001
 43
0.0000000001
 40
0.0
 40
0.0
 40
0.0
 40
0.0
 40
0.2499992443130387
 40
0.4999985555224051
 40
0.7499956334883771
 40
1.0
 40
1.0
 40
1.0
 40
1.0
 10
-122.3007946196917
 20
38.09362176651843
 30
0.0
 10
-122.300806581393
 20
38.0935324229741
 30
0.0
 10
-122.3008305047987
 20
38.09335373586153
 30
0.0
 10
-122.3010151141508
 20
38.09312655759384
 30
0.0
 10
-122.3012799970041
 20
38.09296424766343
 30
0.0
 10
-122.3014925714329
 20
38.09293801377592
 30
0.0
 10
-122.3015988601966
 20
38.09292489664095
 30
0.0
  0
SPLINE
  5
38FB
330
A
100
AcDbEntity
  8
001
  6
PHANTOM
370
     0
100
AcDbSpline
210
0.0
220
0.0
230
1.0
 70
     8
 71
     3
 72
     9
 73
     5
 74
     0
 42
0.0000000001
 43
0.0000000001
 40
0.0
 40
0.0
 40
0.0
 40
0.0
 40
0.4999968080202497
 40
1.0
 40
1.0
 40
1.0
 40
1.0
 10
-122.3071173313978
 20
38.09305402296372
 30
0.0
 10
-122.3071179026066
 20
38.09310077066816
 30
0.0
 10
-122.3071190450314
 20
38.0931942666739
 30
0.0
 10
-122.3071179026115
 20
38.09332926953871
 30
0.0
 10
-122.3071173313978
 20
38.09339677140204
 30
0.0
  0
LINE
  5
38FC
330
A
100
AcDbEntity
  8
001
  6
PHANTOM
370
     0
100
AcDbLine
 10
-122.3016279422962
 20
38.0929241065689
 30
0.0
 11
-122.3071173313977
 21
38.09305402296365
 31
0.0
  0
SPLINE
  5
38FD
330
A
100
AcDbEntity
  8
001
  6
PHANTOM
370
     0
100
AcDbSpline
210
0.0
220
0.0
230
1.0
 70
     8
 71
     3
 72
     9
 73
     5
 74
     0
 42
0.0000000001
 43
0.0000000001
 40
0.0
 40
0.0
 40
0.0
 40
0.0
 40
0.5000031919797504
 40
1.0
 40
1.0
 40
1.0
 40
1.0
 10
-122.3071173313978
 20
38.14266222375222
 30
0.0
 10
-122.3071179026115
 20
38.14272972561554
 30
0.0
 10
-122.3071190450314
 20
38.14286472848035
 30
0.0
 10
-122.3071179026066
 20
38.1429582244861
 30
0.0
 10
-122.3071173313978
 20
38.14300497219054
 30
0.0
  0
LINE
  5
38FE
330
A
100
AcDbEntity
  8
001
  6
PHANTOM
370
     0
100
AcDbLine
 10
-122.3071173313977
 20
38.14300497219065
 30
0.0
 11
-122.3016279422962
 21
38.1431348668544
 31
0.0
  0
LINE
  5
38FF
330
A
100
AcDbEntity
  8
001
  6
PHANTOM
370
     0
100
AcDbLine
 10
-122.3015988601965
 20
38.0929248966409
 30
0.0
 11
-122.3016279422962
 21
38.0929241065689
 31
0.0
  0
LINE
  5
3900
330
A
100
AcDbEntity
  8
001
  6
PHANTOM
370
     0
100
AcDbLine
 10
-122.3016279422962
 20
38.1431348668544
 30
0.0
 11
-122.3015988601965
 21
38.14313416060139
 31
0.0
  0
SPLINE
  5
3901
330
A
100
AcDbEntity
  8
001
  6
PHANTOM
370
     0
100
AcDbSpline
210
0.0
220
0.0
230
1.0
 70
     8
 71
     3
 72
    12
 73
     8
 74
     0
 42
0.0000000001
 43
0.0000000001
 40
0.0
 40
0.0
 40
0.0
 40
0.0
 40
0.1459337734018801
 40
0.2789113589096651
 40
0.505090528218183
 40
0.7587953899659051
 40
1.0
 40
1.0
 40
1.0
 40
1.0
 10
-122.3091279450777
 20
38.14144663979696
 30
0.0
 10
-122.3091180411909
 20
38.14156271305234
 30
0.0
 10
-122.3090991126969
 20
38.14178455443035
 30
0.0
 10
-122.3089229513
 20
38.14216747549387
 30
0.0
 10
-122.3085534785612
 20
38.14257385440578
 30
0.0
 10
-122.3079052255078
 20
38.14292077615334
 30
0.0
 10
-122.307375502918
 20
38.14297738343382
 30
0.0
 10
-122.3071173313978
 20
38.14300497219054
 30
0.0
  0
SPLINE
  5
3902
330
A
100
AcDbEntity
  8
001
  6
PHANTOM
370
     0
100
AcDbSpline
210
0.0
220
0.0
230
1.0
 70
     8
 71
     3
 72
    12
 73
     8
 74
     0
 42
0.0000000001
 43
0.0000000001
 40
0.0
 40
0.0
 40
0.0
 40
0.0
 40
0.241187685357079
 40
0.4949155766036317
 40
0.7209772980431929
 40
0.8539830996156451
 40
1.0
 40
1.0
 40
1.0
 40
1.0
 10
-122.3071173313978
 20
38.09305402296372
 30
0.0
 10
-122.3073754831484
 20
38.09308160487436
 30
0.0
 10
-122.3079052088776
 20
38.09313820277729
 30
0.0
 10
-122.308553397147
 20
38.09348507029158
 30
0.0
 10
-122.3089228309211
 20
38.09389138997264
 30
0.0
 10
-122.3090990990199
 20
38.09427427816234
 30
0.0
 10
-122.3091180353848
 20
38.09449621327588
 30
0.0
 10
-122.3091279450777
 20
38.09461235535728
 30
0.0
  0
LINE
  5
3903
330
A
100
AcDbEntity
  8
001
  6
PHANTOM
370
     0
100
AcDbLine
 10
-122.3015988601965
 20
38.14313416060139
 30
0.0
 11
-122.3015988601965
 21
38.1473935830229
 31
0.0
  0
SPLINE
  5
3904
330
A
100
AcDbEntity
  8
001
  6
PHANTOM
370
     0
100
AcDbSpline
210
0.0
220
0.0
230
1.0
 70
     8
 71
     3
 72
    11
 73
     7
 74
     0
 42
0.0000000001
 43
0.0000000001
 40
0.0
 40
0.0
 40
0.0
 40
0.0
 40
0.2499997107687855
 40
0.4999984761723952
 40
0.7499953789256751
 40
1.0
 40
1.0
 40
1.0
 40
1.0
 10
-122.3007946196917
 20
38.14657835291164
 30
0.0
 10
-122.3008065813158
 20
38.14668286517693
 30
0.0
 10
-122.3008305045188
 20
38.14689188931229
 30
0.0
 10
-122.30101511432
 20
38.14715764296667
 30
0.0
 10
-122.3012799972872
 20
38.14734752151387
 30
0.0
 10
-122.3014925714663
 20
38.14737822902857
 30
0.0
 10
-122.3015988601966
 20
38.14739358302293
 30
0.0
  0
SPLINE
  5
3905
330
A
100
AcDbEntity
  8
001
  6
PHANTOM
370
     0
100
AcDbSpline
210
0.0
220
0.0
230
1.0
 70
     8
 71
     3
 72
    11
 73
     7
 74
     0
 42
0.0000000001
 43
0.0000000001
 40
0.0
 40
0.0
 40
0.0
 40
0.0
 40
0.2500043121836166
 40
0.5000007857687472
 40
0.7500009816870483
 40
1.0
 40
1.0
 40
1.0
 40
1.0
 10
-122.3015988601966
 20
38.08866543386219
 30
0.0
 10
-122.3014925715096
 20
38.08868078580627
 30
0.0
 10
-122.3012799974681
 20
38.08871148921311
 30
0.0
 10
-122.301015113267
 20
38.08890136163688
 30
0.0
 10
-122.3008305052137
 20
38.08916711152281
 30
0.0
 10
-122.3008065815136
 20
38.08937613216677
 30
0.0
 10
-122.3007946196917
 20
38.0894806422426
 30
0.0
  0
LINE
  5
3906
330
A
100
AcDbEntity
  8
001
  6
PHANTOM
370
     0
100
AcDbLine
 10
-122.3015988601965
 20
38.08866543386215
 30
0.0
 11
-122.3015988601965
 21
38.0929248966409
 31
0.0
  0
LINE
  5
3907
330
A
100
AcDbEntity
  8
001
  6
PHANTOM
370
     0
100
AcDbLine
 10
-122.3071173313977
 20
38.14300497219065
 30
0.0
 11
-122.3071173313977
 21
38.14719549381565
 31
0.0
  0
LINE
  5
3908
330
A
100
AcDbEntity
  8
001
  6
PHANTOM
370
     0
100
AcDbLine
 10
-122.3016279422962
 20
38.14739460747765
 30
0.0
 11
-122.3071173313977
 21
38.14719549381565
 31
0.0
  0
LINE
  5
3909
330
A
100
AcDbEntity
  8
001
  6
PHANTOM
370
     0
100
AcDbLine
 10
-122.3015988601965
 20
38.1473935830229
 30
0.0
 11
-122.3016279422962
 21
38.14739460747765
 31
0.0
  0
LINE
  5
390A
330
A
100
AcDbEntity
  8
001
  6
PHANTOM
370
     0
100
AcDbLine
 10
-122.3071173313977
 20
38.08886350133865
 30
0.0
 11
-122.3016279422962
 21
38.0886643938854
 31
0.0
  0
LINE
  5
390B
330
A
100
AcDbEntity
  8
001
  6
PHANTOM
370
     0
100
AcDbLine
 10
-122.3071173313977
 20
38.08886350133865
 30
0.0
 11
-122.3071173313977
 21
38.09305402296365
 31
0.0
  0
LINE
  5
390C
330
A
100
AcDbEntity
  8
001
  6
PHANTOM
370
     0
100
AcDbLine
 10
-122.3016279422962
 20
38.0886643938854
 30
0.0
 11
-122.3015988601965
 21
38.08866543386215
 31
0.0
  0
ARC
  5
390D
330
A
100
AcDbEntity
  8
001
  6
PHANTOM
370
     0
100
AcDbCircle
 10
-122.3013373815732
 20
38.08867249486215
 30
0.0
 40
0.0002615739439822
100
AcDbArc
 50
181.5468461210999
 51
185.4054967499997
  0
ARC
  5
390E
330
A
100
AcDbEntity
  8
001
  6
PHANTOM
370
     0
100
AcDbCircle
 10
-122.301339015969
 20
38.1473865909444
 30
0.0
 40
0.0002599382845008
100
AcDbArc
 50
174.5804586544998
 51
178.4586152279996
  0
LINE
  5
390F
330
A
100
AcDbEntity
  8
001
  6
PHANTOM
370
     0
100
AcDbLine
 10
-122.3071183993145
 20
38.0888456137364
 30
0.0
 11
-122.3071173313977
 21
38.08886350133865
 31
0.0
  0
LINE
  5
3910
330
A
100
AcDbEntity
  8
001
  6
PHANTOM
370
     0
100
AcDbLine
 10
-122.2512946261687
 20
38.11802949757715
 30
0.0
 11
-122.2512946261687
 21
38.0940294979894
 31
0.0
  0
LINE
  5
3911
330
A
100
AcDbEntity
  8
001
  6
PHANTOM
370
     0
100
AcDbLine
 10
-122.2512946261687
 20
38.1420294971649
 30
0.0
 11
-122.2512946261687
 21
38.11802949757715
 31
0.0
  0
LINE
  5
3912
330
A
100
AcDbEntity
  8
001
  6
PHANTOM
370
     0
100
AcDbLine
 10
-121.981398740253
 20
38.07862550952865
 30
0.0
 11
-121.981398740253
 21
38.15743348562565
 31
0.0
  0
LINE
  5
3913
330
A
100
AcDbEntity
  8
001
  6
PHANTOM
370
     0
100
AcDbLine
 10
-121.9936270141947
 20
38.14180846948265
 30
0.0
 11
-121.9936270141947
 21
38.09425052567165
 31
0.0
  0
LINE
  5
3914
330
A
100
AcDbEntity
  8
001
  6
PHANTOM
370
     0
100
AcDbLine
 10
-121.9962520306902
 20
38.0955294969934
 30
0.0
 11
-121.9962520306902
 21
38.14052949816065
 31
0.0
  0
LINE
  5
3915
330
A
100
AcDbEntity
  8
001
  6
PHANTOM
370
     0
100
AcDbLine
 10
-121.979627948733
 20
38.06312168639239
 30
0.0
 11
-121.9827827504032
 21
38.0649939489994
 31
0.0
  0
SPLINE
  5
3916
330
A
100
AcDbEntity
  8
001
  6
PHANTOM
370
     0
100
AcDbSpline
210
0.0
220
0.0
230
1.0
 70
     8
 71
     3
 72
    11
 73
     7
 74
     0
 42
0.0000000001
 43
0.0000000001
 40
0.0
 40
0.0
 40
0.0
 40
0.0
 40
0.2500945408155372
 40
0.4999948402560767
 40
0.7497195604726189
 40
1.0
 40
1.0
 40
1.0
 40
1.0
 10
-121.9827827504033
 20
38.06499394899942
 30
0.0
 10
-121.9829326792353
 20
38.06509453850162
 30
0.0
 10
-121.9832324204537
 20
38.06529563938099
 30
0.0
 10
-121.9835463856473
 20
38.06567617059734
 30
0.0
 10
-121.9837569959321
 20
38.06609092337411
 30
0.0
 10
-121.9837820659684
 20
38.06638256934241
 30
0.0
 10
-121.9837946149183
 20
38.0665285543982
 30
0.0
  0
LINE
  5
3917
330
A
100
AcDbEntity
  8
001
  6
PHANTOM
370
     0
100
AcDbLine
 10
-121.9837946149182
 20
38.06652855439815
 30
0.0
 11
-121.9837946149182
 21
38.07524953659715
 31
0.0
  0
SPLINE
  5
3918
330
A
100
AcDbEntity
  8
001
  6
PHANTOM
370
     0
100
AcDbSpline
210
0.0
220
0.0
230
1.0
 70
     8
 71
     3
 72
    11
 73
     7
 74
     0
 42
0.0000000001
 43
0.0000000001
 40
0.0
 40
0.0
 40
0.0
 40
0.0
 40
0.2500947865967442
 40
0.4999963989113715
 40
0.7497207529377809
 40
1.0
 40
1.0
 40
1.0
 40
1.0
 10
-121.9837946149183
 20
38.07524953659711
 30
0.0
 10
-121.983782034497
 20
38.07539540858492
 30
0.0
 10
-121.9837568833714
 20
38.0756870398884
 30
0.0
 10
-121.9835465146964
 20
38.07610172229379
 30
0.0
 10
-121.9832326277356
 20
38.07648242684882
 30
0.0
 10
-121.9829328204206
 20
38.07668349589952
 30
0.0
 10
-121.9827827504033
 20
38.07678414199589
 30
0.0
  0
LINE
  5
3919
330
A
100
AcDbEntity
  8
001
  6
PHANTOM
370
     0
100
AcDbLine
 10
-121.9827827504032
 20
38.0767841419959
 30
0.0
 11
-121.9808939052097
 21
38.0779051066819
 31
0.0
  0
ARC
  5
391A
330
A
100
AcDbEntity
  8
001
  6
PHANTOM
370
     0
100
AcDbCircle
 10
-121.9821760497852
 20
38.0642866842529
 30
0.0
 40
0.0009318310262642
100
AcDbArc
 50
130.6234088123999
 51
174.8959615165998
  0
LINE
  5
391B
330
A
100
AcDbEntity
  8
001
  6
PHANTOM
370
     0
100
AcDbLine
 10
-121.979627948733
 20
38.06230655562215
 30
0.0
 11
-121.9831041859125
 21
38.06436958413664
 31
0.0
  0
LINE
  5
391C
330
A
100
AcDbEntity
  8
001
  6
PHANTOM
370
     0
100
AcDbLine
 10
-121.9831041859125
 20
38.06436958413664
 30
0.0
 11
-121.9831041859125
 21
38.06036264326515
 31
0.0
  0
LINE
  5
391D
330
A
100
AcDbEntity
  8
001
  6
PHANTOM
370
     0
100
AcDbLine
 10
-121.9831041859125
 20
38.06036264326515
 30
0.0
 11
-121.979627948733
 21
38.05829962095965
 31
0.0
  0
ARC
  5
391E
330
A
100
AcDbEntity
  8
001
  6
PHANTOM
370
     0
100
AcDbCircle
 10
-121.9821236958512
 20
38.0663112582409
 30
0.0
 40
0.0021751917359242
100
AcDbArc
 50
183.5914833504002
 51
243.207526058
  0
ARC
  5
391F
330
A
100
AcDbEntity
  8
001
  6
PHANTOM
370
     0
100
AcDbCircle
 10
-121.9838571145192
 20
38.0660866115994
 30
0.0
 40
0.0004463402709545
100
AcDbArc
 50
81.95060280110023
 51
168.5783288971
  0
ARC
  5
3920
330
A
100
AcDbEntity
  8
001
  6
PHANTOM
370
     0
100
AcDbCircle
 10
-121.9819305343135
 20
38.06250495603415
 30
0.0
 40
0.0024427365958099
100
AcDbArc
 50
203.6030507549001
 51
241.2841659146999
  0
ARC
  5
3921
330
A
100
AcDbEntity
  8
001
  6
PHANTOM
370
     0
100
AcDbCircle
 10
-121.9838271288022
 20
38.07472035986815
 30
0.0
 40
0.0005301746533104
100
AcDbArc
 50
86.48403029000014
 51
144.0890754525001
  0
ARC
  5
3922
330
A
100
AcDbEntity
  8
001
  6
PHANTOM
370
     0
100
AcDbCircle
 10
-121.982937156361
 20
38.0603387970764
 30
0.0
 40
0.000168723181055
100
AcDbArc
 50
171.8749992949001
 51
233.3255270190999
  0
ARC
  5
3923
330
A
100
AcDbEntity
  8
001
  6
PHANTOM
370
     0
100
AcDbCircle
 10
-121.9829706320485
 20
38.07663011505439
 30
0.0
 40
0.0002429481658259
100
AcDbArc
 50
39.34518614150015
 51
103.1448707793995
  0
SPLINE
  5
3924
330
A
100
AcDbEntity
  8
001
  6
PHANTOM
370
     0
100
AcDbSpline
210
0.0
220
0.0
230
1.0
 70
     8
 71
     3
 72
    11
 73
     7
 74
     0
 42
0.0000000001
 43
0.0000000001
 40
0.0
 40
0.0
 40
0.0
 40
0.0
 40
0.2502574802333582
 40
0.5000048793091568
 40
0.7499141205943207
 40
1.0
 40
1.0
 40
1.0
 40
1.0
 10
-122.000325387279
 20
38.11719616420421
 30
0.0
 10
-122.0004060970767
 20
38.11698958051362
 30
0.0
 10
-122.0005673521673
 20
38.11657683419657
 30
0.0
 10
-122.0009908320864
 20
38.11605883632506
 30
0.0
 10
-122.0015088318397
 20
38.11563562729583
 30
0.0
 10
-122.0019215274491
 20
38.11547429704877
 30
0.0
 10
-122.0021279481523
 20
38.1153936034279
 30
0.0
  0
SPLINE
  5
3925
330
A
100
AcDbEntity
  8
001
  6
PHANTOM
370
     0
100
AcDbSpline
210
0.0
220
0.0
230
1.0
 70
     8
 71
     3
 72
    11
 73
     7
 74
     0
 42
0.0000000001
 43
0.0000000001
 40
0.0
 40
0.0
 40
0.0
 40
0.0
 40
0.2502572073694558
 40
0.5000046536053315
 40
0.74991451578847
 40
1.0
 40
1.0
 40
1.0
 40
1.0
 10
-122.0037946150922
 20
38.1153936034279
 30
0.0
 10
-122.0040011986455
 20
38.11547431298926
 30
0.0
 10
-122.0044139449521
 20
38.11563556771075
 30
0.0
 10
-122.0049319410042
 20
38.11605904964397
 30
0.0
 10
-122.0053551546225
 20
38.11657704612019
 30
0.0
 10
-122.0055164822611
 20
38.11698974318996
 30
0.0
 10
-122.0055971744133
 20
38.11719616420421
 30
0.0
  0
SPLINE
  5
3926
330
A
100
AcDbEntity
  8
001
  6
PHANTOM
370
     0
100
AcDbSpline
210
0.0
220
0.0
230
1.0
 70
     8
 71
     3
 72
    11
 73
     7
 74
     0
 42
0.0000000001
 43
0.0000000001
 40
0.0
 40
0.0
 40
0.0
 40
0.0
 40
0.2502571527401672
 40
0.5000050056333025
 40
0.7499140866727638
 40
1.0
 40
1.0
 40
1.0
 40
1.0
 10
-122.0021279481523
 20
38.12066539172636
 30
0.0
 10
-122.0019213647486
 20
38.1205846820147
 30
0.0
 10
-122.0015086183603
 20
38.12042342684421
 30
0.0
 10
-122.0009906203457
 20
38.11999994714234
 30
0.0
 10
-122.0005674110405
 20
38.11948194722503
 30
0.0
 10
-122.0004060808853
 20
38.11906925169412
 30
0.0
 10
-122.000325387279
 20
38.11886283095004
 30
0.0
  0
SPLINE
  5
3927
330
A
100
AcDbEntity
  8
001
  6
PHANTOM
370
     0
100
AcDbSpline
210
0.0
220
0.0
230
1.0
 70
     8
 71
     3
 72
    11
 73
     7
 74
     0
 42
0.0000000001
 43
0.0000000001
 40
0.0
 40
0.0
 40
0.0
 40
0.0
 40
0.2502573234265926
 40
0.5000051707407113
 40
0.749914035648168
 40
1.0
 40
1.0
 40
1.0
 40
1.0
 10
-122.0055971744133
 20
38.11886283095004
 30
0.0
 10
-122.0055164653509
 20
38.11906941478619
 30
0.0
 10
-122.0053552115342
 20
38.11948216189323
 30
0.0
 10
-122.0049317294685
 20
38.12000015773032
 30
0.0
 10
-122.004413731358
 20
38.12042336837519
 30
0.0
 10
-122.0040010359067
 20
38.12058469822815
 30
0.0
 10
-122.0037946150922
 20
38.12066539172636
 30
0.0
  0
CIRCLE
  5
3928
330
A
100
AcDbEntity
  8
001
  6
PHANTOM
370
     0
100
AcDbCircle
 10
-122.002961281908
 20
38.11802949757715
 30
0.0
 40
0.0044248103283924
  0
LINE
  5
3930
330
A
100
AcDbEntity
  8
001
  6
CENTERX2
 48
0.6666666667
370
     0
100
AcDbLine
 10
-122.323078793499
 20
38.11802949757715
 30
0.0
 11
-121.9676815478627
 21
38.11802949757715
 31
0.0
  0
LINE
  5
3931
330
A
100
AcDbEntity
  8
001
  6
Continuous
370
    15
100
AcDbLine
 10
-122.6146139672628
 20
38.1466961652174
 30
0.0
 11
-122.615848265369
 21
38.1608042555684
 31
0.0
  0
LINE
  5
3932
330
A
100
AcDbEntity
  8
001
  6
Continuous
370
    15
100
AcDbLine
 10
-122.6367130575372
 20
38.1608036284779
 30
0.0
 11
-122.6379473013165
 21
38.1466961652174
 31
0.0
  0
LINE
  5
3933
330
A
100
AcDbEntity
  8
001
  6
Continuous
370
    15
100
AcDbLine
 10
-122.6379473013165
 20
38.1466961652174
 30
0.0
 11
-122.6378945822498
 21
38.1456902312869
 31
0.0
  0
LINE
  5
3934
330
A
100
AcDbEntity
  8
001
  6
Continuous
370
    15
100
AcDbLine
 10
-122.6146666863292
 20
38.1456902312869
 30
0.0
 11
-122.6146139672628
 21
38.1466961652174
 31
0.0
  0
SPLINE
  5
3935
330
A
100
AcDbEntity
  8
001
  6
Continuous
370
    15
100
AcDbSpline
210
0.0
220
0.0
230
1.0
 70
     8
 71
     3
 72
    11
 73
     7
 74
     0
 42
0.0000000001
 43
0.0000000001
 40
0.0
 40
0.0
 40
0.0
 40
0.0
 40
0.1939941815460357
 40
0.4611528931406126
 40
0.7316202228239925
 40
1.0
 40
1.0
 40
1.0
 40
1.0
 10
-122.6353946935988
 20
38.16231294536429
 30
0.0
 10
-122.6355538091643
 20
38.1622565646804
 30
0.0
 10
-122.635932050423
 20
38.16212253944684
 30
0.0
 10
-122.6363567072809
 20
38.16174090217171
 30
0.0
 10
-122.6366465623315
 20
38.1612510668384
 30
0.0
 10
-122.6366560857202
 20
38.16091194417041
 30
0.0
 10
-122.6366608289673
 20
38.16074303973553
 30
0.0
  0
SPLINE
  5
3936
330
A
100
AcDbEntity
  8
001
  6
Continuous
370
    15
100
AcDbSpline
210
0.0
220
0.0
230
1.0
 70
     8
 71
     3
 72
    11
 73
     7
 74
     0
 42
0.0000000001
 43
0.0000000001
 40
0.0
 40
0.0
 40
0.0
 40
0.0
 40
0.273550080468059
 40
0.5492276275757307
 40
0.8215270364679712
 40
1.0
 40
1.0
 40
1.0
 40
1.0
 10
-122.6159004427163
 20
38.16074303663112
 30
0.0
 10
-122.6159051463954
 20
38.16091197844131
 30
0.0
 10
-122.6159145903352
 20
38.16125117596392
 30
0.0
 10
-122.6162050165091
 20
38.16174044365254
 30
0.0
 10
-122.6166167723845
 20
38.16211410321919
 30
0.0
 10
-122.6169786874289
 20
38.1622434289188
 30
0.0
 10
-122.6171219793751
 20
38.16229463245807
 30
0.0
  0
SPLINE
  5
3937
330
A
100
AcDbEntity
  8
001
  6
Continuous
370
    15
100
AcDbSpline
210
0.0
220
0.0
230
1.0
 70
     8
 71
     3
 72
    12
 73
     8
 74
     0
 42
0.0000000001
 43
0.0000000001
 40
0.0
 40
0.0
 40
0.0
 40
0.0
 40
0.1609689939801272
 40
0.3421744305014777
 40
0.5436303963905852
 40
0.7653409335195746
 40
1.0
 40
1.0
 40
1.0
 40
1.0
 10
-122.6275064360176
 20
38.16467337001202
 30
0.0
 10
-122.6276900779558
 20
38.16456409166462
 30
0.0
 10
-122.6280804486356
 20
38.16433179688931
 30
0.0
 10
-122.6290829917105
 20
38.16392246729334
 30
0.0
 10
-122.6305497677603
 20
38.1634517475917
 30
0.0
 10
-122.6325521304738
 20
38.16292631056278
 30
0.0
 10
-122.6343514199738
 20
38.1625585720951
 30
0.0
 10
-122.6352765902548
 20
38.16236948595779
 30
0.0
  0
SPLINE
  5
3938
330
A
100
AcDbEntity
  8
001
  6
Continuous
370
    15
100
AcDbSpline
210
0.0
220
0.0
230
1.0
 70
     8
 71
     3
 72
    12
 73
     8
 74
     0
 42
0.0000000001
 43
0.0000000001
 40
0.0
 40
0.0
 40
0.0
 40
0.0
 40
0.2402071753419687
 40
0.4603102027123249
 40
0.6603061172783247
 40
0.8401977508882026
 40
1.0
 40
1.0
 40
1.0
 40
1.0
 10
-122.6172012861489
 20
38.16235175668039
 30
0.0
 10
-122.6181556779276
 20
38.16254670771963
 30
0.0
 10
-122.6199845836317
 20
38.16292029336405
 30
0.0
 10
-122.6220112203479
 20
38.16345154431429
 30
0.0
 10
-122.6234775574698
 20
38.16392222792773
 30
0.0
 10
-122.6244803515643
 20
38.16433156288527
 30
0.0
 10
-122.6248708623044
 20
38.16456389848891
 30
0.0
 10
-122.6250545703361
 20
38.16467319616513
 30
0.0
  0
LINE
  5
3939
330
A
100
AcDbEntity
  8
001
  6
Continuous
370
    15
100
AcDbLine
 10
-122.6261404687263
 20
38.1649369746579
 30
0.0
 11
-122.626589992752
 21
38.1649369746579
 31
0.0
  0
ARC
  5
393A
330
A
100
AcDbEntity
  8
001
  6
Continuous
370
    15
100
AcDbCircle
 10
-122.5987806342895
 20
38.12079398340865
 30
0.0
 40
0.0016666666666667
100
AcDbArc
 50
0.0
 51
39.83298208690013
  0
ARC
  5
393B
330
A
100
AcDbEntity
  8
001
  6
Continuous
370
    15
100
AcDbCircle
 10
-122.5987806342895
 20
38.11526501174565
 30
0.0
 40
0.0016666666666667
100
AcDbArc
 50
320.1670179130998
 51
0.0
  0
CIRCLE
  5
393C
330
A
100
AcDbEntity
  8
001
  6
Continuous
370
    15
100
AcDbCircle
 10
-122.6262806342895
 20
38.11802949757715
 30
0.0
 40
0.0040999999999751
  0
CIRCLE
  5
393D
330
A
100
AcDbEntity
  8
001
  6
Continuous
370
    15
100
AcDbCircle
 10
-122.6262806342895
 20
38.11802949757715
 30
0.0
 40
0.0052666666666667
  0
CIRCLE
  5
393E
330
A
100
AcDbEntity
  8
001
  6
Continuous
370
    15
100
AcDbCircle
 10
-122.6262806342895
 20
38.11802949757715
 30
0.0
 40
0.025
  0
CIRCLE
  5
393F
330
A
100
AcDbEntity
  8
001
  6
Continuous
370
    15
100
AcDbCircle
 10
-122.6262806342895
 20
38.11802949757715
 30
0.0
 40
0.01025
  0
LINE
  5
3940
330
A
100
AcDbEntity
  8
001
  6
Continuous
370
    15
100
AcDbLine
 10
-122.6158482661452
 20
38.16080425867265
 30
0.0
 11
-122.6159568226568
 21
38.16076468367215
 31
0.0
  0
LINE
  5
3941
330
A
100
AcDbEntity
  8
001
  6
Continuous
370
    15
100
AcDbLine
 10
-122.6366045072345
 20
38.1607640162244
 30
0.0
 11
-122.6367130575372
 21
38.1608036284779
 31
0.0
  0
LINE
  5
3942
330
A
100
AcDbEntity
  8
001
  6
Continuous
370
    15
100
AcDbLine
 10
-122.6379473013165
 20
38.1466961652174
 30
0.0
 11
-122.635124967059
 21
38.1466961652174
 31
0.0
  0
LINE
  5
3943
330
A
100
AcDbEntity
  8
001
  6
Continuous
370
    15
100
AcDbLine
 10
-122.6295972590782
 20
38.1466961652174
 30
0.0
 11
-122.622964009501
 21
38.1466961652174
 31
0.0
  0
LINE
  5
3944
330
A
100
AcDbEntity
  8
001
  6
Continuous
370
    15
100
AcDbLine
 10
-122.61743630152
 20
38.1466961652174
 30
0.0
 11
-122.6146139672628
 21
38.1466961652174
 31
0.0
  0
SPLINE
  5
3945
330
A
100
AcDbEntity
  8
001
  6
Continuous
370
    15
100
AcDbSpline
210
0.0
220
0.0
230
1.0
 70
     8
 71
     3
 72
     9
 73
     5
 74
     0
 42
0.0000000001
 43
0.0000000001
 40
0.0
 40
0.0
 40
0.0
 40
0.0
 40
0.9681126557243599
 40
1.0
 40
1.0
 40
1.0
 40
1.0
 10
-122.6176966566263
 20
38.16241763843931
 30
0.0
 10
-122.6174952238715
 20
38.16241861582641
 30
0.0
 10
-122.6172871563975
 20
38.16241962540632
 30
0.0
 10
-122.6171187554548
 20
38.16231291461223
 30
0.0
 10
-122.617113385596
 20
38.1623095118884
 30
0.0
  0
LINE
  5
3946
330
A
100
AcDbEntity
  8
001
  6
Continuous
370
    15
100
AcDbLine
 10
-122.6348436843585
 20
38.16242210568315
 30
0.0
 11
-122.635397529476
 21
38.16232614220515
 31
0.0
  0
SPLINE
  5
3947
330
A
100
AcDbEntity
  8
001
  6
Continuous
370
    15
100
AcDbSpline
210
0.0
220
0.0
230
1.0
 70
     8
 71
     3
 72
    11
 73
     7
 74
     0
 42
0.0000000001
 43
0.0000000001
 40
0.0
 40
0.0
 40
0.0
 40
0.0
 40
0.2509507679973718
 40
0.4865530742024637
 40
0.7289739564660703
 40
1.0
 40
1.0
 40
1.0
 40
1.0
 10
-122.6266082509674
 20
38.16493291098712
 30
0.0
 10
-122.6266071631187
 20
38.16493311248832
 30
0.0
 10
-122.6266050539554
 20
38.16493350316665
 30
0.0
 10
-122.6265980693358
 20
38.16493398841375
 30
0.0
 10
-122.6265884600892
 20
38.16493435483006
 30
0.0
 10
-122.6265808492548
 20
38.16493447248692
 30
0.0
 10
-122.6265768318302
 20
38.1649345345928
 30
0.0
  0
SPLINE
  5
3948
330
A
100
AcDbEntity
  8
001
  6
Continuous
370
    15
100
AcDbSpline
210
0.0
220
0.0
230
1.0
 70
     8
 71
     3
 72
    12
 73
     8
 74
     0
 42
0.0000000001
 43
0.0000000001
 40
0.0
 40
0.0
 40
0.0
 40
0.0
 40
0.2626992932714658
 40
0.3800890332051687
 40
0.4935792463156361
 40
0.7269945853402956
 40
1.0
 40
1.0
 40
1.0
 40
1.0
 10
-122.6259888707661
 20
38.16493454390602
 30
0.0
 10
-122.6259839318037
 20
38.16493451201841
 30
0.0
 10
-122.6259767858177
 20
38.1649344658815
 30
0.0
 10
-122.6259684583222
 20
38.16493423562396
 30
0.0
 10
-122.6259616108853
 20
38.16493394393853
 30
0.0
 10
-122.6259550370038
 20
38.16493339868494
 30
0.0
 10
-122.6259534403096
 20
38.16493289019123
 30
0.0
 10
-122.6259525795507
 20
38.16493261606829
 30
0.0
  0
ELLIPSE
  5
3949
330
A
100
AcDbEntity
  8
001
  6
Continuous
370
    15
100
AcDbEllipse
 10
-122.6262806342895
 20
38.16232718840915
 30
0.0
 11
0.005143495332713
 21
0.0
 31
0.0
210
0.0
220
0.0
230
1.0
 40
0.0540541082
 41
0.0
 42
6.283185307179585
  0
SPLINE
  5
394A
330
A
100
AcDbEntity
  8
001
  6
Continuous
370
    15
100
AcDbSpline
210
0.0
220
0.0
230
1.0
 70
     8
 71
     3
 72
     9
 73
     5
 74
     0
 42
0.0000000001
 43
0.0000000001
 40
0.0
 40
0.0
 40
0.0
 40
0.0
 40
0.6277389274569658
 40
1.0
 40
1.0
 40
1.0
 40
1.0
 10
-122.6266082509674
 20
38.16493291098712
 30
0.0
 10
-122.6268162363375
 20
38.16491855503656
 30
0.0
 10
-122.627147560971
 20
38.16489568573545
 30
0.0
 10
-122.6274141401377
 20
38.16470576260016
 30
0.0
 10
-122.6275133771842
 20
38.16463506161012
 30
0.0
  0
SPLINE
  5
394B
330
A
100
AcDbEntity
  8
001
  6
Continuous
370
    15
100
AcDbSpline
210
0.0
220
0.0
230
1.0
 70
     8
 71
     3
 72
     9
 73
     5
 74
     0
 42
0.0000000001
 43
0.0000000001
 40
0.0
 40
0.0
 40
0.0
 40
0.0
 40
0.3883364313763908
 40
1.0
 40
1.0
 40
1.0
 40
1.0
 10
-122.6250487686815
 20
38.16463363047776
 30
0.0
 10
-122.6251524193338
 20
38.16470738897605
 30
0.0
 10
-122.6254193287556
 20
38.16489732350786
 30
0.0
 10
-122.6257501985509
 20
38.16491922172603
 30
0.0
 10
-122.6259525795507
 20
38.16493261606829
 30
0.0
  0
ARC
  5
394C
330
A
100
AcDbEntity
  8
001
  6
Continuous
370
    15
100
AcDbCircle
 10
-122.6266313489385
 20
38.1633699791084
 30
0.0
 40
0.001562998608265
100
AcDbArc
 50
89.17260906419981
 51
125.0425732930997
  0
LINE
  5
394D
330
A
100
AcDbEntity
  8
001
  6
Continuous
370
    15
100
AcDbLine
 10
-122.6265720337243
 20
38.1649369746579
 30
0.0
 11
-122.6265768318303
 21
38.1649345345929
 31
0.0
  0
LINE
  5
394E
330
A
100
AcDbEntity
  8
001
  6
Continuous
370
    15
100
AcDbLine
 10
-122.625988870766
 20
38.1649369746579
 30
0.0
 11
-122.625988870766
 21
38.16493454390615
 31
0.0
  0
LINE
  5
394F
330
A
100
AcDbEntity
  8
001
  6
Continuous
370
    15
100
AcDbLine
 10
-122.6188308445407
 20
38.1171631067154
 30
0.0
 11
-122.6189046510787
 21
38.11725425055065
 31
0.0
  0
ARC
  5
3950
330
A
100
AcDbEntity
  8
001
  6
Continuous
370
    15
100
AcDbCircle
 10
-122.6262806342895
 20
38.11802949757715
 30
0.0
 40
0.0075000000000018
100
AcDbArc
 50
342.6335481146002
 51
353.3664518854999
  0
LINE
  5
3951
330
A
100
AcDbEntity
  8
001
  6
Continuous
370
    15
100
AcDbLine
 10
-122.6192270175225
 20
38.11573763844965
 30
0.0
 11
-122.6191225200252
 21
38.11579088254914
 31
0.0
  0
LINE
  5
3952
330
A
100
AcDbEntity
  8
001
  6
Continuous
370
    15
100
AcDbLine
 10
-122.6191737730347
 20
38.1156331411464
 30
0.0
 11
-122.6192270175225
 21
38.11573763844965
 31
0.0
  0
ARC
  5
3953
330
A
100
AcDbEntity
  8
001
  6
Continuous
370
    15
100
AcDbCircle
 10
-122.6262806342895
 20
38.11802949757715
 30
0.0
 40
0.0075000000000019
100
AcDbArc
 50
330.6335481146002
 51
341.3664518855
  0
LINE
  5
3954
330
A
100
AcDbEntity
  8
001
  6
Continuous
370
    15
100
AcDbLine
 10
-122.6198273057565
 20
38.1142079077484
 30
0.0
 11
-122.6198576598875
 21
38.1143211914979
 31
0.0
  0
ARC
  5
3955
330
A
100
AcDbEntity
  8
001
  6
Continuous
370
    15
100
AcDbCircle
 10
-122.6262806342895
 20
38.11802949757715
 30
0.0
 40
0.0075000000000014
100
AcDbArc
 50
318.6335481145994
 51
329.3664518855001
  0
LINE
  5
3956
330
A
100
AcDbEntity
  8
001
  6
Continuous
370
    15
100
AcDbLine
 10
-122.6207690176225
 20
38.11306681562915
 30
0.0
 11
-122.620651897988
 21
38.11307295343315
 31
0.0
  0
LINE
  5
3957
330
A
100
AcDbEntity
  8
001
  6
Continuous
370
    15
100
AcDbLine
 10
-122.6207628794305
 20
38.11294969599465
 30
0.0
 11
-122.6207690176225
 21
38.11306681562915
 31
0.0
  0
ARC
  5
3958
330
A
100
AcDbEntity
  8
001
  6
Continuous
370
    15
100
AcDbCircle
 10
-122.6262806342895
 20
38.11802949757715
 30
0.0
 40
0.0075000000000016
100
AcDbArc
 50
306.6335481146002
 51
317.3664518855003
  0
LINE
  5
3959
330
A
100
AcDbEntity
  8
001
  6
Continuous
370
    15
100
AcDbLine
 10
-122.621921259225
 20
38.1120293323704
 30
0.0
 11
-122.6218054228755
 21
38.11201098570365
 31
0.0
  0
LINE
  5
395A
330
A
100
AcDbEntity
  8
001
  6
Continuous
370
    15
100
AcDbLine
 10
-122.6219396058918
 20
38.1119134964089
 30
0.0
 11
-122.621921259225
 21
38.1120293323704
 31
0.0
  0
ARC
  5
395B
330
A
100
AcDbEntity
  8
001
  6
Continuous
370
    15
100
AcDbCircle
 10
-122.6262806342895
 20
38.11802949757715
 30
0.0
 40
0.0075000000000014
100
AcDbArc
 50
294.6335481146002
 51
305.3664518854996
  0
LINE
  5
395C
330
A
100
AcDbEntity
  8
001
  6
Continuous
370
    15
100
AcDbLine
 10
-122.6232640265312
 20
38.1112540854894
 30
0.0
 11
-122.623154535981
 21
38.1112120556779
 31
0.0
  0
LINE
  5
395D
330
A
100
AcDbEntity
  8
001
  6
Continuous
370
    15
100
AcDbLine
 10
-122.623306055955
 20
38.11114459532715
 30
0.0
 11
-122.6232640265312
 21
38.1112540854894
 31
0.0
  0
ARC
  5
395E
330
A
100
AcDbEntity
  8
001
  6
Continuous
370
    15
100
AcDbCircle
 10
-122.6262806342895
 20
38.11802949757715
 30
0.0
 40
0.0075000000000016
100
AcDbArc
 50
282.6335481145998
 51
293.3664518855
  0
LINE
  5
395F
330
A
100
AcDbEntity
  8
001
  6
Continuous
370
    15
100
AcDbLine
 10
-122.6247386339955
 20
38.11077495650165
 30
0.0
 11
-122.624640274496
 21
38.11071108096665
 31
0.0
  0
LINE
  5
3960
330
A
100
AcDbEntity
  8
001
  6
Continuous
370
    15
100
AcDbLine
 10
-122.6248025093365
 20
38.11067659719615
 30
0.0
 11
-122.6247386339955
 21
38.11077495650165
 31
0.0
  0
ARC
  5
3961
330
A
100
AcDbEntity
  8
001
  6
Continuous
370
    15
100
AcDbCircle
 10
-122.6262806342895
 20
38.11802949757715
 30
0.0
 40
0.0075000000000017
100
AcDbArc
 50
270.6335481146
 51
281.3664518855001
  0
LINE
  5
3962
330
A
100
AcDbEntity
  8
001
  6
Continuous
370
    15
100
AcDbLine
 10
-122.6262806342895
 20
38.1106128854189
 30
0.0
 11
-122.6261977047255
 21
38.11052995580015
 31
0.0
  0
LINE
  5
3963
330
A
100
AcDbEntity
  8
001
  6
Continuous
370
    15
100
AcDbLine
 10
-122.6263635638538
 20
38.11052995580015
 30
0.0
 11
-122.6262806342895
 21
38.1106128854189
 31
0.0
  0
ARC
  5
3964
330
A
100
AcDbEntity
  8
001
  6
Continuous
370
    15
100
AcDbCircle
 10
-122.6262806342895
 20
38.11802949757715
 30
0.0
 40
0.0075000000000016
100
AcDbArc
 50
258.6335481146003
 51
269.3664518855001
  0
LINE
  5
3965
330
A
100
AcDbEntity
  8
001
  6
Continuous
370
    15
100
AcDbLine
 10
-122.6278226345838
 20
38.11077495650165
 30
0.0
 11
-122.6277587592427
 21
38.11067659719615
 31
0.0
  0
LINE
  5
3966
330
A
100
AcDbEntity
  8
001
  6
Continuous
370
    15
100
AcDbLine
 10
-122.627920994083
 20
38.11071108096665
 30
0.0
 11
-122.6278226345838
 21
38.11077495650165
 31
0.0
  0
ARC
  5
3967
330
A
100
AcDbEntity
  8
001
  6
Continuous
370
    15
100
AcDbCircle
 10
-122.6262806342895
 20
38.11802949757715
 30
0.0
 40
0.0075000000000017
100
AcDbArc
 50
246.6335481145999
 51
257.3664518855003
  0
LINE
  5
3968
330
A
100
AcDbEntity
  8
001
  6
Continuous
370
    15
100
AcDbLine
 10
-122.629297242048
 20
38.1112540854894
 30
0.0
 11
-122.6292552126243
 21
38.11114459532715
 31
0.0
  0
LINE
  5
3969
330
A
100
AcDbEntity
  8
001
  6
Continuous
370
    15
100
AcDbLine
 10
-122.6294067325983
 20
38.1112120556779
 30
0.0
 11
-122.629297242048
 21
38.1112540854894
 31
0.0
  0
ARC
  5
396A
330
A
100
AcDbEntity
  8
001
  6
Continuous
370
    15
100
AcDbCircle
 10
-122.6262806342895
 20
38.11802949757715
 30
0.0
 40
0.0075000000000019
100
AcDbArc
 50
234.6335481146002
 51
245.3664518855003
  0
LINE
  5
396B
330
A
100
AcDbEntity
  8
001
  6
Continuous
370
    15
100
AcDbLine
 10
-122.6306400093543
 20
38.1120293323704
 30
0.0
 11
-122.6306216626875
 21
38.1119134964089
 31
0.0
  0
LINE
  5
396C
330
A
100
AcDbEntity
  8
001
  6
Continuous
370
    15
100
AcDbLine
 10
-122.6307558457037
 20
38.11201098570365
 30
0.0
 11
-122.6306400093543
 21
38.1120293323704
 31
0.0
  0
ARC
  5
396D
330
A
100
AcDbEntity
  8
001
  6
Continuous
370
    15
100
AcDbCircle
 10
-122.6262806342895
 20
38.11802949757715
 30
0.0
 40
0.0075000000000015
100
AcDbArc
 50
222.6335481146
 51
233.3664518855004
  0
LINE
  5
396E
330
A
100
AcDbEntity
  8
001
  6
Continuous
370
    15
100
AcDbLine
 10
-122.6317922509568
 20
38.11306681562915
 30
0.0
 11
-122.6317983891485
 21
38.11294969599465
 31
0.0
  0
LINE
  5
396F
330
A
100
AcDbEntity
  8
001
  6
Continuous
370
    15
100
AcDbLine
 10
-122.6319093705912
 20
38.11307295343315
 30
0.0
 11
-122.6317922509568
 21
38.11306681562915
 31
0.0
  0
ARC
  5
3970
330
A
100
AcDbEntity
  8
001
  6
Continuous
370
    15
100
AcDbCircle
 10
-122.6262806342895
 20
38.11802949757715
 30
0.0
 40
0.0075000000000015
100
AcDbArc
 50
210.6335481145997
 51
221.3664518855003
  0
LINE
  5
3971
330
A
100
AcDbEntity
  8
001
  6
Continuous
370
    15
100
AcDbLine
 10
-122.6327036086918
 20
38.1143211914979
 30
0.0
 11
-122.6327339628227
 21
38.1142079077484
 31
0.0
  0
LINE
  5
3972
330
A
100
AcDbEntity
  8
001
  6
Continuous
370
    15
100
AcDbLine
 10
-122.6328168928295
 20
38.11435154601715
 30
0.0
 11
-122.6327036086918
 21
38.1143211914979
 31
0.0
  0
ARC
  5
3973
330
A
100
AcDbEntity
  8
001
  6
Continuous
370
    15
100
AcDbCircle
 10
-122.6262806342895
 20
38.11802949757715
 30
0.0
 40
0.0075000000000018
100
AcDbArc
 50
198.6335481145996
 51
209.3664518854999
  0
LINE
  5
3974
330
A
100
AcDbEntity
  8
001
  6
Continuous
370
    15
100
AcDbLine
 10
-122.6333342510568
 20
38.11573763844965
 30
0.0
 11
-122.6333874955445
 21
38.1156331411464
 31
0.0
  0
LINE
  5
3975
330
A
100
AcDbEntity
  8
001
  6
Continuous
370
    15
100
AcDbLine
 10
-122.633438748554
 20
38.11579088254914
 30
0.0
 11
-122.6333342510568
 21
38.11573763844965
 31
0.0
  0
ARC
  5
3976
330
A
100
AcDbEntity
  8
001
  6
Continuous
370
    15
100
AcDbCircle
 10
-122.6262806342895
 20
38.11802949757715
 30
0.0
 40
0.0075000000000017
100
AcDbArc
 50
186.6335481146
 51
197.3664518855004
  0
LINE
  5
3977
330
A
100
AcDbEntity
  8
001
  6
Continuous
370
    15
100
AcDbLine
 10
-122.6336566175005
 20
38.11725425055065
 30
0.0
 11
-122.6337304240385
 21
38.1171631067154
 31
0.0
  0
LINE
  5
3978
330
A
100
AcDbEntity
  8
001
  6
Continuous
370
    15
100
AcDbLine
 10
-122.6337477613842
 20
38.11732805728265
 30
0.0
 11
-122.6336566175005
 21
38.11725425055065
 31
0.0
  0
ARC
  5
3979
330
A
100
AcDbEntity
  8
001
  6
Continuous
370
    15
100
AcDbCircle
 10
-122.6262806342895
 20
38.11802949757715
 30
0.0
 40
0.0075000000000016
100
AcDbArc
 50
174.6335481145998
 51
185.3664518854999
  0
LINE
  5
397A
330
A
100
AcDbEntity
  8
001
  6
Continuous
370
    15
100
AcDbLine
 10
-122.6336566175005
 20
38.11880474460365
 30
0.0
 11
-122.6337477613842
 21
38.11873093787165
 31
0.0
  0
LINE
  5
397B
330
A
100
AcDbEntity
  8
001
  6
Continuous
370
    15
100
AcDbLine
 10
-122.6337304240385
 20
38.11889588843889
 30
0.0
 11
-122.6336566175005
 21
38.11880474460365
 31
0.0
  0
ARC
  5
397C
330
A
100
AcDbEntity
  8
001
  6
Continuous
370
    15
100
AcDbCircle
 10
-122.6262806342895
 20
38.11802949757715
 30
0.0
 40
0.0075000000000017
100
AcDbArc
 50
162.6335481146002
 51
173.3664518854999
  0
LINE
  5
397D
330
A
100
AcDbEntity
  8
001
  6
Continuous
370
    15
100
AcDbLine
 10
-122.6333342510568
 20
38.12032135670465
 30
0.0
 11
-122.633438748554
 21
38.12026811260515
 31
0.0
  0
LINE
  5
397E
330
A
100
AcDbEntity
  8
001
  6
Continuous
370
    15
100
AcDbLine
 10
-122.6333874955445
 20
38.1204258540079
 30
0.0
 11
-122.6333342510568
 21
38.12032135670465
 31
0.0
  0
ARC
  5
397F
330
A
100
AcDbEntity
  8
001
  6
Continuous
370
    15
100
AcDbCircle
 10
-122.6262806342895
 20
38.11802949757715
 30
0.0
 40
0.0075000000000018
100
AcDbArc
 50
150.6335481146002
 51
161.3664518855
  0
ARC
  5
3980
330
A
100
AcDbEntity
  8
001
  6
Continuous
370
    15
100
AcDbCircle
 10
-122.6262806342895
 20
38.11802949757715
 30
0.0
 40
0.0075000000000015
100
AcDbArc
 50
138.6335481145994
 51
149.3664518854994
  0
LINE
  5
3981
330
A
100
AcDbEntity
  8
001
  6
Continuous
370
    15
100
AcDbLine
 10
-122.6317922509568
 20
38.1229921795249
 30
0.0
 11
-122.6319093705912
 21
38.12298604172115
 31
0.0
  0
LINE
  5
3982
330
A
100
AcDbEntity
  8
001
  6
Continuous
370
    15
100
AcDbLine
 10
-122.6317983891485
 20
38.12310929915965
 30
0.0
 11
-122.6317922509568
 21
38.1229921795249
 31
0.0
  0
ARC
  5
3983
330
A
100
AcDbEntity
  8
001
  6
Continuous
370
    15
100
AcDbCircle
 10
-122.6262806342895
 20
38.11802949757715
 30
0.0
 40
0.0075000000000016
100
AcDbArc
 50
126.6335481146002
 51
137.3664518855002
  0
LINE
  5
3984
330
A
100
AcDbEntity
  8
001
  6
Continuous
370
    15
100
AcDbLine
 10
-122.6306400093543
 20
38.1240296627839
 30
0.0
 11
-122.6307558457037
 21
38.1240480094504
 31
0.0
  0
LINE
  5
3985
330
A
100
AcDbEntity
  8
001
  6
Continuous
370
    15
100
AcDbLine
 10
-122.6306216626875
 20
38.1241454987454
 30
0.0
 11
-122.6306400093543
 21
38.1240296627839
 31
0.0
  0
ARC
  5
3986
330
A
100
AcDbEntity
  8
001
  6
Continuous
370
    15
100
AcDbCircle
 10
-122.6262806342895
 20
38.11802949757715
 30
0.0
 40
0.0075000000000014
100
AcDbArc
 50
114.6335481146002
 51
125.3664518854996
  0
LINE
  5
3987
330
A
100
AcDbEntity
  8
001
  6
Continuous
370
    15
100
AcDbLine
 10
-122.629297242048
 20
38.12480490966465
 30
0.0
 11
-122.6294067325983
 21
38.1248469394764
 31
0.0
  0
LINE
  5
3988
330
A
100
AcDbEntity
  8
001
  6
Continuous
370
    15
100
AcDbLine
 10
-122.6292552126243
 20
38.12491439982715
 30
0.0
 11
-122.629297242048
 21
38.12480490966465
 31
0.0
  0
ARC
  5
3989
330
A
100
AcDbEntity
  8
001
  6
Continuous
370
    15
100
AcDbCircle
 10
-122.6262806342895
 20
38.11802949757715
 30
0.0
 40
0.0075000000000016
100
AcDbArc
 50
102.6335481145998
 51
113.3664518855
  0
LINE
  5
398A
330
A
100
AcDbEntity
  8
001
  6
Continuous
370
    15
100
AcDbLine
 10
-122.6278226345838
 20
38.12528403865265
 30
0.0
 11
-122.627920994083
 21
38.1253479141874
 31
0.0
  0
LINE
  5
398B
330
A
100
AcDbEntity
  8
001
  6
Continuous
370
    15
100
AcDbLine
 10
-122.6277587592427
 20
38.1253823979579
 30
0.0
 11
-122.6278226345838
 21
38.12528403865265
 31
0.0
  0
ARC
  5
398C
330
A
100
AcDbEntity
  8
001
  6
Continuous
370
    15
100
AcDbCircle
 10
-122.6262806342895
 20
38.11802949757715
 30
0.0
 40
0.0075000000000017
100
AcDbArc
 50
90.63354811460007
 51
101.3664518855001
  0
LINE
  5
398D
330
A
100
AcDbEntity
  8
001
  6
Continuous
370
    15
100
AcDbLine
 10
-122.6262806342895
 20
38.1254461097354
 30
0.0
 11
-122.6263635638538
 21
38.1255290393539
 31
0.0
  0
LINE
  5
398E
330
A
100
AcDbEntity
  8
001
  6
Continuous
370
    15
100
AcDbLine
 10
-122.6261977047255
 20
38.1255290393539
 30
0.0
 11
-122.6262806342895
 21
38.1254461097354
 31
0.0
  0
ARC
  5
398F
330
A
100
AcDbEntity
  8
001
  6
Continuous
370
    15
100
AcDbCircle
 10
-122.6262806342895
 20
38.11802949757715
 30
0.0
 40
0.0075000000000016
100
AcDbArc
 50
78.63354811460033
 51
89.36645188550008
  0
LINE
  5
3990
330
A
100
AcDbEntity
  8
001
  6
Continuous
370
    15
100
AcDbLine
 10
-122.6247386339955
 20
38.12528403865265
 30
0.0
 11
-122.6248025093365
 21
38.1253823979579
 31
0.0
  0
LINE
  5
3991
330
A
100
AcDbEntity
  8
001
  6
Continuous
370
    15
100
AcDbLine
 10
-122.624640274496
 20
38.1253479141874
 30
0.0
 11
-122.6247386339955
 21
38.12528403865265
 31
0.0
  0
ARC
  5
3992
330
A
100
AcDbEntity
  8
001
  6
Continuous
370
    15
100
AcDbCircle
 10
-122.6262806342895
 20
38.11802949757715
 30
0.0
 40
0.0075000000000017
100
AcDbArc
 50
66.63354811459993
 51
77.36645188550034
  0
LINE
  5
3993
330
A
100
AcDbEntity
  8
001
  6
Continuous
370
    15
100
AcDbLine
 10
-122.6232640265312
 20
38.12480490966465
 30
0.0
 11
-122.623306055955
 21
38.12491439982715
 31
0.0
  0
LINE
  5
3994
330
A
100
AcDbEntity
  8
001
  6
Continuous
370
    15
100
AcDbLine
 10
-122.623154535981
 20
38.1248469394764
 30
0.0
 11
-122.6232640265312
 21
38.12480490966465
 31
0.0
  0
ARC
  5
3995
330
A
100
AcDbEntity
  8
001
  6
Continuous
370
    15
100
AcDbCircle
 10
-122.6262806342895
 20
38.11802949757715
 30
0.0
 40
0.0075000000000019
100
AcDbArc
 50
54.63354811460022
 51
65.36645188550032
  0
LINE
  5
3996
330
A
100
AcDbEntity
  8
001
  6
Continuous
370
    15
100
AcDbLine
 10
-122.621921259225
 20
38.1240296627839
 30
0.0
 11
-122.6219396058918
 21
38.1241454987454
 31
0.0
  0
LINE
  5
3997
330
A
100
AcDbEntity
  8
001
  6
Continuous
370
    15
100
AcDbLine
 10
-122.6218054228755
 20
38.1240480094504
 30
0.0
 11
-122.621921259225
 21
38.1240296627839
 31
0.0
  0
ARC
  5
3998
330
A
100
AcDbEntity
  8
001
  6
Continuous
370
    15
100
AcDbCircle
 10
-122.6262806342895
 20
38.11802949757715
 30
0.0
 40
0.0075000000000015
100
AcDbArc
 50
42.63354811460003
 51
53.36645188550041
  0
LINE
  5
3999
330
A
100
AcDbEntity
  8
001
  6
Continuous
370
    15
100
AcDbLine
 10
-122.6207690176225
 20
38.1229921795249
 30
0.0
 11
-122.6207628794305
 21
38.12310929915965
 31
0.0
  0
LINE
  5
399A
330
A
100
AcDbEntity
  8
001
  6
Continuous
370
    15
100
AcDbLine
 10
-122.620651897988
 20
38.12298604172115
 30
0.0
 11
-122.6207690176225
 21
38.1229921795249
 31
0.0
  0
ARC
  5
399B
330
A
100
AcDbEntity
  8
001
  6
Continuous
370
    15
100
AcDbCircle
 10
-122.6262806342895
 20
38.11802949757715
 30
0.0
 40
0.0075000000000015
100
AcDbArc
 50
30.63354811459979
 51
41.36645188550034
  0
LINE
  5
399C
330
A
100
AcDbEntity
  8
001
  6
Continuous
370
    15
100
AcDbLine
 10
-122.6198576598875
 20
38.12173780365615
 30
0.0
 11
-122.6198273057565
 21
38.1218510874059
 31
0.0
  0
LINE
  5
399D
330
A
100
AcDbEntity
  8
001
  6
Continuous
370
    15
100
AcDbLine
 10
-122.6197443757498
 20
38.12170744913715
 30
0.0
 11
-122.6198576598875
 21
38.12173780365615
 31
0.0
  0
ARC
  5
399E
330
A
100
AcDbEntity
  8
001
  6
Continuous
370
    15
100
AcDbCircle
 10
-122.6262806342895
 20
38.11802949757715
 30
0.0
 40
0.0075000000000018
100
AcDbArc
 50
18.63354811459965
 51
29.3664518855
  0
LINE
  5
399F
330
A
100
AcDbEntity
  8
001
  6
Continuous
370
    15
100
AcDbLine
 10
-122.6192270175225
 20
38.12032135670465
 30
0.0
 11
-122.6191737730347
 21
38.1204258540079
 31
0.0
  0
LINE
  5
39A0
330
A
100
AcDbEntity
  8
001
  6
Continuous
370
    15
100
AcDbLine
 10
-122.6191225200252
 20
38.12026811260515
 30
0.0
 11
-122.6192270175225
 21
38.12032135670465
 31
0.0
  0
ARC
  5
39A1
330
A
100
AcDbEntity
  8
001
  6
Continuous
370
    15
100
AcDbCircle
 10
-122.6262806342895
 20
38.11802949757715
 30
0.0
 40
0.0075000000000017
100
AcDbArc
 50
6.633548114600057
 51
17.36645188550044
  0
LINE
  5
39A2
330
A
100
AcDbEntity
  8
001
  6
Continuous
370
    15
100
AcDbLine
 10
-122.6189046510787
 20
38.11880474460365
 30
0.0
 11
-122.6188308445407
 21
38.11889588843889
 31
0.0
  0
LINE
  5
39A3
330
A
100
AcDbEntity
  8
001
  6
Continuous
370
    15
100
AcDbLine
 10
-122.618813507195
 20
38.11873093787165
 30
0.0
 11
-122.6189046510787
 21
38.11880474460365
 31
0.0
  0
ARC
  5
39A4
330
A
100
AcDbEntity
  8
001
  6
Continuous
370
    15
100
AcDbCircle
 10
-122.6262806342895
 20
38.11802949757715
 30
0.0
 40
0.0074999999999867
100
AcDbArc
 50
354.6335481145
 51
5.366451885499963
  0
LINE
  5
39A5
330
A
100
AcDbEntity
  8
001
  6
Continuous
370
    15
100
AcDbLine
 10
-122.6189046510787
 20
38.11725425055065
 30
0.0
 11
-122.618813507195
 21
38.11732805728265
 31
0.0
  0
CIRCLE
  5
39A6
330
A
100
AcDbEntity
  8
001
  6
Continuous
370
    15
100
AcDbCircle
 10
-122.6262806342895
 20
38.11802949757715
 30
0.0
 40
0.0053333333333209
  0
LINE
  5
39A7
330
A
100
AcDbEntity
  8
001
  6
Continuous
370
    15
100
AcDbLine
 10
-122.6327339628227
 20
38.1218510874059
 30
0.0
 11
-122.6327036086918
 21
38.12173780365615
 31
0.0
  0
LINE
  5
39A8
330
A
100
AcDbEntity
  8
001
  6
Continuous
370
    15
100
AcDbLine
 10
-122.6198576598875
 20
38.1143211914979
 30
0.0
 11
-122.6197443757498
 21
38.11435154601715
 31
0.0
  0
LINE
  5
39A9
330
A
100
AcDbEntity
  8
001
  6
Continuous
370
    15
100
AcDbLine
 10
-122.6327036086918
 20
38.12173780365615
 30
0.0
 11
-122.6328168928295
 21
38.12170744913715
 31
0.0
  0
CIRCLE
  5
39AA
330
A
100
AcDbEntity
  8
001
  6
Continuous
370
    15
100
AcDbCircle
 10
-122.6262806342895
 20
38.11802949757715
 30
0.0
 40
0.0099126980762716
  0
CIRCLE
  5
39AB
330
A
100
AcDbEntity
  8
001
  6
Continuous
370
    15
100
AcDbCircle
 10
-122.6262806342895
 20
38.11802949757715
 30
0.0
 40
0.0075
  0
CIRCLE
  5
39AC
330
A
100
AcDbEntity
  8
001
  6
Continuous
370
    15
100
AcDbCircle
 10
-122.6262806342895
 20
38.11802949757715
 30
0.0
 40
0.0099999999999944
  0
CIRCLE
  5
39AD
330
A
100
AcDbEntity
  8
001
  6
Continuous
370
    15
100
AcDbCircle
 10
-122.6262806342895
 20
38.11802949757715
 30
0.0
 40
0.0253198415389918
  0
ARC
  5
39AE
330
A
100
AcDbEntity
  8
001
  6
Continuous
370
    15
100
AcDbCircle
 10
-122.6262806342895
 20
38.11802949757715
 30
0.0
 40
0.029808306837654
100
AcDbArc
 50
236.9158352401
 51
258.0841644024995
  0
ARC
  5
39AF
330
A
100
AcDbEntity
  8
001
  6
Continuous
370
    15
100
AcDbCircle
 10
-122.658100439443
 20
38.08620969242365
 30
0.0
 40
0.0168583598291441
100
AcDbArc
 50
25.23432800609971
 51
64.76567133309969
  0
ARC
  5
39B0
330
A
100
AcDbEntity
  8
001
  6
Continuous
370
    15
100
AcDbCircle
 10
-122.6262806342895
 20
38.11802949757715
 30
0.0
 40
0.0298083068376541
100
AcDbArc
 50
146.9158352401
 51
168.0841644024996
  0
ARC
  5
39B1
330
A
100
AcDbEntity
  8
001
  6
Continuous
370
    15
100
AcDbCircle
 10
-122.658100439443
 20
38.14984930273065
 30
0.0
 40
0.0168583598291441
100
AcDbArc
 50
295.2343280060997
 51
334.7656713330997
  0
ARC
  5
39B2
330
A
100
AcDbEntity
  8
001
  6
Continuous
370
    15
100
AcDbCircle
 10
-122.6262806342895
 20
38.11802949757715
 30
0.0
 40
0.029808306837654
100
AcDbArc
 50
191.9158352400996
 51
213.0841644024999
  0
ARC
  5
39B3
330
A
100
AcDbEntity
  8
001
  6
Continuous
370
    15
100
AcDbCircle
 10
-122.6712806342895
 20
38.11802949757715
 30
0.0
 40
0.0168583598290769
100
AcDbArc
 50
340.2343286669
 51
19.76567133309999
  0
ARC
  5
39B4
330
A
100
AcDbEntity
  8
001
  6
Continuous
370
    15
100
AcDbCircle
 10
-122.6262806342895
 20
38.11802949757715
 30
0.0
 40
0.0298083068375898
100
AcDbArc
 50
281.9158352400996
 51
303.0841647598999
  0
ARC
  5
39B5
330
A
100
AcDbEntity
  8
001
  6
Continuous
370
    15
100
AcDbCircle
 10
-122.6262806342895
 20
38.07302949757715
 30
0.0
 40
0.0168583598291441
100
AcDbArc
 50
70.23432800610018
 51
109.7656713330999
  0
ARC
  5
39B6
330
A
100
AcDbEntity
  8
001
  6
Continuous
370
    15
100
AcDbCircle
 10
-122.6262806342895
 20
38.11802949757715
 30
0.0
 40
0.029808306837654
100
AcDbArc
 50
101.9158352400996
 51
123.0841644025999
  0
ARC
  5
39B7
330
A
100
AcDbEntity
  8
001
  6
Continuous
370
    15
100
AcDbCircle
 10
-122.6262806342895
 20
38.16302949757714
 30
0.0
 40
0.0168583598291441
100
AcDbArc
 50
250.2343280061001
 51
289.7656713331
  0
ARC
  5
39B8
330
A
100
AcDbEntity
  8
001
  6
Continuous
370
    15
100
AcDbCircle
 10
-122.6262806342895
 20
38.11802949757715
 30
0.0
 40
0.029808306837654
100
AcDbArc
 50
56.9158352401001
 51
78.08416440249961
  0
ARC
  5
39B9
330
A
100
AcDbEntity
  8
001
  6
Continuous
370
    15
100
AcDbCircle
 10
-122.5944608291362
 20
38.14984930273065
 30
0.0
 40
0.0168583598291441
100
AcDbArc
 50
205.2343286669002
 51
244.7656719939002
  0
ARC
  5
39BA
330
A
100
AcDbEntity
  8
001
  6
Continuous
370
    15
100
AcDbCircle
 10
-122.6262806342895
 20
38.11802949757715
 30
0.0
 40
0.0298083068375898
100
AcDbArc
 50
11.91583524009963
 51
33.08416475989991
  0
ARC
  5
39BB
330
A
100
AcDbEntity
  8
001
  6
Continuous
370
    15
100
AcDbCircle
 10
-122.6262806342895
 20
38.11802949757715
 30
0.0
 40
0.029808306837654
100
AcDbArc
 50
326.9158352401
 51
348.0841644024995
  0
ARC
  5
39BC
330
A
100
AcDbEntity
  8
001
  6
Continuous
370
    15
100
AcDbCircle
 10
-122.5944608291362
 20
38.08620969242365
 30
0.0
 40
0.0168583598291441
100
AcDbArc
 50
115.2343280060997
 51
154.7656713330997
  0
CIRCLE
  5
39BD
330
A
100
AcDbEntity
  8
001
  6
Continuous
370
    15
100
AcDbCircle
 10
-122.6262806342895
 20
38.11802949757715
 30
0.0
 40
0.0252500000000082
  0
ARC
  5
39BE
330
A
100
AcDbEntity
  8
001
  6
Continuous
370
    15
100
AcDbCircle
 10
-122.6262806342895
 20
38.11802949757715
 30
0.0
 40
0.029999999999942
100
AcDbArc
 50
236.8085841709002
 51
258.1914154734003
  0
SPLINE
  5
39BF
330
A
100
AcDbEntity
  8
001
  6
Continuous
370
    15
100
AcDbSpline
210
0.0
220
0.0
230
1.0
 70
     8
 71
     3
 72
     9
 73
     5
 74
     0
 42
0.0000000001
 43
0.0000000001
 40
0.0
 40
0.0
 40
0.0
 40
0.0
 40
0.377264579037105
 40
1.0
 40
1.0
 40
1.0
 40
1.0
 10
-122.6427037690437
 20
38.09292410812117
 30
0.0
 10
-122.642750769119
 20
38.09295861475553
 30
0.0
 10
-122.6428753503223
 20
38.09305008009915
 30
0.0
 10
-122.6429536069942
 20
38.09318461030719
 30
0.0
 10
-122.6430023401957
 20
38.09326838703292
 30
0.0
  0
ARC
  5
39C0
330
A
100
AcDbEntity
  8
001
  6
Continuous
370
    15
100
AcDbCircle
 10
-122.6262806342895
 20
38.11802949757715
 30
0.0
 40
0.029999999999942
100
AcDbArc
 50
146.8085841709002
 51
168.1914154734003
  0
ARC
  5
39C1
330
A
100
AcDbEntity
  8
001
  6
Continuous
370
    15
100
AcDbCircle
 10
-122.6262806342895
 20
38.11802949757715
 30
0.0
 40
0.029999999999942
100
AcDbArc
 50
191.8085841708999
 51
213.1914154734002
  0
SPLINE
  5
39C2
330
A
100
AcDbEntity
  8
001
  6
Continuous
370
    15
100
AcDbSpline
210
0.0
220
0.0
230
1.0
 70
     8
 71
     3
 72
     9
 73
     5
 74
     0
 42
0.0000000001
 43
0.0000000001
 40
0.0
 40
0.0
 40
0.0
 40
0.0
 40
0.3772907097375349
 40
1.0
 40
1.0
 40
1.0
 40
1.0
 10
-122.655645734877
 20
38.1118902164489
 30
0.0
 10
-122.6556545687712
 20
38.11194785006452
 30
0.0
 10
-122.6556779827964
 20
38.11210060658392
 30
0.0
 10
-122.655638200255
 20
38.11225105933161
 30
0.0
 10
-122.6556134272969
 20
38.11234474765534
 30
0.0
  0
SPLINE
  5
39C3
330
A
100
AcDbEntity
  8
001
  6
Continuous
370
    15
100
AcDbSpline
210
0.0
220
0.0
230
1.0
 70
     8
 71
     3
 72
     9
 73
     5
 74
     0
 42
0.0000000001
 43
0.0000000001
 40
0.0
 40
0.0
 40
0.0
 40
0.0
 40
0.3772907097375349
 40
1.0
 40
1.0
 40
1.0
 40
1.0
 10
-122.6201413531614
 20
38.08866439698972
 30
0.0
 10
-122.620198986777
 20
38.08865556309555
 30
0.0
 10
-122.6203517432964
 20
38.08863214907038
 30
0.0
 10
-122.6205021960441
 20
38.08867193161174
 30
0.0
 10
-122.6205958843678
 20
38.08869670456983
 30
0.0
  0
ARC
  5
39C4
330
A
100
AcDbEntity
  8
001
  6
Continuous
370
    15
100
AcDbCircle
 10
-122.6262806342895
 20
38.11802949757715
 30
0.0
 40
0.029999999999942
100
AcDbArc
 50
281.8085841708999
 51
303.1914154734002
  0
ARC
  5
39C5
330
A
100
AcDbEntity
  8
001
  6
Continuous
370
    15
100
AcDbCircle
 10
-122.6262806342895
 20
38.11802949757715
 30
0.0
 40
0.029999999999942
100
AcDbArc
 50
101.8085841708999
 51
123.1914154734002
  0
SPLINE
  5
39C6
330
A
100
AcDbEntity
  8
001
  6
Continuous
370
    15
100
AcDbSpline
210
0.0
220
0.0
230
1.0
 70
     8
 71
     3
 72
     9
 73
     5
 74
     0
 42
0.0000000001
 43
0.0000000001
 40
0.0
 40
0.0
 40
0.0
 40
0.0
 40
0.3772907097375349
 40
1.0
 40
1.0
 40
1.0
 40
1.0
 10
-122.6324199154178
 20
38.14739459816454
 30
0.0
 10
-122.6323622818022
 20
38.14740343205871
 30
0.0
 10
-122.6322095252828
 20
38.14742684608387
 30
0.0
 10
-122.6320590725351
 20
38.14738706354251
 30
0.0
 10
-122.6319653842114
 20
38.14736229058442
 30
0.0
  0
SPLINE
  5
39C7
330
A
100
AcDbEntity
  8
001
  6
Continuous
370
    15
100
AcDbSpline
210
0.0
220
0.0
230
1.0
 70
     8
 71
     3
 72
     9
 73
     5
 74
     0
 42
0.0000000001
 43
0.0000000001
 40
0.0
 40
0.0
 40
0.0
 40
0.0
 40
0.3773209681501512
 40
1.0
 40
1.0
 40
1.0
 40
1.0
 10
-122.6098574669392
 20
38.14313486685442
 30
0.0
 10
-122.6098104689589
 20
38.14310035802254
 30
0.0
 10
-122.6096859119259
 20
38.14300890052404
 30
0.0
 10
-122.6096076650452
 20
38.14287439372735
 30
0.0
 10
-122.6095589423534
 20
38.14279063916542
 30
0.0
  0
ARC
  5
39C8
330
A
100
AcDbEntity
  8
001
  6
Continuous
370
    15
100
AcDbCircle
 10
-122.6262806342895
 20
38.11802949757715
 30
0.0
 40
0.0300000000000065
100
AcDbArc
 50
56.80851360309985
 51
78.19148639690033
  0
SPLINE
  5
39C9
330
A
100
AcDbEntity
  8
001
  6
Continuous
370
    15
100
AcDbSpline
210
0.0
220
0.0
230
1.0
 70
     8
 71
     3
 72
     9
 73
     5
 74
     0
 42
0.0000000001
 43
0.0000000001
 40
0.0
 40
0.0
 40
0.0
 40
0.0
 40
0.3772629178573714
 40
1.0
 40
1.0
 40
1.0
 40
1.0
 10
-122.5969155337022
 20
38.12416877870535
 30
0.0
 10
-122.5969066997804
 20
38.12411114505406
 30
0.0
 10
-122.5968832839571
 20
38.12395837718698
 30
0.0
 10
-122.5969230745945
 20
38.12380791418284
 30
0.0
 10
-122.5969478536999
 20
38.12371421529067
 30
0.0
  0
ARC
  5
39CA
330
A
100
AcDbEntity
  8
001
  6
Continuous
370
    15
100
AcDbCircle
 10
-122.6262806342895
 20
38.11802949757715
 30
0.0
 40
0.029999999999942
100
AcDbArc
 50
11.80858417089999
 51
33.19141547340022
  0
SPLINE
  5
39CB
330
A
100
AcDbEntity
  8
001
  6
Continuous
370
    15
100
AcDbSpline
210
0.0
220
0.0
230
1.0
 70
     8
 71
     3
 72
     9
 73
     5
 74
     0
 42
0.0000000001
 43
0.0000000001
 40
0.0
 40
0.0
 40
0.0
 40
0.0
 40
0.3773209681501512
 40
1.0
 40
1.0
 40
1.0
 40
1.0
 10
-122.6011752650123
 20
38.10160633022674
 30
0.0
 10
-122.6012097738442
 20
38.10155933224644
 30
0.0
 10
-122.6013012313427
 20
38.1014347752134
 30
0.0
 10
-122.6014357381394
 20
38.10135652833276
 30
0.0
 10
-122.6015194927013
 20
38.10130780564087
 30
0.0
  0
ARC
  5
39CC
330
A
100
AcDbEntity
  8
001
  6
Continuous
370
    15
100
AcDbCircle
 10
-122.6262806342895
 20
38.11802949757715
 30
0.0
 40
0.0300000000000065
100
AcDbArc
 50
326.8085136030998
 51
348.1914863969003
  0
ARC
  5
39CD
330
A
100
AcDbEntity
  8
001
  6
Continuous
370
    15
100
AcDbCircle
 10
-122.6262806342895
 20
38.07302949757715
 30
0.0
 40
0.0166666666666602
100
AcDbArc
 50
70.05700826319972
 51
109.9429917368002
  0
ARC
  5
39CE
330
A
100
AcDbEntity
  8
001
  6
Continuous
370
    15
100
AcDbCircle
 10
-122.5944608291362
 20
38.08620969242365
 30
0.0
 40
0.0166666666666602
100
AcDbArc
 50
115.0570082631998
 51
154.9429917368001
  0
ARC
  5
39CF
330
A
100
AcDbEntity
  8
001
  6
Continuous
370
    15
100
AcDbCircle
 10
-122.6712806342895
 20
38.11802949757715
 30
0.0
 40
0.0166666666666602
100
AcDbArc
 50
340.0570082631996
 51
19.94287286180008
  0
SPLINE
  5
39D0
330
A
100
AcDbEntity
  8
001
  6
Continuous
370
    15
100
AcDbSpline
210
0.0
220
0.0
230
1.0
 70
     8
 71
     3
 72
     9
 73
     5
 74
     0
 42
0.0000000001
 43
0.0000000001
 40
0.0
 40
0.0
 40
0.0
 40
0.0
 40
0.3772924810454655
 40
1.0
 40
1.0
 40
1.0
 40
1.0
 10
-122.6095589423534
 20
38.09326835598884
 30
0.0
 10
-122.6095864541767
 20
38.09321694787759
 30
0.0
 10
-122.6096593732642
 20
38.09308069254829
 30
0.0
 10
-122.6097814693714
 20
38.09298419676868
 30
0.0
 10
-122.6098574995355
 20
38.09292410812117
 30
0.0
  0
SPLINE
  5
39D1
330
A
100
AcDbEntity
  8
001
  6
Continuous
370
    15
100
AcDbSpline
210
0.0
220
0.0
230
1.0
 70
     8
 71
     3
 72
     9
 73
     5
 74
     0
 42
0.0000000001
 43
0.0000000001
 40
0.0
 40
0.0
 40
0.0
 40
0.0
 40
0.3772641515194838
 40
1.0
 40
1.0
 40
1.0
 40
1.0
 10
-122.6556134148793
 20
38.12371421490261
 30
0.0
 10
-122.6556303150541
 20
38.12377001888816
 30
0.0
 10
-122.6556751117166
 20
38.123917936429
 30
0.0
 10
-122.6556570084377
 20
38.12407251652572
 30
0.0
 10
-122.655645734877
 20
38.1241687790934
 30
0.0
  0
SPLINE
  5
39D2
330
A
100
AcDbEntity
  8
001
  6
Continuous
370
    15
100
AcDbSpline
210
0.0
220
0.0
230
1.0
 70
     8
 71
     3
 72
     9
 73
     5
 74
     0
 42
0.0000000001
 43
0.0000000001
 40
0.0
 40
0.0
 40
0.0
 40
0.0
 40
0.3772899256742873
 40
1.0
 40
1.0
 40
1.0
 40
1.0
 10
-122.6319653838233
 20
38.08869670456983
 30
0.0
 10
-122.6320211883238
 20
38.08867980772347
 30
0.0
 10
-122.6321690971247
 20
38.08863502294335
 30
0.0
 10
-122.6323236648969
 20
38.08865312478843
 30
0.0
 10
-122.6324199158059
 20
38.08866439698972
 30
0.0
  0
SPLINE
  5
39D3
330
A
100
AcDbEntity
  8
001
  6
Continuous
370
    15
100
AcDbSpline
210
0.0
220
0.0
230
1.0
 70
     8
 71
     3
 72
     9
 73
     5
 74
     0
 42
0.0000000001
 43
0.0000000001
 40
0.0
 40
0.0
 40
0.0
 40
0.0
 40
0.3772619784307025
 40
1.0
 40
1.0
 40
1.0
 40
1.0
 10
-122.6510417448338
 20
38.10130779167103
 30
0.0
 10
-122.6510931539261
 20
38.10133530081411
 30
0.0
 10
-122.6512294228724
 20
38.10140821869253
 30
0.0
 10
-122.6513259269729
 20
38.10153032351035
 30
0.0
 10
-122.6513860237456
 20
38.10160636282303
 30
0.0
  0
ARC
  5
39D4
330
A
100
AcDbEntity
  8
001
  6
Continuous
370
    15
100
AcDbCircle
 10
-122.6262806342895
 20
38.16302949757714
 30
0.0
 40
0.0166666666666602
100
AcDbArc
 50
250.0570082631996
 51
289.9428728618
  0
ARC
  5
39D5
330
A
100
AcDbEntity
  8
001
  6
Continuous
370
    15
100
AcDbCircle
 10
-122.658100439443
 20
38.14984930273065
 30
0.0
 40
0.0166666666666602
100
AcDbArc
 50
295.0570082631998
 51
334.9429917368002
  0
ARC
  5
39D6
330
A
100
AcDbEntity
  8
001
  6
Continuous
370
    15
100
AcDbCircle
 10
-122.5812806342895
 20
38.11802949757715
 30
0.0
 40
0.0166666666666602
100
AcDbArc
 50
160.0571264715
 51
199.9429917368002
  0
ARC
  5
39D7
330
A
100
AcDbEntity
  8
001
  6
Continuous
370
    15
100
AcDbCircle
 10
-122.5944608291362
 20
38.14984930273065
 30
0.0
 40
0.0166666666666602
100
AcDbArc
 50
205.0570082631998
 51
244.9428728618002
  0
SPLINE
  5
39D8
330
A
100
AcDbEntity
  8
001
  6
Continuous
370
    15
100
AcDbSpline
210
0.0
220
0.0
230
1.0
 70
     8
 71
     3
 72
     9
 73
     5
 74
     0
 42
0.0000000001
 43
0.0000000001
 40
0.0
 40
0.0
 40
0.0
 40
0.0
 40
0.3772619784307025
 40
1.0
 40
1.0
 40
1.0
 40
1.0
 10
-122.6015195237454
 20
38.13475120348321
 30
0.0
 10
-122.6014681146531
 20
38.13472369434014
 30
0.0
 10
-122.6013318457068
 20
38.13465077646172
 30
0.0
 10
-122.6012353416063
 20
38.1345286716439
 30
0.0
 10
-122.6011752448336
 20
38.13445263233123
 30
0.0
  0
SPLINE
  5
39D9
330
A
100
AcDbEntity
  8
001
  6
Continuous
370
    15
100
AcDbSpline
210
0.0
220
0.0
230
1.0
 70
     8
 71
     3
 72
     9
 73
     5
 74
     0
 42
0.0000000001
 43
0.0000000001
 40
0.0
 40
0.0
 40
0.0
 40
0.0
 40
0.3772943112296996
 40
1.0
 40
1.0
 40
1.0
 40
1.0
 10
-122.6205959169641
 20
38.14736227816679
 30
0.0
 10
-122.6205401130138
 20
38.14737917827148
 30
0.0
 10
-122.6203922073904
 20
38.14742397116706
 30
0.0
 10
-122.6202376395338
 20
38.14740587565566
 30
0.0
 10
-122.6201413892501
 20
38.14739460747776
 30
0.0
  0
SPLINE
  5
39DA
330
A
100
AcDbEntity
  8
001
  6
Continuous
370
    15
100
AcDbSpline
210
0.0
220
0.0
230
1.0
 70
     8
 71
     3
 72
     9
 73
     5
 74
     0
 42
0.0000000001
 43
0.0000000001
 40
0.0
 40
0.0
 40
0.0
 40
0.0
 40
0.3773200897960445
 40
1.0
 40
1.0
 40
1.0
 40
1.0
 10
-122.5969478412823
 20
38.1123447480434
 30
0.0
 10
-122.5969309445061
 20
38.11228894357814
 30
0.0
 10
-122.5968861634923
 20
38.11214104669493
 30
0.0
 10
-122.5969042575702
 20
38.11198649116263
 30
0.0
 10
-122.596915524389
 20
38.11189025253765
 30
0.0
  0
ARC
  5
39DB
330
A
100
AcDbEntity
  8
001
  6
Continuous
370
    15
100
AcDbCircle
 10
-122.658100439443
 20
38.08620969242365
 30
0.0
 40
0.0166666666666602
100
AcDbArc
 50
25.05712647149994
 51
64.94287286180029
  0
SPLINE
  5
39DC
330
A
100
AcDbEntity
  8
001
  6
Continuous
370
    15
100
AcDbSpline
210
0.0
220
0.0
230
1.0
 70
     8
 71
     3
 72
     9
 73
     5
 74
     0
 42
0.0000000001
 43
0.0000000001
 40
0.0
 40
0.0
 40
0.0
 40
0.0
 40
0.3772920160177823
 40
1.0
 40
1.0
 40
1.0
 40
1.0
 10
-122.6513860237456
 20
38.13445263233123
 30
0.0
 10
-122.6513515171209
 20
38.13449963236817
 30
0.0
 10
-122.6512600584545
 20
38.13462420441037
 30
0.0
 10
-122.651125540982
 20
38.13470245946566
 30
0.0
 10
-122.6510417758779
 20
38.13475118951338
 30
0.0
  0
SPLINE
  5
39DD
330
A
100
AcDbEntity
  8
001
  6
Continuous
370
    15
100
AcDbSpline
210
0.0
220
0.0
230
1.0
 70
     8
 71
     3
 72
     9
 73
     5
 74
     0
 42
0.0000000001
 43
0.0000000001
 40
0.0
 40
0.0
 40
0.0
 40
0.0
 40
0.3772924810454655
 40
1.0
 40
1.0
 40
1.0
 40
1.0
 10
-122.6430023262259
 20
38.14279063916542
 30
0.0
 10
-122.6429748144025
 20
38.14284204727666
 30
0.0
 10
-122.6429018953151
 20
38.14297830260596
 30
0.0
 10
-122.6427797992078
 20
38.14307479838557
 30
0.0
 10
-122.6427037690437
 20
38.14313488703308
 30
0.0
  0
SPLINE
  5
39DE
330
A
100
AcDbEntity
  8
001
  6
Continuous
370
    15
100
AcDbSpline
210
0.0
220
0.0
230
1.0
 70
     8
 71
     3
 72
    11
 73
     7
 74
     0
 42
0.0000000001
 43
0.0000000001
 40
0.0
 40
0.0
 40
0.0
 40
0.0
 40
0.2500945408155372
 40
0.4999948402560767
 40
0.7497195604726189
 40
1.0
 40
1.0
 40
1.0
 40
1.0
 10
-122.6675259898708
 20
38.06499394899942
 30
0.0
 10
-122.6676265805926
 20
38.06509453850162
 30
0.0
 10
-122.66782768391
 20
38.06529563938099
 30
0.0
 10
-122.6682082154611
 20
38.06567617059734
 30
0.0
 10
-122.6686229632452
 20
38.06609092337411
 30
0.0
 10
-122.6689146098801
 20
38.06638256934241
 30
0.0
 10
-122.6690605952696
 20
38.0665285543982
 30
0.0
  0
SPLINE
  5
39DF
330
A
100
AcDbEntity
  8
001
  6
Continuous
370
    15
100
AcDbSpline
210
0.0
220
0.0
230
1.0
 70
     8
 71
     3
 72
    11
 73
     7
 74
     0
 42
0.0000000001
 43
0.0000000001
 40
0.0
 40
0.0
 40
0.0
 40
0.0
 40
0.2500947832067023
 40
0.4999953248501487
 40
0.7497219710711384
 40
1.0
 40
1.0
 40
1.0
 40
1.0
 10
-122.6840302272992
 20
38.07207009756403
 30
0.0
 10
-122.6839296377802
 20
38.07196950684397
 30
0.0
 10
-122.6837285368672
 20
38.0717684035298
 30
0.0
 10
-122.6833480050479
 20
38.07138787109933
 30
0.0
 10
-122.6829332517354
 20
38.0709731238301
 30
0.0
 10
-122.6826416077856
 20
38.07068147659204
 30
0.0
 10
-122.6824956250048
 20
38.07053549216526
 30
0.0
  0
SPLINE
  5
39E0
330
A
100
AcDbEntity
  8
001
  6
Continuous
370
    15
100
AcDbSpline
210
0.0
220
0.0
230
1.0
 70
     8
 71
     3
 72
    11
 73
     7
 74
     0
 42
0.0000000001
 43
0.0000000001
 40
0.0
 40
0.0
 40
0.0
 40
0.0
 40
0.2500947865967442
 40
0.4999963989113715
 40
0.7497207529377809
 40
1.0
 40
1.0
 40
1.0
 40
1.0
 10
-122.6777815774685
 20
38.07524953659711
 30
0.0
 10
-122.6779274490123
 20
38.07539540858492
 30
0.0
 10
-122.6782190794279
 20
38.0756870398884
 30
0.0
 10
-122.6786337684865
 20
38.07610172229379
 30
0.0
 10
-122.6790144663869
 20
38.07648242684882
 30
0.0
 10
-122.6792155363262
 20
38.07668349589952
 30
0.0
 10
-122.6793161828673
 20
38.07678414199589
 30
0.0
  0
SPLINE
  5
39E1
330
A
100
AcDbEntity
  8
001
  6
Continuous
370
    15
100
AcDbSpline
210
0.0
220
0.0
230
1.0
 70
     8
 71
     3
 72
    11
 73
     7
 74
     0
 42
0.0000000001
 43
0.0000000001
 40
0.0
 40
0.0
 40
0.0
 40
0.0
 40
0.2500941233945355
 40
0.4999959567174961
 40
0.7497205315954745
 40
1.0
 40
1.0
 40
1.0
 40
1.0
 10
-122.6737746397015
 20
38.06181450686194
 30
0.0
 10
-122.6736287675831
 20
38.06166863649977
 30
0.0
 10
-122.6733371355033
 20
38.0613770079309
 30
0.0
 10
-122.672922454116
 20
38.06096231883835
 30
0.0
 10
-122.6725417494219
 20
38.06058162107557
 30
0.0
 10
-122.6723406803897
 20
38.06038055111792
 30
0.0
 10
-122.6722400343027
 20
38.06027990456758
 30
0.0
  0
LINE
  5
39E2
330
A
100
AcDbEntity
  8
001
  6
Continuous
370
    15
100
AcDbLine
 10
-122.6690605952695
 20
38.06652855439815
 30
0.0
 11
-122.6777815774685
 21
38.07524953659715
 31
0.0
  0
LINE
  5
39E3
330
A
100
AcDbEntity
  8
001
  6
Continuous
370
    15
100
AcDbLine
 10
-122.6824956250048
 20
38.07053549216515
 30
0.0
 11
-122.6737746397015
 21
38.0618145068619
 31
0.0
  0
ELLIPSE
  5
39E4
330
A
100
AcDbEntity
  8
001
  6
Continuous
370
    15
100
AcDbEllipse
 10
-122.6858456714428
 20
38.0745926469374
 30
0.0
 11
0.0003535533905933
 21
0.0003535533905933
 31
0.0
210
0.0
220
0.0
230
1.0
 40
0.4662411946999999
 41
1.570796326806617
 42
3.141592653599306
  0
LINE
  5
39E5
330
A
100
AcDbEntity
  8
001
  6
Continuous
370
    15
100
AcDbLine
 10
-122.686199227905
 20
38.0742390950654
 30
0.0
 11
-122.6840302272993
 21
38.07207009756415
 31
0.0
  0
ELLIPSE
  5
39E6
330
A
100
AcDbEntity
  8
001
  6
Continuous
370
    15
100
AcDbEllipse
 10
-122.681838733016
 20
38.07859958536415
 30
0.0
 11
0.0003535533905933
 21
0.0003535533905932
 31
0.0
210
0.0
220
0.0
230
1.0
 40
0.4662411947
 41
0.0
 42
1.570796326789053
  0
LINE
  5
39E7
330
A
100
AcDbEntity
  8
001
  6
Continuous
370
    15
100
AcDbLine
 10
-122.6793161828672
 20
38.0767841419959
 30
0.0
 11
-122.6814851772642
 21
38.07895313949715
 31
0.0
  0
ELLIPSE
  5
39E8
330
A
100
AcDbEntity
  8
001
  6
Continuous
370
    15
100
AcDbEllipse
 10
-122.6697174849295
 20
38.05846446042415
 30
0.0
 11
0.0003535533905933
 21
0.0003535533905933
 31
0.0
210
0.0
220
0.0
230
1.0
 40
0.4662411947000001
 41
3.141592653588823
 42
4.712388980372915
  0
LINE
  5
39E9
330
A
100
AcDbEntity
  8
001
  6
Continuous
370
    15
100
AcDbLine
 10
-122.6722400343028
 20
38.06027990456765
 30
0.0
 11
-122.6700710368012
 21
38.0581109039619
 31
0.0
  0
ELLIPSE
  5
39EA
330
A
100
AcDbEntity
  8
001
  6
Continuous
370
    15
100
AcDbEllipse
 10
-122.6657105465027
 20
38.0624713988509
 30
0.0
 11
0.0003535533905932
 21
0.0003535533905933
 31
0.0
210
0.0
220
0.0
230
1.0
 40
0.4662411947
 41
4.712388980390513
 42
6.283185307179585
  0
LINE
  5
39EB
330
A
100
AcDbEntity
  8
001
  6
Continuous
370
    15
100
AcDbLine
 10
-122.6653569923695
 20
38.0628249546024
 30
0.0
 11
-122.6675259898708
 21
38.0649939489994
 31
0.0
  0
LINE
  5
39EC
330
A
100
AcDbEntity
  8
001
  6
Continuous
370
    15
100
AcDbLine
 10
-122.6860105109073
 20
38.0747574878369
 30
0.0
 11
-122.6820035762445
 21
38.0787644256039
 31
0.0
  0
LINE
  5
39ED
330
A
100
AcDbEntity
  8
001
  6
Continuous
370
    15
100
AcDbLine
 10
-122.6655457062628
 20
38.06230655562215
 30
0.0
 11
-122.6695526440297
 21
38.05829962095965
 31
0.0
  0
CIRCLE
  5
39EE
330
A
100
AcDbEntity
  8
001
  6
Continuous
370
    15
100
AcDbCircle
 10
-122.6262806342895
 20
38.11802949757715
 30
0.0
 40
0.1
  0
CIRCLE
  5
39EF
330
A
100
AcDbEntity
  8
001
  6
Continuous
370
    15
100
AcDbCircle
 10
-122.6262806342895
 20
38.1736128309104
 30
0.0
 40
0.0058333333333334
  0
CIRCLE
  5
39F0
330
A
100
AcDbEntity
  8
001
  6
Continuous
370
    15
100
AcDbCircle
 10
-122.6262806342895
 20
38.0624461642439
 30
0.0
 40
0.0058333333333334
  0
CIRCLE
  5
39F1
330
A
100
AcDbEntity
  8
001
  6
Continuous
370
    15
100
AcDbCircle
 10
-122.695863967623
 20
38.11802949757715
 30
0.0
 40
0.0058333333333333
  0
CIRCLE
  5
39F2
330
A
100
AcDbEntity
  8
001
  6
Continuous
370
    15
100
AcDbCircle
 10
-122.5566973009563
 20
38.11802949757715
 30
0.0
 40
0.0058333333333333
  0
LINE
  5
39F3
330
A
100
AcDbEntity
  8
001
  6
Continuous
370
    15
100
AcDbLine
 10
-122.6784886841332
 20
38.08302771301415
 30
0.0
 11
-122.6612824188527
 21
38.0658214477334
 31
0.0
  0
LINE
  5
39F4
330
A
100
AcDbEntity
  8
001
  6
Continuous
370
    15
100
AcDbLine
 10
-122.6730675330367
 20
38.0540363366539
 30
0.0
 11
-122.690273795213
 21
38.07124259883015
 31
0.0
  0
LINE
  5
39F5
330
A
100
AcDbEntity
  8
001
  6
Continuous
370
    15
100
AcDbLine
 10
-122.6867382649935
 20
38.0747781321539
 30
0.0
 11
-122.686199227905
 21
38.0742390950654
 31
0.0
  0
LINE
  5
39F6
330
A
100
AcDbEntity
  8
001
  6
Continuous
370
    15
100
AcDbLine
 10
-122.664817955281
 20
38.06228591130515
 30
0.0
 11
-122.6653569923695
 21
38.0628249546024
 31
0.0
  0
LINE
  5
39F7
330
A
100
AcDbEntity
  8
001
  6
Continuous
370
    15
100
AcDbLine
 10
-122.6814851772642
 20
38.07895313949715
 30
0.0
 11
-122.6820242205615
 21
38.07949217658565
 31
0.0
  0
LINE
  5
39F8
330
A
100
AcDbEntity
  8
001
  6
Continuous
370
    15
100
AcDbLine
 10
-122.6700710368012
 20
38.0581109039619
 30
0.0
 11
-122.6695319997127
 21
38.0575718668734
 31
0.0
  0
ARC
  5
39F9
330
A
100
AcDbEntity
  8
001
  6
Continuous
370
    15
100
AcDbCircle
 10
-122.6802564519203
 20
38.0812599449554
 30
0.0
 40
0.0025
100
AcDbArc
 50
45.0
 51
225.0
  0
ARC
  5
39FA
330
A
100
AcDbEntity
  8
001
  6
Continuous
370
    15
100
AcDbCircle
 10
-122.6712997660253
 20
38.05580410083265
 30
0.0
 40
0.0025
100
AcDbArc
 50
225.0000000002999
 51
45.0
  0
ARC
  5
39FB
330
A
100
AcDbEntity
  8
001
  6
Continuous
370
    15
100
AcDbCircle
 10
-122.688506031034
 20
38.07301036584165
 30
0.0
 40
0.0025
100
AcDbArc
 50
45.0
 51
224.9999999998002
  0
ARC
  5
39FC
330
A
100
AcDbEntity
  8
001
  6
Continuous
370
    15
100
AcDbCircle
 10
-122.6630501869113
 20
38.06405367994665
 30
0.0
 40
0.0025
100
AcDbArc
 50
225.0
 51
44.99999999980022
  0
SPLINE
  5
39FD
330
A
100
AcDbEntity
  8
001
  6
Continuous
370
    15
100
AcDbSpline
210
0.0
220
0.0
230
1.0
 70
     8
 71
     3
 72
     9
 73
     5
 74
     0
 42
0.0000000001
 43
0.0000000001
 40
0.0
 40
0.0
 40
0.0
 40
0.0
 40
0.7700157830392395
 40
1.0
 40
1.0
 40
1.0
 40
1.0
 10
-122.5971178945756
 20
38.12078506493097
 30
0.0
 10
-122.5971160762291
 20
38.12078611469451
 30
0.0
 10
-122.5971137147886
 20
38.12078747799585
 30
0.0
 10
-122.5971139303424
 20
38.12078735292795
 30
0.0
 10
-122.5971139799164
 20
38.12078732416431
 30
0.0
  0
LINE
  5
39FE
330
A
100
AcDbEntity
  8
001
  6
Continuous
370
    15
100
AcDbLine
 10
-122.5971178945755
 20
38.1207850649309
 30
0.0
 11
-122.5971139674987
 21
38.1206653917264
 31
0.0
  0
SPLINE
  5
39FF
330
A
100
AcDbEntity
  8
001
  6
Continuous
370
    15
100
AcDbSpline
210
0.0
220
0.0
230
1.0
 70
    24
 71
     3
 72
    11
 73
     7
 74
     0
 42
0.0000000001
 43
0.0000000001
 40
0.0
 40
0.0
 40
0.0
 40
0.0
 40
0.2502573234265926
 40
0.5000051707407113
 40
0.749914035648168
 40
1.0
 40
1.0
 40
1.0
 40
1.0
 10
-122.5971139674988
 20
38.11886283095004
 30
0.0
 10
-122.5971139674988
 20
38.11906941478619
 30
0.0
 10
-122.5971139674988
 20
38.11948216189323
 30
0.0
 10
-122.5971139674988
 20
38.12000015773032
 30
0.0
 10
-122.5971139674988
 20
38.12042336837519
 30
0.0
 10
-122.5971139674988
 20
38.12058469822815
 30
0.0
 10
-122.5971139674988
 20
38.12066539172636
 30
0.0
  0
LINE
  5
3A00
330
A
100
AcDbEntity
  8
001
  6
Continuous
370
    15
100
AcDbLine
 10
-122.5971139674987
 20
38.11886283095015
 30
0.0
 11
-122.5971178945755
 21
38.11886283095015
 31
0.0
  0
SPLINE
  5
3A01
330
A
100
AcDbEntity
  8
001
  6
Continuous
370
    15
100
AcDbSpline
210
0.0
220
0.0
230
1.0
 70
     8
 71
     3
 72
    11
 73
     7
 74
     0
 42
0.0000000001
 43
0.0000000001
 40
0.0
 40
0.0
 40
0.0
 40
0.0
 40
0.3850082302919794
 40
0.5000000000000544
 40
0.6149917697080206
 40
1.0
 40
1.0
 40
1.0
 40
1.0
 10
-122.5971178945756
 20
38.11886283095004
 30
0.0
 10
-122.5971160423278
 20
38.11864894076202
 30
0.0
 10
-122.5971136368625
 20
38.11837116723511
 30
0.0
 10
-122.5971140588131
 20
38.11802949757712
 30
0.0
 10
-122.5971136368625
 20
38.11768782791914
 30
0.0
 10
-122.5971160423278
 20
38.11741005439223
 30
0.0
 10
-122.5971178945756
 20
38.11719616420421
 30
0.0
  0
LINE
  5
3A02
330
A
100
AcDbEntity
  8
001
  6
Continuous
370
    15
100
AcDbLine
 10
-122.5971139674987
 20
38.11719616420415
 30
0.0
 11
-122.5971178945755
 21
38.11719616420415
 31
0.0
  0
SPLINE
  5
3A03
330
A
100
AcDbEntity
  8
001
  6
Continuous
370
    15
100
AcDbSpline
210
0.0
220
0.0
230
1.0
 70
    24
 71
     3
 72
    11
 73
     7
 74
     0
 42
0.0000000001
 43
0.0000000001
 40
0.0
 40
0.0
 40
0.0
 40
0.0
 40
0.2502572073694558
 40
0.5000046536053315
 40
0.74991451578847
 40
1.0
 40
1.0
 40
1.0
 40
1.0
 10
-122.5971139674988
 20
38.1153936034279
 30
0.0
 10
-122.5971139674988
 20
38.11547431298926
 30
0.0
 10
-122.5971139674988
 20
38.11563556771075
 30
0.0
 10
-122.5971139674988
 20
38.11605904964397
 30
0.0
 10
-122.5971139674988
 20
38.11657704612019
 30
0.0
 10
-122.5971139674988
 20
38.11698974318996
 30
0.0
 10
-122.5971139674988
 20
38.11719616420421
 30
0.0
  0
LINE
  5
3A04
330
A
100
AcDbEntity
  8
001
  6
Continuous
370
    15
100
AcDbLine
 10
-122.5971139674987
 20
38.1153936034279
 30
0.0
 11
-122.5971178945755
 21
38.1152739302234
 31
0.0
  0
SPLINE
  5
3A05
330
A
100
AcDbEntity
  8
001
  6
Continuous
370
    15
100
AcDbSpline
210
0.0
220
0.0
230
1.0
 70
     8
 71
     3
 72
     9
 73
     5
 74
     0
 42
0.0000000001
 43
0.0000000001
 40
0.0
 40
0.0
 40
0.0
 40
0.0
 40
0.2298985372774982
 40
1.0
 40
1.0
 40
1.0
 40
1.0
 10
-122.5971139799164
 20
38.11527167098994
 30
0.0
 10
-122.5971139303811
 20
38.11527164224862
 30
0.0
 10
-122.5971137149151
 20
38.11527151723123
 30
0.0
 10
-122.5971160761699
 20
38.11527288042544
 30
0.0
 10
-122.5971178945756
 20
38.11527393022329
 30
0.0
  0
SPLINE
  5
3A06
330
A
100
AcDbEntity
  8
001
  6
PHANTOM
370
     0
100
AcDbSpline
210
0.0
220
0.0
230
1.0
 70
     8
 71
     3
 72
    23
 73
    19
 74
     0
 42
0.0000000001
 43
0.0000000001
 40
0.0
 40
0.0
 40
0.0
 40
0.0
 40
0.0536860198514696
 40
0.1319441211671148
 40
0.2053959983345638
 40
0.2740243664226628
 40
0.3378124490695978
 40
0.396747160516182
 40
0.4508174205632903
 40
0.5000150250425445
 40
0.5493136920415852
 40
0.6034560660840654
 40
0.6624343117489251
 40
0.7262371410950834
 40
0.7948508989306175
 40
0.8682603646907187
 40
0.9464474405536156
 40
1.0
 40
1.0
 40
1.0
 40
1.0
 10
-122.6159568226567
 20
38.16076468367217
 30
0.0
 10
-122.6159999747235
 20
38.16074023145801
 30
0.0
 10
-122.6161060295503
 20
38.16068013525576
 30
0.0
 10
-122.6169205931059
 20
38.16059583246027
 30
0.0
 10
-122.6181706041448
 20
38.16051321184506
 30
0.0
 10
-122.6197052583175
 20
38.16044575117629
 30
0.0
 10
-122.621370072279
 20
38.1603930894454
 30
0.0
 10
-122.6230644434547
 20
38.16035529561572
 30
0.0
 10
-122.6247040888999
 20
38.16033233625198
 30
0.0
 10
-122.6262816437233
 20
38.16032390747018
 30
0.0
 10
-122.6278599534301
 20
38.16033233104908
 30
0.0
 10
-122.6295016624665
 20
38.16035525728604
 30
0.0
 10
-122.631196889363
 20
38.160392997669
 30
0.0
 10
-122.6328613687766
 20
38.16044558984263
 30
0.0
 10
-122.6343947478232
 20
38.16051295862765
 30
0.0
 10
-122.6356429067955
 20
38.16059546958751
 30
0.0
 10
-122.6364557000384
 20
38.16067963454477
 30
0.0
 10
-122.6365614994531
 20
38.16073962850029
 30
0.0
 10
-122.6366045072346
 20
38.16076401622432
 30
0.0
  0
SPLINE
  5
3A07
330
A
100
AcDbEntity
  8
001
  6
PHANTOM
370
     0
100
AcDbSpline
210
0.0
220
0.0
230
1.0
 70
     8
 71
     3
 72
    23
 73
    19
 74
     0
 42
0.0000000001
 43
0.0000000001
 40
0.0
 40
0.0
 40
0.0
 40
0.0
 40
0.0620096521562206
 40
0.126090910938285
 40
0.1890320138931566
 40
0.2511311272387116
 40
0.3128927368328748
 40
0.3746310202215423
 40
0.4372964883678604
 40
0.4999378035303663
 40
0.5624372314689403
 40
0.6248949389514415
 40
0.686701347101466
 40
0.7484534013700394
 40
0.8107441905713093
 40
0.8738454273318197
 40
0.9378760638358119
 40
1.0
 40
1.0
 40
1.0
 40
1.0
 10
-122.6176966566263
 20
38.16241764154372
 30
0.0
 10
-122.6176046793381
 20
38.16238297662911
 30
0.0
 10
-122.617417652002
 20
38.16231248872104
 30
0.0
 10
-122.6177106077185
 20
38.16220604645915
 30
0.0
 10
-122.6183741004934
 20
38.1621052264595
 30
0.0
 10
-122.6194459904746
 20
38.16201641540784
 30
0.0
 10
-122.6208356475118
 20
38.16194267901281
 30
0.0
 10
-122.6225025332545
 20
38.16188756237529
 30
0.0
 10
-122.6243578842916
 20
38.16185267266606
 30
0.0
 10
-122.6263200020239
 20
38.16184170835517
 30
0.0
 10
-122.6282779543034
 20
38.16185361475753
 30
0.0
 10
-122.6301249309895
 20
38.16188928086203
 30
0.0
 10
-122.6317823003597
 20
38.16194507244675
 30
0.0
 10
-122.6331625028961
 20
38.16201952971202
 30
0.0
 10
-122.6342220441209
 20
38.16210900685696
 30
0.0
 10
-122.6348695896203
 20
38.16221031060594
 30
0.0
 10
-122.6351453410337
 20
38.16231702296043
 30
0.0
 10
-122.6349432182891
 20
38.16238743491403
 30
0.0
 10
-122.6348436843585
 20
38.16242210878767
 30
0.0
  0
SPLINE
  5
3A08
330
A
100
AcDbEntity
  8
001
  6
PHANTOM
370
     0
100
AcDbSpline
210
0.0
220
0.0
230
1.0
 70
     8
 71
     3
 72
    10
 73
     6
 74
     0
 42
0.0000000001
 43
0.0000000001
 40
0.0
 40
0.0
 40
0.0
 40
0.0
 40
0.3332040669583392
 40
0.6666498916165699
 40
1.0
 40
1.0
 40
1.0
 40
1.0
 10
-122.6348436843585
 20
38.16242210878767
 30
0.0
 10
-122.6335441599573
 20
38.16269693033131
 30
0.0
 10
-122.630944168279
 20
38.16324677281657
 30
0.0
 10
-122.628191703637
 20
38.16408586109416
 30
0.0
 10
-122.6271360180106
 20
38.16465058804434
 30
0.0
 10
-122.6266082509674
 20
38.16493291098712
 30
0.0
  0
LINE
  5
3A09
330
A
100
AcDbEntity
  8
001
  6
PHANTOM
370
     0
100
AcDbLine
 10
-122.6265768318303
 20
38.1649345345929
 30
0.0
 11
-122.625988870766
 21
38.16493454390615
 31
0.0
  0
SPLINE
  5
3A0A
330
A
100
AcDbEntity
  8
001
  6
PHANTOM
370
     0
100
AcDbSpline
210
0.0
220
0.0
230
1.0
 70
     8
 71
     3
 72
    10
 73
     6
 74
     0
 42
0.0000000001
 43
0.0000000001
 40
0.0
 40
0.0
 40
0.0
 40
0.0
 40
0.3332506766821082
 40
0.6667741767089647
 40
1.0
 40
1.0
 40
1.0
 40
1.0
 10
-122.6259525795507
 20
38.16493261606829
 30
0.0
 10
-122.6254230776766
 20
38.16464990801985
 30
0.0
 10
-122.6243636404396
 20
38.1640842604775
 30
0.0
 10
-122.6216048851467
 20
38.16324377118571
 30
0.0
 10
-122.6189990116606
 20
38.16269293611582
 30
0.0
 10
-122.6176966566263
 20
38.16241764154372
 30
0.0
  0
SPLINE
  5
3A0B
330
A
100
AcDbEntity
  8
001
  6
PHANTOM
370
     0
100
AcDbSpline
210
0.0
220
0.0
230
1.0
 70
     8
 71
     3
 72
    11
 73
     7
 74
     0
 42
0.0000000001
 43
0.0000000001
 40
0.0
 40
0.0
 40
0.0
 40
0.0
 40
0.2483346741278186
 40
0.5000000000000315
 40
0.7516653258721816
 40
1.0
 40
1.0
 40
1.0
 40
1.0
 10
-122.6323418651534
 20
38.09097388760584
 30
0.0
 10
-122.6313586889655
 20
38.09125588705832
 30
0.0
 10
-122.6293791502817
 20
38.09182366812526
 30
0.0
 10
-122.6262806342896
 20
38.09204353542271
 30
0.0
 10
-122.6231821182975
 20
38.09182366812526
 30
0.0
 10
-122.6212025796137
 20
38.09125588705832
 30
0.0
 10
-122.6202194034258
 20
38.09097388760584
 30
0.0
  0
SPLINE
  5
3A0C
330
A
100
AcDbEntity
  8
001
  6
PHANTOM
370
     0
100
AcDbSpline
210
0.0
220
0.0
230
1.0
 70
     8
 71
     3
 72
     9
 73
     5
 74
     0
 42
0.0000000001
 43
0.0000000001
 40
0.0
 40
0.0
 40
0.0
 40
0.0
 40
0.5000000405844015
 40
1.0
 40
1.0
 40
1.0
 40
1.0
 10
-122.6411258198923
 20
38.09461219082363
 30
0.0
 10
-122.6397403801931
 20
38.09381615670782
 30
0.0
 10
-122.6369695010195
 20
38.0922240886054
 30
0.0
 10
-122.6338844103586
 20
38.09139062124981
 30
0.0
 10
-122.6323418651534
 20
38.09097388760584
 30
0.0
  0
SPLINE
  5
3A0D
330
A
100
AcDbEntity
  8
001
  6
PHANTOM
370
     0
100
AcDbSpline
210
0.0
220
0.0
230
1.0
 70
     8
 71
     3
 72
    11
 73
     7
 74
     0
 42
0.0000000001
 43
0.0000000001
 40
0.0
 40
0.0
 40
0.0
 40
0.0
 40
0.2483345862908043
 40
0.5000000132272687
 40
0.7516653708061467
 40
1.0
 40
1.0
 40
1.0
 40
1.0
 10
-122.6496977765094
 20
38.10318422970759
 30
0.0
 10
-122.6488031495952
 20
38.10268841502638
 30
0.0
 10
-122.6470018963923
 20
38.10169013544372
 30
0.0
 10
-122.6446554180689
 20
38.09965458331177
 30
0.0
 10
-122.6426198884023
 20
38.09730808529092
 30
0.0
 10
-122.6416216261019
 20
38.09550682263485
 30
0.0
 10
-122.6411258198923
 20
38.09461219082363
 30
0.0
  0
SPLINE
  5
3A0E
330
A
100
AcDbEntity
  8
001
  6
PHANTOM
370
     0
100
AcDbSpline
210
0.0
220
0.0
230
1.0
 70
     8
 71
     3
 72
     9
 73
     5
 74
     0
 42
0.0000000001
 43
0.0000000001
 40
0.0
 40
0.0
 40
0.0
 40
0.0
 40
0.4999999723669545
 40
1.0
 40
1.0
 40
1.0
 40
1.0
 10
-122.6533362442609
 20
38.11196826671337
 30
0.0
 10
-122.6529194987278
 20
38.11042569850136
 30
0.0
 10
-122.6520860076156
 20
38.10734056190684
 30
0.0
 10
-122.6504938535742
 20
38.10456967382505
 30
0.0
 10
-122.6496977765094
 20
38.10318422970759
 30
0.0
  0
SPLINE
  5
3A0F
330
A
100
AcDbEntity
  8
001
  6
PHANTOM
370
     0
100
AcDbSpline
210
0.0
220
0.0
230
1.0
 70
     8
 71
     3
 72
     9
 73
     5
 74
     0
 42
0.0000000001
 43
0.0000000001
 40
0.0
 40
0.0
 40
0.0
 40
0.0
 40
0.5000000270905927
 40
1.0
 40
1.0
 40
1.0
 40
1.0
 10
-122.6523402102894
 20
38.11802949757712
 30
0.0
 10
-122.6523825417371
 20
38.11699896915798
 30
0.0
 10
-122.6524672046281
 20
38.11493791243135
 30
0.0
 10
-122.6530465643937
 20
38.11295814858361
 30
0.0
 10
-122.6533362442609
 20
38.11196826671337
 30
0.0
  0
SPLINE
  5
3A10
330
A
100
AcDbEntity
  8
001
  6
PHANTOM
370
     0
100
AcDbSpline
210
0.0
220
0.0
230
1.0
 70
     8
 71
     3
 72
     9
 73
     5
 74
     0
 42
0.0000000001
 43
0.0000000001
 40
0.0
 40
0.0
 40
0.0
 40
0.0
 40
0.4999999729094029
 40
1.0
 40
1.0
 40
1.0
 40
1.0
 10
-122.6533362442609
 20
38.12409072844088
 30
0.0
 10
-122.6530465643937
 20
38.12310084657064
 30
0.0
 10
-122.6524672046281
 20
38.1211210827229
 30
0.0
 10
-122.6523825417371
 20
38.11906002599627
 30
0.0
 10
-122.6523402102894
 20
38.11802949757712
 30
0.0
  0
SPLINE
  5
3A11
330
A
100
AcDbEntity
  8
001
  6
PHANTOM
370
     0
100
AcDbSpline
210
0.0
220
0.0
230
1.0
 70
     8
 71
     3
 72
     9
 73
     5
 74
     0
 42
0.0000000001
 43
0.0000000001
 40
0.0
 40
0.0
 40
0.0
 40
0.0
 40
0.5000000276330457
 40
1.0
 40
1.0
 40
1.0
 40
1.0
 10
-122.6496977765094
 20
38.13287476544665
 30
0.0
 10
-122.6504938535742
 20
38.1314893213292
 30
0.0
 10
-122.6520860076156
 20
38.12871843324742
 30
0.0
 10
-122.6529194987278
 20
38.12563329665289
 30
0.0
 10
-122.6533362442609
 20
38.12409072844088
 30
0.0
  0
SPLINE
  5
3A12
330
A
100
AcDbEntity
  8
001
  6
PHANTOM
370
     0
100
AcDbSpline
210
0.0
220
0.0
230
1.0
 70
     8
 71
     3
 72
    11
 73
     7
 74
     0
 42
0.0000000001
 43
0.0000000001
 40
0.0
 40
0.0
 40
0.0
 40
0.0
 40
0.2483343700239274
 40
0.4999999762780545
 40
0.7516655654561163
 40
1.0
 40
1.0
 40
1.0
 40
1.0
 10
-122.6411257127902
 20
38.1414467593167
 30
0.0
 10
-122.6416215344601
 20
38.14055213426117
 30
0.0
 10
-122.6426198289095
 20
38.13875088336507
 30
0.0
 10
-122.6446553906627
 20
38.13640440270062
 30
0.0
 10
-122.6470018872532
 20
38.13436885865232
 30
0.0
 10
-122.6488031469402
 20
38.13337057956731
 30
0.0
 10
-122.6496977765094
 20
38.13287476544665
 30
0.0
  0
SPLINE
  5
3A13
330
A
100
AcDbEntity
  8
001
  6
PHANTOM
370
     0
100
AcDbSpline
210
0.0
220
0.0
230
1.0
 70
     8
 71
     3
 72
     9
 73
     5
 74
     0
 42
0.0000000001
 43
0.0000000001
 40
0.0
 40
0.0
 40
0.0
 40
0.0
 40
0.4999999711878084
 40
1.0
 40
1.0
 40
1.0
 40
1.0
 10
-122.6323418651534
 20
38.14508510754841
 30
0.0
 10
-122.6338843975369
 20
38.14466837378521
 30
0.0
 10
-122.6369694624818
 20
38.14383490621077
 30
0.0
 10
-122.6397402959675
 20
38.14224280831197
 30
0.0
 10
-122.6411257127902
 20
38.1414467593167
 30
0.0
  0
SPLINE
  5
3A14
330
A
100
AcDbEntity
  8
001
  6
PHANTOM
370
     0
100
AcDbSpline
210
0.0
220
0.0
230
1.0
 70
     8
 71
     3
 72
    11
 73
     7
 74
     0
 42
0.0000000001
 43
0.0000000001
 40
0.0
 40
0.0
 40
0.0
 40
0.0
 40
0.2483346741278186
 40
0.5000000000000848
 40
0.7516653258721816
 40
1.0
 40
1.0
 40
1.0
 40
1.0
 10
-122.6202194034258
 20
38.14508510754841
 30
0.0
 10
-122.6212025796137
 20
38.14480310809594
 30
0.0
 10
-122.6231821182975
 20
38.14423532702899
 30
0.0
 10
-122.6262806342896
 20
38.14401545973154
 30
0.0
 10
-122.6293791502817
 20
38.14423532702899
 30
0.0
 10
-122.6313586889655
 20
38.14480310809594
 30
0.0
 10
-122.6323418651534
 20
38.14508510754841
 30
0.0
  0
SPLINE
  5
3A15
330
A
100
AcDbEntity
  8
001
  6
PHANTOM
370
     0
100
AcDbSpline
210
0.0
220
0.0
230
1.0
 70
     8
 71
     3
 72
     9
 73
     5
 74
     0
 42
0.0000000001
 43
0.0000000001
 40
0.0
 40
0.0
 40
0.0
 40
0.0
 40
0.5000000276330457
 40
1.0
 40
1.0
 40
1.0
 40
1.0
 10
-122.6114353664201
 20
38.14144663979696
 30
0.0
 10
-122.6128208105375
 20
38.14224271686168
 30
0.0
 10
-122.6155916986193
 20
38.14383487090312
 30
0.0
 10
-122.6186768352139
 20
38.14466836201534
 30
0.0
 10
-122.6202194034258
 20
38.14508510754841
 30
0.0
  0
SPLINE
  5
3A16
330
A
100
AcDbEntity
  8
001
  6
PHANTOM
370
     0
100
AcDbSpline
210
0.0
220
0.0
230
1.0
 70
     8
 71
     3
 72
    11
 73
     7
 74
     0
 42
0.0000000001
 43
0.0000000001
 40
0.0
 40
0.0
 40
0.0
 40
0.0
 40
0.2483346929188147
 40
0.5
 40
0.7516653070811853
 40
1.0
 40
1.0
 40
1.0
 40
1.0
 10
-122.6028634920698
 20
38.13287476544665
 30
0.0
 10
-122.6037581065487
 20
38.13337057201977
 30
0.0
 10
-122.6055593338932
 20
38.13436883482244
 30
0.0
 10
-122.6079057833179
 20
38.1364043485488
 30
0.0
 10
-122.6099412970443
 20
38.13875079797353
 30
0.0
 10
-122.610939559847
 20
38.14055202531802
 30
0.0
 10
-122.6114353664201
 20
38.14144663979696
 30
0.0
  0
SPLINE
  5
3A17
330
A
100
AcDbEntity
  8
001
  6
PHANTOM
370
     0
100
AcDbSpline
210
0.0
220
0.0
230
1.0
 70
     8
 71
     3
 72
     9
 73
     5
 74
     0
 42
0.0000000001
 43
0.0000000001
 40
0.0
 40
0.0
 40
0.0
 40
0.0
 40
0.4999999723669545
 40
1.0
 40
1.0
 40
1.0
 40
1.0
 10
-122.5992250243183
 20
38.12409072844088
 30
0.0
 10
-122.5996417698514
 20
38.12563329665289
 30
0.0
 10
-122.6004752609636
 20
38.12871843324742
 30
0.0
 10
-122.6020674150051
 20
38.1314893213292
 30
0.0
 10
-122.6028634920698
 20
38.13287476544665
 30
0.0
  0
SPLINE
  5
3A18
330
A
100
AcDbEntity
  8
001
  6
PHANTOM
370
     0
100
AcDbSpline
210
0.0
220
0.0
230
1.0
 70
     8
 71
     3
 72
     9
 73
     5
 74
     0
 42
0.0000000001
 43
0.0000000001
 40
0.0
 40
0.0
 40
0.0
 40
0.0
 40
0.5000000270905744
 40
1.0
 40
1.0
 40
1.0
 40
1.0
 10
-122.6002210582898
 20
38.11802949757712
 30
0.0
 10
-122.6001787268421
 20
38.11906002599627
 30
0.0
 10
-122.6000940639511
 20
38.1211210827229
 30
0.0
 10
-122.5995147041855
 20
38.12310084657064
 30
0.0
 10
-122.5992250243183
 20
38.12409072844088
 30
0.0
  0
SPLINE
  5
3A19
330
A
100
AcDbEntity
  8
001
  6
PHANTOM
370
     0
100
AcDbSpline
210
0.0
220
0.0
230
1.0
 70
     8
 71
     3
 72
     9
 73
     5
 74
     0
 42
0.0000000001
 43
0.0000000001
 40
0.0
 40
0.0
 40
0.0
 40
0.0
 40
0.4999999729093846
 40
1.0
 40
1.0
 40
1.0
 40
1.0
 10
-122.5992250243183
 20
38.11196826671337
 30
0.0
 10
-122.5995147041855
 20
38.11295814858361
 30
0.0
 10
-122.6000940639511
 20
38.11493791243135
 30
0.0
 10
-122.6001787268421
 20
38.11699896915798
 30
0.0
 10
-122.6002210582898
 20
38.11802949757712
 30
0.0
  0
SPLINE
  5
3A1A
330
A
100
AcDbEntity
  8
001
  6
PHANTOM
370
     0
100
AcDbSpline
210
0.0
220
0.0
230
1.0
 70
     8
 71
     3
 72
     9
 73
     5
 74
     0
 42
0.0000000001
 43
0.0000000001
 40
0.0
 40
0.0
 40
0.0
 40
0.0
 40
0.5000000276330457
 40
1.0
 40
1.0
 40
1.0
 40
1.0
 10
-122.6028634920698
 20
38.10318422970759
 30
0.0
 10
-122.6020674150051
 20
38.10456967382505
 30
0.0
 10
-122.6004752609636
 20
38.10734056190684
 30
0.0
 10
-122.5996417698514
 20
38.11042569850136
 30
0.0
 10
-122.5992250243183
 20
38.11196826671337
 30
0.0
  0
SPLINE
  5
3A1B
330
A
100
AcDbEntity
  8
001
  6
PHANTOM
370
     0
100
AcDbSpline
210
0.0
220
0.0
230
1.0
 70
     8
 71
     3
 72
    11
 73
     7
 74
     0
 42
0.0000000001
 43
0.0000000001
 40
0.0
 40
0.0
 40
0.0
 40
0.0
 40
0.2483346929188147
 40
0.5
 40
0.7516653070811853
 40
1.0
 40
1.0
 40
1.0
 40
1.0
 10
-122.6114353664201
 20
38.09461235535728
 30
0.0
 10
-122.610939559847
 20
38.09550696983624
 30
0.0
 10
-122.6099412970443
 20
38.09730819718073
 30
0.0
 10
-122.6079057833179
 20
38.09965464660545
 30
0.0
 10
-122.6055593338932
 20
38.10169016033182
 30
0.0
 10
-122.6037581065487
 20
38.10268842313448
 30
0.0
 10
-122.6028634920698
 20
38.10318422970759
 30
0.0
  0
SPLINE
  5
3A1C
330
A
100
AcDbEntity
  8
001
  6
PHANTOM
370
     0
100
AcDbSpline
210
0.0
220
0.0
230
1.0
 70
     8
 71
     3
 72
     9
 73
     5
 74
     0
 42
0.0000000001
 43
0.0000000001
 40
0.0
 40
0.0
 40
0.0
 40
0.0
 40
0.4999999723669545
 40
1.0
 40
1.0
 40
1.0
 40
1.0
 10
-122.6202194034258
 20
38.09097388760584
 30
0.0
 10
-122.6186768352139
 20
38.09139063313892
 30
0.0
 10
-122.6155916986193
 20
38.09222412425114
 30
0.0
 10
-122.6128208105375
 20
38.09381627829257
 30
0.0
 10
-122.6114353664201
 20
38.09461235535728
 30
0.0
  0
SPLINE
  5
3A1D
330
A
100
AcDbEntity
  8
001
  6
PHANTOM
370
     0
100
AcDbSpline
210
0.0
220
0.0
230
1.0
 70
     8
 71
     3
 72
     9
 73
     5
 74
     0
 42
0.0000000001
 43
0.0000000001
 40
0.0
 40
0.0
 40
0.0
 40
0.0
 40
0.5000022670905561
 40
1.0
 40
1.0
 40
1.0
 40
1.0
 10
-122.6428508419525
 20
38.09339677140204
 30
0.0
 10
-122.642812958486
 20
38.09332926949867
 30
0.0
 10
-122.6427371918966
 20
38.09319426630406
 30
0.0
 10
-122.6426138023251
 20
38.09310077060252
 30
0.0
 10
-122.642552107819
 20
38.09305402296372
 30
0.0
  0
SPLINE
  5
3A1E
330
A
100
AcDbEntity
  8
001
  6
PHANTOM
370
     0
100
AcDbSpline
210
0.0
220
0.0
230
1.0
 70
     8
 71
     3
 72
    12
 73
     8
 74
     0
 42
0.0000000001
 43
0.0000000001
 40
0.0
 40
0.0
 40
0.0
 40
0.0
 40
0.2392155045463959
 40
0.4952509317564246
 40
0.7067281108849516
 40
0.8432096859179367
 40
1.0
 40
1.0
 40
1.0
 40
1.0
 10
-122.6428508419525
 20
38.09339677140204
 30
0.0
 10
-122.6428201946562
 20
38.09341817624432
 30
0.0
 10
-122.642756745165
 20
38.09346249096424
 30
0.0
 10
-122.6423757825785
 20
38.09372350792949
 30
0.0
 10
-122.6419359054945
 20
38.09403421983235
 30
0.0
 10
-122.6415169355236
 20
38.09433003138146
 30
0.0
 10
-122.6412620747083
 20
38.09451389359439
 30
0.0
 10
-122.6411258198923
 20
38.09461219082363
 30
0.0
  0
SPLINE
  5
3A1F
330
A
100
AcDbEntity
  8
001
  6
PHANTOM
370
     0
100
AcDbSpline
210
0.0
220
0.0
230
1.0
 70
     8
 71
     3
 72
    12
 73
     8
 74
     0
 42
0.0000000001
 43
0.0000000001
 40
0.0
 40
0.0
 40
0.0
 40
0.0
 40
0.1449752377567126
 40
0.2776338442581224
 40
0.5050788226301778
 40
0.7587883409780348
 40
1.0
 40
1.0
 40
1.0
 40
1.0
 10
-122.6411258198923
 20
38.09461219082363
 30
0.0
 10
-122.6412299799226
 20
38.09449694266568
 30
0.0
 10
-122.641429450881
 20
38.09427623746366
 30
0.0
 10
-122.6417763464531
 20
38.09389317067479
 30
0.0
 10
-122.6421510786486
 20
38.09348567947049
 30
0.0
 10
-122.642472047969
 20
38.093138217993
 30
0.0
 10
-122.6425258742803
 20
38.09308161149352
 30
0.0
 10
-122.642552107819
 20
38.09305402296372
 30
0.0
  0
SPLINE
  5
3A20
330
A
100
AcDbEntity
  8
001
  6
PHANTOM
370
     0
100
AcDbSpline
210
0.0
220
0.0
230
1.0
 70
     8
 71
     3
 72
    12
 73
     8
 74
     0
 42
0.0000000001
 43
0.0000000001
 40
0.0
 40
0.0
 40
0.0
 40
0.0
 40
0.2411874765781125
 40
0.4949154987170267
 40
0.720977051196067
 40
0.85398319757511
 40
1.0
 40
1.0
 40
1.0
 40
1.0
 10
-122.6324352931057
 20
38.08886350133853
 30
0.0
 10
-122.6324343401699
 20
38.08890155430736
 30
0.0
 10
-122.6324323847503
 20
38.08897963880956
 30
0.0
 10
-122.6324136216819
 20
38.08945142216143
 30
0.0
 10
-122.6323906989944
 20
38.09000312141178
 30
0.0
 10
-122.6323651047965
 20
38.0905190151453
 30
0.0
 10
-122.6323498488264
 20
38.09081762216947
 30
0.0
 10
-122.6323418651534
 20
38.09097388760584
 30
0.0
  0
SPLINE
  5
3A21
330
A
100
AcDbEntity
  8
001
  6
PHANTOM
370
     0
100
AcDbSpline
210
0.0
220
0.0
230
1.0
 70
     8
 71
     3
 72
    12
 73
     8
 74
     0
 42
0.0000000001
 43
0.0000000001
 40
0.0
 40
0.0
 40
0.0
 40
0.0
 40
0.1551780233136151
 40
0.2911220306974284
 40
0.5047417070248343
 40
0.7607586325370645
 40
1.0
 40
1.0
 40
1.0
 40
1.0
 10
-122.6496977765094
 20
38.10318422970759
 30
0.0
 10
-122.6497951458234
 20
38.10304944798268
 30
0.0
 10
-122.649977815713
 20
38.10279659046704
 30
0.0
 10
-122.6502739798388
 20
38.1023772804604
 30
0.0
 10
-122.6505857655834
 20
38.1019354681412
 30
0.0
 10
-122.6508476547416
 20
38.10155341049751
 30
0.0
 10
-122.6508919587842
 20
38.10148994584169
 30
0.0
 10
-122.6509133604647
 20
38.10145928836204
 30
0.0
  0
SPLINE
  5
3A22
330
A
100
AcDbEntity
  8
001
  6
PHANTOM
370
     0
100
AcDbSpline
210
0.0
220
0.0
230
1.0
 70
     8
 71
     3
 72
     9
 73
     5
 74
     0
 42
0.0000000001
 43
0.0000000001
 40
0.0
 40
0.0
 40
0.0
 40
0.0
 40
0.5000022670905561
 40
1.0
 40
1.0
 40
1.0
 40
1.0
 10
-122.6509133604647
 20
38.13459970524
 30
0.0
 10
-122.650980862368
 20
38.13456182177354
 30
0.0
 10
-122.6511158655627
 20
38.13448605518416
 30
0.0
 10
-122.6512093612642
 20
38.1343626656126
 30
0.0
 10
-122.651256108903
 20
38.13430097110657
 30
0.0
  0
SPLINE
  5
3A23
330
A
100
AcDbEntity
  8
001
  6
PHANTOM
370
     0
100
AcDbSpline
210
0.0
220
0.0
230
1.0
 70
     8
 71
     3
 72
    12
 73
     8
 74
     0
 42
0.0000000001
 43
0.0000000001
 40
0.0
 40
0.0
 40
0.0
 40
0.0
 40
0.2392332482663304
 40
0.49525499724188
 40
0.709096621984032
 40
0.8449869864318714
 40
1.0
 40
1.0
 40
1.0
 40
1.0
 10
-122.6509133604647
 20
38.13459970524
 30
0.0
 10
-122.6508919669802
 20
38.1345690420474
 30
0.0
 10
-122.6508476786959
 20
38.13450556383323
 30
0.0
 10
-122.6505857012125
 20
38.13412343660871
 30
0.0
 10
-122.6502737812237
 20
38.13368140694498
 30
0.0
 10
-122.6499775881544
 20
38.13326205989223
 30
0.0
 10
-122.6497950468658
 20
38.13300939983167
 30
0.0
 10
-122.6496977765094
 20
38.13287476544665
 30
0.0
  0
SPLINE
  5
3A24
330
A
100
AcDbEntity
  8
001
  6
PHANTOM
370
     0
100
AcDbSpline
210
0.0
220
0.0
230
1.0
 70
     8
 71
     3
 72
    12
 73
     8
 74
     0
 42
0.0000000001
 43
0.0000000001
 40
0.0
 40
0.0
 40
0.0
 40
0.0
 40
0.1460011699486206
 40
0.2790005982500751
 40
0.5050835551710922
 40
0.7588032288386063
 40
1.0
 40
1.0
 40
1.0
 40
1.0
 10
-122.6496977765094
 20
38.13287476544665
 30
0.0
 10
-122.649813904907
 20
38.13297960449101
 30
0.0
 10
-122.6500358201999
 20
38.13317994642049
 30
0.0
 10
-122.6504187159589
 20
38.13352664329647
 30
0.0
 10
-122.6508250453022
 20
38.13390055615812
 30
0.0
 10
-122.6511719197808
 20
38.13422089804488
 30
0.0
 10
-122.6512285232762
 20
38.13427473415888
 30
0.0
 10
-122.651256108903
 20
38.13430097110657
 30
0.0
  0
SPLINE
  5
3A25
330
A
100
AcDbEntity
  8
001
  6
PHANTOM
370
     0
100
AcDbSpline
210
0.0
220
0.0
230
1.0
 70
     8
 71
     3
 72
    12
 73
     8
 74
     0
 42
0.0000000001
 43
0.0000000001
 40
0.0
 40
0.0
 40
0.0
 40
0.0
 40
0.2411874765781125
 40
0.4949154987170267
 40
0.720977051196067
 40
0.85398319757511
 40
1.0
 40
1.0
 40
1.0
 40
1.0
 10
-122.6554466305282
 20
38.12418415639326
 30
0.0
 10
-122.6554085775594
 20
38.1241832034574
 30
0.0
 10
-122.6553304930572
 20
38.12418124803776
 30
0.0
 10
-122.6548587097053
 20
38.12416248496941
 30
0.0
 10
-122.654307010455
 20
38.12413956228194
 30
0.0
 10
-122.6537911167214
 20
38.12411396808406
 30
0.0
 10
-122.6534925096973
 20
38.12409871211388
 30
0.0
 10
-122.6533362442609
 20
38.12409072844088
 30
0.0
  0
SPLINE
  5
3A26
330
A
100
AcDbEntity
  8
001
  6
PHANTOM
370
     0
100
AcDbSpline
210
0.0
220
0.0
230
1.0
 70
     8
 71
     3
 72
    12
 73
     8
 74
     0
 42
0.0000000001
 43
0.0000000001
 40
0.0
 40
0.0
 40
0.0
 40
0.0
 40
0.156943774970582
 40
0.2934804780723443
 40
0.504763544241715
 40
0.7607683048548354
 40
1.0
 40
1.0
 40
1.0
 40
1.0
 10
-122.6411257127902
 20
38.1414467593167
 30
0.0
 10
-122.6412621158409
 20
38.14154514522132
 30
0.0
 10
-122.6415171857379
 20
38.1417291241165
 30
0.0
 10
-122.6419361513753
 20
38.14202491399182
 30
0.0
 10
-122.6423758501743
 20
38.14233554914808
 30
0.0
 10
-122.6427567249978
 20
38.14259653196014
 30
0.0
 10
-122.6428201871312
 20
38.1426408265565
 30
0.0
 10
-122.6428508435047
 20
38.14266222375222
 30
0.0
  0
SPLINE
  5
3A27
330
A
100
AcDbEntity
  8
001
  6
PHANTOM
370
     0
100
AcDbSpline
210
0.0
220
0.0
230
1.0
 70
     8
 71
     3
 72
     9
 73
     5
 74
     0
 42
0.0000000001
 43
0.0000000001
 40
0.0
 40
0.0
 40
0.0
 40
0.0
 40
0.4999995591695329
 40
1.0
 40
1.0
 40
1.0
 40
1.0
 10
-122.6554155088322
 20
38.11232843631655
 30
0.0
 10
-122.6554364514242
 20
38.11225391780029
 30
0.0
 10
-122.6554783366452
 20
38.11210488063635
 30
0.0
 10
-122.6554571992401
 20
38.11195151943119
 30
0.0
 10
-122.6554466305282
 20
38.111874838761
 30
0.0
  0
SPLINE
  5
3A28
330
A
100
AcDbEntity
  8
001
  6
PHANTOM
370
     0
100
AcDbSpline
210
0.0
220
0.0
230
1.0
 70
     8
 71
     3
 72
    12
 73
     8
 74
     0
 42
0.0000000001
 43
0.0000000001
 40
0.0
 40
0.0
 40
0.0
 40
0.0
 40
0.2392252751001434
 40
0.4952571552061232
 40
0.708848675786353
 40
0.8448025662141558
 40
1.0
 40
1.0
 40
1.0
 40
1.0
 10
-122.6554155088322
 20
38.11232843631655
 30
0.0
 10
-122.65537869826
 20
38.1123218931995
 30
0.0
 10
-122.6553024910145
 20
38.11230834728327
 30
0.0
 10
-122.6548471962782
 20
38.11222337904763
 30
0.0
 10
-122.6543143141601
 20
38.11213143294213
 30
0.0
 10
-122.6538084211503
 20
38.11204436234472
 30
0.0
 10
-122.65350042225
 20
38.11199472550036
 30
0.0
 10
-122.6533362442609
 20
38.11196826671337
 30
0.0
  0
SPLINE
  5
3A29
330
A
100
AcDbEntity
  8
001
  6
PHANTOM
370
     0
100
AcDbSpline
210
0.0
220
0.0
230
1.0
 70
     8
 71
     3
 72
    12
 73
     8
 74
     0
 42
0.0000000001
 43
0.0000000001
 40
0.0
 40
0.0
 40
0.0
 40
0.0
 40
0.1460007919025454
 40
0.2790002559248775
 40
0.5050835593481873
 40
0.7588030798360654
 40
1.0
 40
1.0
 40
1.0
 40
1.0
 10
-122.6533362442609
 20
38.11196826671337
 30
0.0
 10
-122.6534924913878
 20
38.11196028413215
 30
0.0
 10
-122.6537910718805
 20
38.11194502981622
 30
0.0
 10
-122.6543069714226
 20
38.11191943299837
 30
0.0
 10
-122.6548586869778
 20
38.11189651134304
 30
0.0
 10
-122.6553304782731
 20
38.11187775067175
 30
0.0
 10
-122.6554085717621
 20
38.11187579288564
 30
0.0
 10
-122.6554466305282
 20
38.111874838761
 30
0.0
  0
SPLINE
  5
3A2A
330
A
100
AcDbEntity
  8
001
  6
PHANTOM
370
     0
100
AcDbSpline
210
0.0
220
0.0
230
1.0
 70
     8
 71
     3
 72
    12
 73
     8
 74
     0
 42
0.0000000001
 43
0.0000000001
 40
0.0
 40
0.0
 40
0.0
 40
0.0
 40
0.2411874189916292
 40
0.4949156602819478
 40
0.7209773442694252
 40
0.8539831238065483
 40
1.0
 40
1.0
 40
1.0
 40
1.0
 10
-122.651256108903
 20
38.10175802559989
 30
0.0
 10
-122.6512285277133
 20
38.10178425880338
 30
0.0
 10
-122.6511719312178
 20
38.10183808923648
 30
0.0
 10
-122.6508250613705
 20
38.10215842427942
 30
0.0
 10
-122.6504187419588
 20
38.10253232527509
 30
0.0
 10
-122.6500358536904
 20
38.10287902046546
 30
0.0
 10
-122.649813918586
 20
38.10307937898954
 30
0.0
 10
-122.6496977765094
 20
38.10318422970759
 30
0.0
  0
SPLINE
  5
3A2B
330
A
100
AcDbEntity
  8
001
  6
PHANTOM
370
     0
100
AcDbSpline
210
0.0
220
0.0
230
1.0
 70
     8
 71
     3
 72
    12
 73
     8
 74
     0
 42
0.0000000001
 43
0.0000000001
 40
0.0
 40
0.0
 40
0.0
 40
0.0
 40
0.1551779129240068
 40
0.29112206401082
 40
0.5047417023655936
 40
0.7607585391381669
 40
1.0
 40
1.0
 40
1.0
 40
1.0
 10
-122.6533362442609
 20
38.12409072844088
 30
0.0
 10
-122.6535003996047
 20
38.12406427352189
 30
0.0
 10
-122.6538083638093
 20
38.12401464267898
 30
0.0
 10
-122.6543142806294
 20
38.12392756700628
 30
0.0
 10
-122.654847154817
 20
38.12383562419103
 30
0.0
 10
-122.6553024924862
 20
38.12375065082003
 30
0.0
 10
-122.6553786971172
 20
38.12373710320364
 30
0.0
 10
-122.6554155088322
 20
38.12373055883771
 30
0.0
  0
LINE
  5
3A2C
330
A
100
AcDbEntity
  8
001
  6
PHANTOM
370
     0
100
AcDbLine
 10
-122.6202979496195
 20
38.0888456137364
 30
0.0
 11
-122.6201259754735
 21
38.08886350133865
 31
0.0
  0
LINE
  5
3A2D
330
A
100
AcDbEntity
  8
001
  6
PHANTOM
370
     0
100
AcDbLine
 10
-122.620579573029
 20
38.08889462303465
 30
0.0
 11
-122.6202979496195
 21
38.0888456137364
 31
0.0
  0
SPLINE
  5
3A2E
330
A
100
AcDbEntity
  8
001
  6
PHANTOM
370
     0
100
AcDbSpline
210
0.0
220
0.0
230
1.0
 70
     8
 71
     3
 72
    12
 73
     8
 74
     0
 42
0.0000000001
 43
0.0000000001
 40
0.0
 40
0.0
 40
0.0
 40
0.0
 40
0.2392252751001434
 40
0.4952571552061232
 40
0.708848675786353
 40
0.8448025662141558
 40
1.0
 40
1.0
 40
1.0
 40
1.0
 10
-122.620579573029
 20
38.08889462303458
 30
0.0
 10
-122.620573029912
 20
38.08893143360675
 30
0.0
 10
-122.6205594839957
 20
38.08900764085221
 30
0.0
 10
-122.6204745157601
 20
38.08946293558853
 30
0.0
 10
-122.6203825696546
 20
38.08999581770663
 30
0.0
 10
-122.6202954990572
 20
38.09050171071647
 30
0.0
 10
-122.6202458622128
 20
38.09080970961675
 30
0.0
 10
-122.6202194034258
 20
38.09097388760584
 30
0.0
  0
SPLINE
  5
3A2F
330
A
100
AcDbEntity
  8
001
  6
PHANTOM
370
     0
100
AcDbSpline
210
0.0
220
0.0
230
1.0
 70
     8
 71
     3
 72
    12
 73
     8
 74
     0
 42
0.0000000001
 43
0.0000000001
 40
0.0
 40
0.0
 40
0.0
 40
0.0
 40
0.1460007919025454
 40
0.2790002559248775
 40
0.5050835593481873
 40
0.7588030798360654
 40
1.0
 40
1.0
 40
1.0
 40
1.0
 10
-122.6202194034258
 20
38.09097388760584
 30
0.0
 10
-122.6202114208446
 20
38.09081764047895
 30
0.0
 10
-122.6201961665287
 20
38.09051905998619
 30
0.0
 10
-122.6201705697109
 20
38.09000316044414
 30
0.0
 10
-122.6201476480555
 20
38.08945144488887
 30
0.0
 10
-122.6201288873842
 20
38.08897965359366
 30
0.0
 10
-122.6201269295981
 20
38.08890156010461
 30
0.0
 10
-122.6201259754735
 20
38.08886350133853
 30
0.0
  0
SPLINE
  5
3A30
330
A
100
AcDbEntity
  8
001
  6
PHANTOM
370
     0
100
AcDbSpline
210
0.0
220
0.0
230
1.0
 70
     8
 71
     3
 72
    12
 73
     8
 74
     0
 42
0.0000000001
 43
0.0000000001
 40
0.0
 40
0.0
 40
0.0
 40
0.0
 40
0.241187685357079
 40
0.4949155766036317
 40
0.7209772980431929
 40
0.8539830996156451
 40
1.0
 40
1.0
 40
1.0
 40
1.0
 10
-122.6100091607602
 20
38.09305402296372
 30
0.0
 10
-122.6100353953458
 20
38.09308160487436
 30
0.0
 10
-122.6100892285464
 20
38.09313820277729
 30
0.0
 10
-122.6104095606473
 20
38.09348507029158
 30
0.0
 10
-122.6107834620689
 20
38.09389138997264
 30
0.0
 10
-122.6111301571603
 20
38.09427427816234
 30
0.0
 10
-122.611330515696
 20
38.09449621327588
 30
0.0
 10
-122.6114353664201
 20
38.09461235535728
 30
0.0
  0
SPLINE
  5
3A31
330
A
100
AcDbEntity
  8
001
  6
PHANTOM
370
     0
100
AcDbSpline
210
0.0
220
0.0
230
1.0
 70
     8
 71
     3
 72
    12
 73
     8
 74
     0
 42
0.0000000001
 43
0.0000000001
 40
0.0
 40
0.0
 40
0.0
 40
0.0
 40
0.1551779129240068
 40
0.29112206401082
 40
0.5047417023655936
 40
0.7607585391381669
 40
1.0
 40
1.0
 40
1.0
 40
1.0
 10
-122.6323418651534
 20
38.09097388760584
 30
0.0
 10
-122.6323154102344
 20
38.09080973226198
 30
0.0
 10
-122.6322657793915
 20
38.0905017680574
 30
0.0
 10
-122.6321787037188
 20
38.08999585123732
 30
0.0
 10
-122.6320867609035
 20
38.08946297704976
 30
0.0
 10
-122.6320017875325
 20
38.08900763938057
 30
0.0
 10
-122.6319882399161
 20
38.08893143474949
 30
0.0
 10
-122.6319816955502
 20
38.08889462303458
 30
0.0
  0
SPLINE
  5
3A32
330
A
100
AcDbEntity
  8
001
  6
PHANTOM
370
     0
100
AcDbSpline
210
0.0
220
0.0
230
1.0
 70
     8
 71
     3
 72
    12
 73
     8
 74
     0
 42
0.0000000001
 43
0.0000000001
 40
0.0
 40
0.0
 40
0.0
 40
0.0
 40
0.1459335819658582
 40
0.2789111012948761
 40
0.5050902991488686
 40
0.7587954475036706
 40
1.0
 40
1.0
 40
1.0
 40
1.0
 10
-122.6323418651534
 20
38.14508510754841
 30
0.0
 10
-122.6323498421393
 20
38.14524128223153
 30
0.0
 10
-122.63236508791
 20
38.14553976632462
 30
0.0
 10
-122.6323906907018
 20
38.14605569736739
 30
0.0
 10
-122.6324136176035
 20
38.14660747503323
 30
0.0
 10
-122.632432358858
 20
38.14707935782619
 30
0.0
 10
-122.6324343316328
 20
38.14715743922127
 30
0.0
 10
-122.6324352931057
 20
38.14719549381571
 30
0.0
  0
SPLINE
  5
3A33
330
A
100
AcDbEntity
  8
001
  6
PHANTOM
370
     0
100
AcDbSpline
210
0.0
220
0.0
230
1.0
 70
     8
 71
     3
 72
     9
 73
     5
 74
     0
 42
0.0000000001
 43
0.0000000001
 40
0.0
 40
0.0
 40
0.0
 40
0.0
 40
0.4999995591695329
 40
1.0
 40
1.0
 40
1.0
 40
1.0
 10
-122.6319816955502
 20
38.14716437211968
 30
0.0
 10
-122.6320562140664
 20
38.1471853147117
 30
0.0
 10
-122.6322052512304
 20
38.14722719993267
 30
0.0
 10
-122.6323586124355
 20
38.14720606252758
 30
0.0
 10
-122.6324352931057
 20
38.14719549381571
 30
0.0
  0
SPLINE
  5
3A34
330
A
100
AcDbEntity
  8
001
  6
PHANTOM
370
     0
100
AcDbSpline
210
0.0
220
0.0
230
1.0
 70
     8
 71
     3
 72
    12
 73
     8
 74
     0
 42
0.0000000001
 43
0.0000000001
 40
0.0
 40
0.0
 40
0.0
 40
0.0
 40
0.2392333806288144
 40
0.4952550924526454
 40
0.7090970046251092
 40
0.8449871110476063
 40
1.0
 40
1.0
 40
1.0
 40
1.0
 10
-122.6319816955502
 20
38.14716437211968
 30
0.0
 10
-122.6319882500129
 20
38.14712756186096
 30
0.0
 10
-122.6320018189012
 20
38.14705135816383
 30
0.0
 10
-122.6320867791702
 20
38.14659590864325
 30
0.0
 10
-122.6321787807528
 20
38.14606278503037
 30
0.0
 10
-122.6322658637716
 20
38.14555682228592
 30
0.0
 10
-122.6323154449379
 20
38.14524908884353
 30
0.0
 10
-122.6323418651534
 20
38.14508510754841
 30
0.0
  0
SPLINE
  5
3A35
330
A
100
AcDbEntity
  8
001
  6
PHANTOM
370
     0
100
AcDbSpline
210
0.0
220
0.0
230
1.0
 70
     8
 71
     3
 72
    12
 73
     8
 74
     0
 42
0.0000000001
 43
0.0000000001
 40
0.0
 40
0.0
 40
0.0
 40
0.0
 40
0.2411978277228039
 40
0.4949120161061363
 40
0.7230489303329879
 40
0.8555386442491183
 40
1.0
 40
1.0
 40
1.0
 40
1.0
 10
-122.6425521062668
 20
38.14300497219054
 30
0.0
 10
-122.6425258803006
 20
38.14297737838054
 30
0.0
 10
-122.642472067437
 20
38.1429207588485
 30
0.0
 10
-122.6421507548818
 20
38.14257300122683
 30
0.0
 10
-122.6417755780011
 20
38.14216488497988
 30
0.0
 10
-122.641428568166
 20
38.14178169160184
 30
0.0
 10
-122.6412295324584
 20
38.14156157503897
 30
0.0
 10
-122.6411257127902
 20
38.1414467593167
 30
0.0
  0
SPLINE
  5
3A36
330
A
100
AcDbEntity
  8
001
  6
PHANTOM
370
     0
100
AcDbSpline
210
0.0
220
0.0
230
1.0
 70
     8
 71
     3
 72
    12
 73
     8
 74
     0
 42
0.0000000001
 43
0.0000000001
 40
0.0
 40
0.0
 40
0.0
 40
0.0
 40
0.1549952715624552
 40
0.2908815525379977
 40
0.5047438237974776
 40
0.7607508362541379
 40
1.0
 40
1.0
 40
1.0
 40
1.0
 10
-122.6202194034258
 20
38.14508510754841
 30
0.0
 10
-122.6202458207115
 20
38.14524907157731
 30
0.0
 10
-122.6202953983597
 20
38.14555678490821
 30
0.0
 10
-122.6203824807621
 20
38.14606274076364
 30
0.0
 10
-122.6204744843124
 20
38.14659587912551
 30
0.0
 10
-122.6205594467239
 20
38.14705136216898
 30
0.0
 10
-122.6205730173222
 20
38.1471275615824
 30
0.0
 10
-122.620579573029
 20
38.14716437211968
 30
0.0
  0
SPLINE
  5
3A37
330
A
100
AcDbEntity
  8
001
  6
PHANTOM
370
     0
100
AcDbSpline
210
0.0
220
0.0
230
1.0
 70
     8
 71
     3
 72
    12
 73
     8
 74
     0
 42
0.0000000001
 43
0.0000000001
 40
0.0
 40
0.0
 40
0.0
 40
0.0
 40
0.1459337734018801
 40
0.2789113589096651
 40
0.505090528218183
 40
0.7587953899659051
 40
1.0
 40
1.0
 40
1.0
 40
1.0
 10
-122.6114353664201
 20
38.14144663979696
 30
0.0
 10
-122.6113305750298
 20
38.14156271305234
 30
0.0
 10
-122.6111302957635
 20
38.14178455443035
 30
0.0
 10
-122.6107835795982
 20
38.14216747549387
 30
0.0
 10
-122.6104096267287
 20
38.14257385440578
 30
0.0
 10
-122.6100892084288
 20
38.14292077615334
 30
0.0
 10
-122.6100353902091
 20
38.14297738343382
 30
0.0
 10
-122.6100091607602
 20
38.14300497219054
 30
0.0
  0
SPLINE
  5
3A38
330
A
100
AcDbEntity
  8
001
  6
PHANTOM
370
     0
100
AcDbSpline
210
0.0
220
0.0
230
1.0
 70
     8
 71
     3
 72
     9
 73
     5
 74
     0
 42
0.0000000001
 43
0.0000000001
 40
0.0
 40
0.0
 40
0.0
 40
0.0
 40
0.5000031919797504
 40
1.0
 40
1.0
 40
1.0
 40
1.0
 10
-122.6097104250745
 20
38.14266222375222
 30
0.0
 10
-122.609748309127
 20
38.14272972561554
 30
0.0
 10
-122.6098240767483
 20
38.14286472848035
 30
0.0
 10
-122.6099474663521
 20
38.1429582244861
 30
0.0
 10
-122.6100091607602
 20
38.14300497219054
 30
0.0
  0
SPLINE
  5
3A39
330
A
100
AcDbEntity
  8
001
  6
PHANTOM
370
     0
100
AcDbSpline
210
0.0
220
0.0
230
1.0
 70
     8
 71
     3
 72
    12
 73
     8
 74
     0
 42
0.0000000001
 43
0.0000000001
 40
0.0
 40
0.0
 40
0.0
 40
0.0
 40
0.23923319381383
 40
0.4952551121281998
 40
0.7090966881973046
 40
0.8449870217147855
 40
1.0
 40
1.0
 40
1.0
 40
1.0
 10
-122.6097104250745
 20
38.14266222375222
 30
0.0
 10
-122.6097410881473
 20
38.14264083023751
 30
0.0
 10
-122.6098045661426
 20
38.14259654187036
 30
0.0
 10
-122.6101866954743
 20
38.14233456467786
 30
0.0
 10
-122.6106287248655
 20
38.14202264450235
 30
0.0
 10
-122.6110480719877
 20
38.14172645144403
 30
0.0
 10
-122.6113007320397
 20
38.14154391015406
 30
0.0
 10
-122.6114353664201
 20
38.14144663979696
 30
0.0
  0
SPLINE
  5
3A3A
330
A
100
AcDbEntity
  8
001
  6
PHANTOM
370
     0
100
AcDbSpline
210
0.0
220
0.0
230
1.0
 70
     8
 71
     3
 72
    12
 73
     8
 74
     0
 42
0.0000000001
 43
0.0000000001
 40
0.0
 40
0.0
 40
0.0
 40
0.0
 40
0.2411882175934542
 40
0.4949081158066063
 40
0.7210675832230828
 40
0.8540511084470498
 40
1.0
 40
1.0
 40
1.0
 40
1.0
 10
-122.6201259754735
 20
38.14719549381571
 30
0.0
 10
-122.6201269358696
 20
38.14715744060528
 30
0.0
 10
-122.6201289065623
 20
38.14707935701202
 30
0.0
 10
-122.6201476494894
 20
38.14660750699033
 30
0.0
 10
-122.6201705779701
 20
38.14605573146931
 30
0.0
 10
-122.6201961783998
 20
38.14553980842119
 30
0.0
 10
-122.6202114255112
 20
38.1452412996121
 30
0.0
 10
-122.6202194034258
 20
38.14508510754841
 30
0.0
  0
SPLINE
  5
3A3B
330
A
100
AcDbEntity
  8
001
  6
PHANTOM
370
     0
100
AcDbSpline
210
0.0
220
0.0
230
1.0
 70
     8
 71
     3
 72
    12
 73
     8
 74
     0
 42
0.0000000001
 43
0.0000000001
 40
0.0
 40
0.0
 40
0.0
 40
0.0
 40
0.1549950987097924
 40
0.2908818297747333
 40
0.5047440037141246
 40
0.7607506831205432
 40
1.0
 40
1.0
 40
1.0
 40
1.0
 10
-122.6028634920698
 20
38.13287476544665
 30
0.0
 10
-122.6027662317174
 20
38.13300938498234
 30
0.0
 10
-122.6025837016278
 20
38.13326202766065
 30
0.0
 10
-122.6022875146476
 20
38.13368137035782
 30
0.0
 10
-122.6019755837772
 20
38.13412341162783
 30
0.0
 10
-122.6017135884254
 20
38.13450556212009
 30
0.0
 10
-122.6016693020639
 20
38.13456904014238
 30
0.0
 10
-122.6016479081145
 20
38.13459970524
 30
0.0
  0
SPLINE
  5
3A3C
330
A
100
AcDbEntity
  8
001
  6
PHANTOM
370
     0
100
AcDbSpline
210
0.0
220
0.0
230
1.0
 70
     8
 71
     3
 72
    12
 73
     8
 74
     0
 42
0.0000000001
 43
0.0000000001
 40
0.0
 40
0.0
 40
0.0
 40
0.0
 40
0.1459335819658582
 40
0.2789111012948761
 40
0.5050902991488686
 40
0.7587954475036706
 40
1.0
 40
1.0
 40
1.0
 40
1.0
 10
-122.5992250243183
 20
38.12409072844088
 30
0.0
 10
-122.5990688496352
 20
38.12409870542682
 30
0.0
 10
-122.5987703655421
 20
38.12411395119757
 30
0.0
 10
-122.5982544344993
 20
38.12413955398932
 30
0.0
 10
-122.5977026568335
 20
38.12416248089104
 30
0.0
 10
-122.5972307740405
 20
38.12418122214551
 30
0.0
 10
-122.5971526926455
 20
38.12418319492035
 30
0.0
 10
-122.597114638051
 20
38.12418415639326
 30
0.0
  0
LINE
  5
3A3D
330
A
100
AcDbEntity
  8
001
  6
PHANTOM
370
     0
100
AcDbLine
 10
-122.5970967504488
 20
38.12401218224715
 30
0.0
 11
-122.597114638051
 21
38.12418415639315
 31
0.0
  0
LINE
  5
3A3E
330
A
100
AcDbEntity
  8
001
  6
PHANTOM
370
     0
100
AcDbLine
 10
-122.597145759747
 20
38.12373055883765
 30
0.0
 11
-122.5970967504488
 21
38.12401218224715
 31
0.0
  0
SPLINE
  5
3A3F
330
A
100
AcDbEntity
  8
001
  6
PHANTOM
370
     0
100
AcDbSpline
210
0.0
220
0.0
230
1.0
 70
     8
 71
     3
 72
    12
 73
     8
 74
     0
 42
0.0000000001
 43
0.0000000001
 40
0.0
 40
0.0
 40
0.0
 40
0.0
 40
0.2392333806288144
 40
0.4952550924526454
 40
0.7090970046251092
 40
0.8449871110476063
 40
1.0
 40
1.0
 40
1.0
 40
1.0
 10
-122.597145759747
 20
38.12373055883771
 30
0.0
 10
-122.5971825700058
 20
38.12373711330039
 30
0.0
 10
-122.5972587737029
 20
38.12375068218872
 30
0.0
 10
-122.5977142232235
 20
38.12383564245772
 30
0.0
 10
-122.5982473468364
 20
38.12392764404032
 30
0.0
 10
-122.5987533095808
 20
38.12401472705916
 30
0.0
 10
-122.5990610430232
 20
38.12406430822541
 30
0.0
 10
-122.5992250243183
 20
38.12409072844088
 30
0.0
  0
SPLINE
  5
3A40
330
A
100
AcDbEntity
  8
001
  6
PHANTOM
370
     0
100
AcDbSpline
210
0.0
220
0.0
230
1.0
 70
     8
 71
     3
 72
    12
 73
     8
 74
     0
 42
0.0000000001
 43
0.0000000001
 40
0.0
 40
0.0
 40
0.0
 40
0.0
 40
0.2411882108938873
 40
0.4949081624957595
 40
0.7210675227365879
 40
0.854051343771764
 40
1.0
 40
1.0
 40
1.0
 40
1.0
 10
-122.6013051596762
 20
38.13430097110657
 30
0.0
 10
-122.6013327460729
 20
38.13427474196935
 30
0.0
 10
-122.6013893522099
 20
38.13422092087231
 30
0.0
 10
-122.6017362553441
 20
38.13390052668443
 30
0.0
 10
-122.6021426324349
 20
38.13352657542463
 30
0.0
 10
-122.6025255467817
 20
38.13317986393958
 30
0.0
 10
-122.602747406283
 20
38.13297956820571
 30
0.0
 10
-122.6028634920698
 20
38.13287476544665
 30
0.0
  0
SPLINE
  5
3A41
330
A
100
AcDbEntity
  8
001
  6
PHANTOM
370
     0
100
AcDbSpline
210
0.0
220
0.0
230
1.0
 70
     8
 71
     3
 72
    12
 73
     8
 74
     0
 42
0.0000000001
 43
0.0000000001
 40
0.0
 40
0.0
 40
0.0
 40
0.0
 40
0.1549952715624552
 40
0.2908815525379977
 40
0.5047438237974776
 40
0.7607508362541379
 40
1.0
 40
1.0
 40
1.0
 40
1.0
 10
-122.5992250243183
 20
38.11196826671337
 30
0.0
 10
-122.5990610602894
 20
38.11199468399898
 30
0.0
 10
-122.5987533469585
 20
38.11204426164721
 30
0.0
 10
-122.5982473911031
 20
38.11213134404964
 30
0.0
 10
-122.5977142527412
 20
38.11222334759992
 30
0.0
 10
-122.5972587696978
 20
38.1123083100114
 30
0.0
 10
-122.5971825702843
 20
38.11232188060971
 30
0.0
 10
-122.597145759747
 20
38.11232843631655
 30
0.0
  0
ARC
  5
3A42
330
A
100
AcDbEntity
  8
001
  6
PHANTOM
370
     0
100
AcDbCircle
 10
-122.5812806342895
 20
38.11802949757715
 30
0.0
 40
0.0168583598291441
100
AcDbArc
 50
160.2343280061001
 51
199.7656713331
  0
SPLINE
  5
3A43
330
A
100
AcDbEntity
  8
001
  6
PHANTOM
370
     0
100
AcDbSpline
210
0.0
220
0.0
230
1.0
 70
     8
 71
     3
 72
    12
 73
     8
 74
     0
 42
0.0000000001
 43
0.0000000001
 40
0.0
 40
0.0
 40
0.0
 40
0.0
 40
0.1459337734018801
 40
0.2789113589096651
 40
0.505090528218183
 40
0.7587953899659051
 40
1.0
 40
1.0
 40
1.0
 40
1.0
 10
-122.6028634920698
 20
38.10318422970759
 30
0.0
 10
-122.6027474188144
 20
38.1030794383173
 30
0.0
 10
-122.6025255774364
 20
38.10287915905098
 30
0.0
 10
-122.6021426563729
 20
38.1025324428857
 30
0.0
 10
-122.6017362774609
 20
38.10215849001626
 30
0.0
 10
-122.6013893557134
 20
38.10183807171634
 30
0.0
 10
-122.6013327484329
 20
38.1017842534966
 30
0.0
 10
-122.6013051596762
 20
38.10175802404769
 30
0.0
  0
SPLINE
  5
3A44
330
A
100
AcDbEntity
  8
001
  6
PHANTOM
370
     0
100
AcDbSpline
210
0.0
220
0.0
230
1.0
 70
     8
 71
     3
 72
     9
 73
     5
 74
     0
 42
0.0000000001
 43
0.0000000001
 40
0.0
 40
0.0
 40
0.0
 40
0.0
 40
0.5000022670905561
 40
1.0
 40
1.0
 40
1.0
 40
1.0
 10
-122.6016479081145
 20
38.10145928991424
 30
0.0
 10
-122.6015804062112
 20
38.10149717338071
 30
0.0
 10
-122.6014454030165
 20
38.1015729399701
 30
0.0
 10
-122.601351907315
 20
38.10169632954165
 30
0.0
 10
-122.6013051596762
 20
38.10175802404769
 30
0.0
  0
SPLINE
  5
3A45
330
A
100
AcDbEntity
  8
001
  6
PHANTOM
370
     0
100
AcDbSpline
210
0.0
220
0.0
230
1.0
 70
     8
 71
     3
 72
    12
 73
     8
 74
     0
 42
0.0000000001
 43
0.0000000001
 40
0.0
 40
0.0
 40
0.0
 40
0.0
 40
0.2392252125385547
 40
0.49525682944405
 40
0.7088488791058767
 40
0.8448025962729962
 40
1.0
 40
1.0
 40
1.0
 40
1.0
 10
-122.6016479081145
 20
38.10145928991424
 30
0.0
 10
-122.6016693106976
 20
38.10148994526327
 30
0.0
 10
-122.6017136194697
 20
38.10155340960637
 30
0.0
 10
-122.6019754763592
 20
38.10193543385579
 30
0.0
 10
-122.6022872693822
 20
38.10237725318998
 30
0.0
 10
-122.6025834200366
 20
38.10279654285896
 30
0.0
 10
-122.6027661097553
 20
38.10304942923432
 30
0.0
 10
-122.6028634920698
 20
38.10318422970759
 30
0.0
  0
SPLINE
  5
3A46
330
A
100
AcDbEntity
  8
001
  6
PHANTOM
370
     0
100
AcDbSpline
210
0.0
220
0.0
230
1.0
 70
     8
 71
     3
 72
    12
 73
     8
 74
     0
 42
0.0000000001
 43
0.0000000001
 40
0.0
 40
0.0
 40
0.0
 40
0.0
 40
0.2411882175934542
 40
0.4949081158066063
 40
0.7210675832230828
 40
0.8540511084470498
 40
1.0
 40
1.0
 40
1.0
 40
1.0
 10
-122.597114638051
 20
38.111874838761
 30
0.0
 10
-122.5971526912615
 20
38.11187579915715
 30
0.0
 10
-122.5972307748547
 20
38.11187776984981
 30
0.0
 10
-122.5977026248764
 20
38.11189651277691
 30
0.0
 10
-122.5982544003974
 20
38.11191944125766
 30
0.0
 10
-122.5987703234455
 20
38.11194504168729
 30
0.0
 10
-122.5990688322546
 20
38.11196028879873
 30
0.0
 10
-122.5992250243183
 20
38.11196826671337
 30
0.0
  0
SPLINE
  5
3A47
330
A
100
AcDbEntity
  8
001
  6
PHANTOM
370
     0
100
AcDbSpline
210
0.0
220
0.0
230
1.0
 70
     8
 71
     3
 72
    12
 73
     8
 74
     0
 42
0.0000000001
 43
0.0000000001
 40
0.0
 40
0.0
 40
0.0
 40
0.0
 40
0.1551780233136151
 40
0.2911220306974284
 40
0.5047417070248343
 40
0.7607586325370645
 40
1.0
 40
1.0
 40
1.0
 40
1.0
 10
-122.6114353664201
 20
38.09461235535728
 30
0.0
 10
-122.6113005846952
 20
38.09451498604336
 30
0.0
 10
-122.6110477271795
 20
38.09433231615369
 30
0.0
 10
-122.6106284171729
 20
38.0940361520279
 30
0.0
 10
-122.6101866048537
 20
38.09372436628335
 30
0.0
 10
-122.60980454721
 20
38.09346247712515
 30
0.0
 10
-122.6097410825542
 20
38.09341817308252
 30
0.0
 10
-122.6097104250745
 20
38.09339677140204
 30
0.0
  0
SPLINE
  5
3A48
330
A
100
AcDbEntity
  8
001
  6
PHANTOM
370
     0
100
AcDbSpline
210
0.0
220
0.0
230
1.0
 70
     8
 71
     3
 72
     9
 73
     5
 74
     0
 42
0.0000000001
 43
0.0000000001
 40
0.0
 40
0.0
 40
0.0
 40
0.0
 40
0.4999980837253993
 40
1.0
 40
1.0
 40
1.0
 40
1.0
 10
-122.6425521062668
 20
38.14300497219054
 30
0.0
 10
-122.6426138012784
 20
38.14295822457662
 30
0.0
 10
-122.6427371917744
 20
38.14286472899047
 30
0.0
 10
-122.6428129594978
 20
38.14272972567077
 30
0.0
 10
-122.6428508435047
 20
38.14266222375222
 30
0.0
  0
SPLINE
  5
3A49
330
A
100
AcDbEntity
  8
001
  6
PHANTOM
370
     0
100
AcDbSpline
210
0.0
220
0.0
230
1.0
 70
     8
 71
     3
 72
     9
 73
     5
 74
     0
 42
0.0000000001
 43
0.0000000001
 40
0.0
 40
0.0
 40
0.0
 40
0.0
 40
0.4999968080202497
 40
1.0
 40
1.0
 40
1.0
 40
1.0
 10
-122.6100091607602
 20
38.09305402296372
 30
0.0
 10
-122.6099474663521
 20
38.09310077066816
 30
0.0
 10
-122.6098240767483
 20
38.0931942666739
 30
0.0
 10
-122.609748309127
 20
38.09332926953871
 30
0.0
 10
-122.6097104250745
 20
38.09339677140204
 30
0.0
  0
SPLINE
  5
3A4A
330
A
100
AcDbEntity
  8
001
  6
PHANTOM
370
     0
100
AcDbSpline
210
0.0
220
0.0
230
1.0
 70
     8
 71
     3
 72
     9
 73
     5
 74
     0
 42
0.0000000001
 43
0.0000000001
 40
0.0
 40
0.0
 40
0.0
 40
0.0
 40
0.5000004408304672
 40
1.0
 40
1.0
 40
1.0
 40
1.0
 10
-122.6554466305282
 20
38.12418415639326
 30
0.0
 10
-122.6554571992401
 20
38.12410747572307
 30
0.0
 10
-122.6554783366452
 20
38.1239541145179
 30
0.0
 10
-122.6554364514242
 20
38.12380507735397
 30
0.0
 10
-122.6554155088322
 20
38.12373055883771
 30
0.0
  0
LINE
  5
3A4B
330
A
100
AcDbEntity
  8
001
  6
PHANTOM
370
     0
100
AcDbLine
 10
-122.6322633189595
 20
38.0888456137364
 30
0.0
 11
-122.6319816955502
 21
38.08889462303465
 31
0.0
  0
LINE
  5
3A4C
330
A
100
AcDbEntity
  8
001
  6
PHANTOM
370
     0
100
AcDbLine
 10
-122.6324352931058
 20
38.08886350133865
 30
0.0
 11
-122.6322633189595
 21
38.0888456137364
 31
0.0
  0
SPLINE
  5
3A4D
330
A
100
AcDbEntity
  8
001
  6
PHANTOM
370
     0
100
AcDbSpline
210
0.0
220
0.0
230
1.0
 70
     8
 71
     3
 72
     9
 73
     5
 74
     0
 42
0.0000000001
 43
0.0000000001
 40
0.0
 40
0.0
 40
0.0
 40
0.0
 40
0.4999980837253993
 40
1.0
 40
1.0
 40
1.0
 40
1.0
 10
-122.651256108903
 20
38.10175802559989
 30
0.0
 10
-122.6512093612891
 20
38.10169633058835
 30
0.0
 10
-122.6511158657029
 20
38.10157294009236
 30
0.0
 10
-122.6509808623832
 20
38.10149717236894
 30
0.0
 10
-122.6509133604647
 20
38.10145928836204
 30
0.0
  0
SPLINE
  5
3A4E
330
A
100
AcDbEntity
  8
001
  6
PHANTOM
370
     0
100
AcDbSpline
210
0.0
220
0.0
230
1.0
 70
     8
 71
     3
 72
     9
 73
     5
 74
     0
 42
0.0000000001
 43
0.0000000001
 40
0.0
 40
0.0
 40
0.0
 40
0.0
 40
0.499997732909444
 40
1.0
 40
1.0
 40
1.0
 40
1.0
 10
-122.6013051596762
 20
38.13430097110657
 30
0.0
 10
-122.601351907315
 20
38.1343626656126
 30
0.0
 10
-122.6014454030165
 20
38.13448605518416
 30
0.0
 10
-122.6015804062112
 20
38.13456182177354
 30
0.0
 10
-122.6016479081145
 20
38.13459970524
 30
0.0
  0
SPLINE
  5
3A4F
330
A
100
AcDbEntity
  8
001
  6
PHANTOM
370
     0
100
AcDbSpline
210
0.0
220
0.0
230
1.0
 70
     8
 71
     3
 72
     9
 73
     5
 74
     0
 42
0.0000000001
 43
0.0000000001
 40
0.0
 40
0.0
 40
0.0
 40
0.0
 40
0.5000004408304672
 40
1.0
 40
1.0
 40
1.0
 40
1.0
 10
-122.6201259754735
 20
38.14719549381571
 30
0.0
 10
-122.6202026561437
 20
38.14720606252758
 30
0.0
 10
-122.6203560173488
 20
38.14722719993267
 30
0.0
 10
-122.6205050545128
 20
38.1471853147117
 30
0.0
 10
-122.620579573029
 20
38.14716437211968
 30
0.0
  0
LINE
  5
3A50
330
A
100
AcDbEntity
  8
001
  6
PHANTOM
370
     0
100
AcDbLine
 10
-122.5970967504488
 20
38.11204681290715
 30
0.0
 11
-122.597145759747
 21
38.11232843631665
 31
0.0
  0
LINE
  5
3A51
330
A
100
AcDbEntity
  8
001
  6
PHANTOM
370
     0
100
AcDbLine
 10
-122.597114638051
 20
38.1118748387609
 30
0.0
 11
-122.5970967504488
 21
38.11204681290715
 31
0.0
  0
LINE
  5
3A52
330
A
100
AcDbEntity
  8
001
  6
PHANTOM
370
     0
100
AcDbLine
 10
-122.642552107819
 20
38.09305402296365
 30
0.0
 11
-122.642703770596
 21
38.0929241065689
 31
0.0
  0
LINE
  5
3A53
330
A
100
AcDbEntity
  8
001
  6
PHANTOM
370
     0
100
AcDbLine
 10
-122.6324199158058
 20
38.0886643938854
 30
0.0
 11
-122.6324352931058
 21
38.08886350133865
 31
0.0
  0
LINE
  5
3A54
330
A
100
AcDbEntity
  8
001
  6
PHANTOM
370
     0
100
AcDbLine
 10
-122.6428508419525
 20
38.09339677140215
 30
0.0
 11
-122.6430023401958
 21
38.0932683870329
 31
0.0
  0
LINE
  5
3A55
330
A
100
AcDbEntity
  8
001
  6
PHANTOM
370
     0
100
AcDbLine
 10
-122.651256108903
 20
38.13430097110665
 30
0.0
 11
-122.6513860252977
 21
38.1344526338834
 31
0.0
  0
LINE
  5
3A56
330
A
100
AcDbEntity
  8
001
  6
PHANTOM
370
     0
100
AcDbLine
 10
-122.6556457379815
 20
38.1241687790934
 30
0.0
 11
-122.6554466305282
 21
38.12418415639315
 31
0.0
  0
LINE
  5
3A57
330
A
100
AcDbEntity
  8
001
  6
PHANTOM
370
     0
100
AcDbLine
 10
-122.6554466305282
 20
38.1118748387609
 30
0.0
 11
-122.6556457379815
 21
38.1118902164489
 31
0.0
  0
LINE
  5
3A58
330
A
100
AcDbEntity
  8
001
  6
PHANTOM
370
     0
100
AcDbLine
 10
-122.6513860252977
 20
38.10160636282315
 30
0.0
 11
-122.651256108903
 21
38.1017580255999
 31
0.0
  0
LINE
  5
3A59
330
A
100
AcDbEntity
  8
001
  6
PHANTOM
370
     0
100
AcDbLine
 10
-122.6554155088322
 20
38.11232843631665
 30
0.0
 11
-122.655613427297
 21
38.11234474765539
 31
0.0
  0
LINE
  5
3A5A
330
A
100
AcDbEntity
  8
001
  6
PHANTOM
370
     0
100
AcDbLine
 10
-122.6201259754735
 20
38.08886350133865
 30
0.0
 11
-122.6201413531615
 21
38.0886643938854
 31
0.0
  0
LINE
  5
3A5B
330
A
100
AcDbEntity
  8
001
  6
PHANTOM
370
     0
100
AcDbLine
 10
-122.620579573029
 20
38.08889462303465
 30
0.0
 11
-122.6205958843678
 21
38.0886967045699
 31
0.0
  0
LINE
  5
3A5C
330
A
100
AcDbEntity
  8
001
  6
PHANTOM
370
     0
100
AcDbLine
 10
-122.6098574995355
 20
38.0929241065689
 30
0.0
 11
-122.6100091607603
 21
38.09305402296365
 31
0.0
  0
LINE
  5
3A5D
330
A
100
AcDbEntity
  8
001
  6
PHANTOM
370
     0
100
AcDbLine
 10
-122.6324352931058
 20
38.14719549381565
 30
0.0
 11
-122.6324199154178
 21
38.1473946012689
 31
0.0
  0
LINE
  5
3A5E
330
A
100
AcDbEntity
  8
001
  6
PHANTOM
370
     0
100
AcDbLine
 10
-122.6427037690438
 20
38.1431348885854
 30
0.0
 11
-122.6425521062668
 21
38.14300497219065
 31
0.0
  0
LINE
  5
3A5F
330
A
100
AcDbEntity
  8
001
  6
PHANTOM
370
     0
100
AcDbLine
 10
-122.6319816955502
 20
38.14716437211965
 30
0.0
 11
-122.6319653842115
 21
38.1473622905844
 31
0.0
  0
LINE
  5
3A60
330
A
100
AcDbEntity
  8
001
  6
PHANTOM
370
     0
100
AcDbLine
 10
-122.6100091607603
 20
38.14300497219065
 30
0.0
 11
-122.6098574684915
 21
38.1431348668544
 31
0.0
  0
LINE
  5
3A61
330
A
100
AcDbEntity
  8
001
  6
PHANTOM
370
     0
100
AcDbLine
 10
-122.6097104250745
 20
38.14266222375215
 30
0.0
 11
-122.6095589439055
 21
38.1427906391654
 31
0.0
  0
LINE
  5
3A62
330
A
100
AcDbEntity
  8
001
  6
PHANTOM
370
     0
100
AcDbLine
 10
-122.6201413892503
 20
38.14739460747765
 30
0.0
 11
-122.6201259754735
 21
38.14719549381565
 31
0.0
  0
LINE
  5
3A63
330
A
100
AcDbEntity
  8
001
  6
PHANTOM
370
     0
100
AcDbLine
 10
-122.597114638051
 20
38.12418415639315
 30
0.0
 11
-122.5969155305977
 21
38.1241687787054
 31
0.0
  0
LINE
  5
3A64
330
A
100
AcDbEntity
  8
001
  6
PHANTOM
370
     0
100
AcDbLine
 10
-122.597145759747
 20
38.12373055883765
 30
0.0
 11
-122.5969478537
 21
38.12371421529065
 31
0.0
  0
LINE
  5
3A65
330
A
100
AcDbEntity
  8
001
  6
PHANTOM
370
     0
100
AcDbLine
 10
-122.6011752432815
 20
38.13445263233115
 30
0.0
 11
-122.6013051596763
 21
38.13430097110665
 31
0.0
  0
LINE
  5
3A66
330
A
100
AcDbEntity
  8
001
  6
PHANTOM
370
     0
100
AcDbLine
 10
-122.6013051596763
 20
38.10175802404765
 30
0.0
 11
-122.6011752650123
 21
38.1016063317789
 31
0.0
  0
LINE
  5
3A67
330
A
100
AcDbEntity
  8
001
  6
PHANTOM
370
     0
100
AcDbLine
 10
-122.6016479081145
 20
38.10145928991415
 30
0.0
 11
-122.6015194927013
 21
38.10130780719315
 31
0.0
  0
LINE
  5
3A68
330
A
100
AcDbEntity
  8
001
  6
PHANTOM
370
     0
100
AcDbLine
 10
-122.596915524389
 20
38.11189025253765
 30
0.0
 11
-122.597114638051
 21
38.1118748387609
 31
0.0
  0
LINE
  5
3A69
330
A
100
AcDbEntity
  8
001
  6
PHANTOM
370
     0
100
AcDbLine
 10
-122.6319653842115
 20
38.0886967045699
 30
0.0
 11
-122.6319816955502
 21
38.08889462303465
 31
0.0
  0
LINE
  5
3A6A
330
A
100
AcDbEntity
  8
001
  6
PHANTOM
370
     0
100
AcDbLine
 10
-122.6095589439055
 20
38.0932683559889
 30
0.0
 11
-122.6097104250745
 21
38.09339677140215
 31
0.0
  0
LINE
  5
3A6B
330
A
100
AcDbEntity
  8
001
  6
PHANTOM
370
     0
100
AcDbLine
 10
-122.6556134148792
 20
38.12371421490265
 30
0.0
 11
-122.6554155088322
 21
38.12373055883765
 31
0.0
  0
LINE
  5
3A6C
330
A
100
AcDbEntity
  8
001
  6
PHANTOM
370
     0
100
AcDbLine
 10
-122.6510417448338
 20
38.10130779167115
 30
0.0
 11
-122.6509133604648
 21
38.10145928836215
 31
0.0
  0
LINE
  5
3A6D
330
A
100
AcDbEntity
  8
001
  6
PHANTOM
370
     0
100
AcDbLine
 10
-122.620595916964
 20
38.1473622781669
 30
0.0
 11
-122.620579573029
 21
38.14716437211965
 31
0.0
  0
LINE
  5
3A6E
330
A
100
AcDbEntity
  8
001
  6
PHANTOM
370
     0
100
AcDbLine
 10
-122.6430023246737
 20
38.1427906391654
 30
0.0
 11
-122.6428508435048
 21
38.14266222375215
 31
0.0
  0
LINE
  5
3A6F
330
A
100
AcDbEntity
  8
001
  6
PHANTOM
370
     0
100
AcDbLine
 10
-122.6509133604648
 20
38.13459970523989
 30
0.0
 11
-122.651041775878
 21
38.13475118796115
 31
0.0
  0
LINE
  5
3A70
330
A
100
AcDbEntity
  8
001
  6
PHANTOM
370
     0
100
AcDbLine
 10
-122.5969478412822
 20
38.11234474765539
 30
0.0
 11
-122.597145759747
 21
38.11232843631665
 31
0.0
  0
LINE
  5
3A71
330
A
100
AcDbEntity
  8
001
  6
PHANTOM
370
     0
100
AcDbLine
 10
-122.6015195237455
 20
38.13475120348315
 30
0.0
 11
-122.6016479081145
 21
38.13459970523989
 31
0.0
  0
ARC
  5
3A72
330
A
100
AcDbEntity
  8
001
  6
PHANTOM
370
     0
100
AcDbCircle
 10
-122.6262806342895
 20
38.11802949757715
 30
0.0
 40
0.0394039884366497
100
AcDbArc
 50
270.0
 51
74.00060810780009
  0
ARC
  5
3A73
330
A
100
AcDbEntity
  8
001
  6
PHANTOM
370
     0
100
AcDbCircle
 10
-122.6262806342895
 20
38.11802949757715
 30
0.0
 40
0.0394039884366497
100
AcDbArc
 50
105.9993918921999
 51
270.0
  0
ARC
  5
3A74
330
A
100
AcDbEntity
  8
001
  6
PHANTOM
370
     0
100
AcDbCircle
 10
-122.6678906957655
 20
38.0647246140219
 30
0.0
 40
0.0004533781199862
100
AcDbArc
 50
308.4568464259997
 51
36.4458346599002
  0
ARC
  5
3A77
330
A
100
AcDbEntity
  8
001
  6
PHANTOM
370
     0
100
AcDbCircle
 10
-122.6836655078352
 20
38.07233943250865
 30
0.0
 40
0.0004533890159202
100
AcDbArc
 50
128.4579426594998
 51
216.4448126260001
  0
ARC
  5
3A7C
330
A
100
AcDbEntity
  8
001
  6
PHANTOM
370
     0
100
AcDbCircle
 10
-122.6795855178447
 20
38.0764194361014
 30
0.0
 40
0.0004533781199862
100
AcDbArc
 50
53.55416533999964
 51
141.5431535739996
  0
ARC
  5
3A7F
330
A
100
AcDbEntity
  8
001
  6
PHANTOM
370
     0
100
AcDbCircle
 10
-122.671970699358
 20
38.0606446240314
 30
0.0
 40
0.0004533890159202
100
AcDbArc
 50
233.5551873739997
 51
321.5420573404996
  0
LINE
  5
3A80
330
A
100
AcDbEntity
  8
001
  6
PHANTOM
370
     0
100
AcDbLine
 10
-122.6694141470497
 20
38.06617499951364
 30
0.0
 11
-122.6781351323533
 21
38.0748959848169
 31
0.0
  0
LINE
  5
3A81
330
A
100
AcDbEntity
  8
001
  6
PHANTOM
370
     0
100
AcDbLine
 10
-122.6821420701202
 20
38.0708890470499
 30
0.0
 11
-122.6734210848168
 21
38.06216806174665
 31
0.0
  0
LINE
  5
3A82
330
A
100
AcDbEntity
  8
001
  6
PHANTOM
370
     0
100
AcDbLine
 10
-122.6839474886015
 20
38.0726944655314
 30
0.0
 11
-122.6799405477303
 21
38.0767014032984
 31
0.0
  0
LINE
  5
3A83
330
A
100
AcDbEntity
  8
001
  6
PHANTOM
370
     0
100
AcDbLine
 10
-122.6821420701202
 20
38.0708890470499
 30
0.0
 11
-122.6781351323533
 21
38.0748959848169
 31
0.0
  0
LINE
  5
3A84
330
A
100
AcDbEntity
  8
001
  6
PHANTOM
370
     0
100
AcDbLine
 10
-122.6694141470497
 20
38.06617499951364
 30
0.0
 11
-122.6734210848168
 21
38.06216806174665
 31
0.0
  0
LINE
  5
3A85
330
A
100
AcDbEntity
  8
001
  6
PHANTOM
370
     0
100
AcDbLine
 10
-122.6676087285683
 20
38.06436958413664
 30
0.0
 11
-122.6716156663355
 21
38.06036264326515
 31
0.0
  0
LINE
  5
3A86
330
A
100
AcDbEntity
  8
001
  6
PHANTOM
370
     0
100
AcDbLine
 10
-122.6860105109073
 20
38.0747574878369
 30
0.0
 11
-122.6839474886015
 21
38.0726944655314
 31
0.0
  0
LINE
  5
3A87
330
A
100
AcDbEntity
  8
001
  6
PHANTOM
370
     0
100
AcDbLine
 10
-122.6799405477303
 20
38.0767014032984
 30
0.0
 11
-122.6820035762445
 21
38.0787644256039
 31
0.0
  0
LINE
  5
3A88
330
A
100
AcDbEntity
  8
001
  6
PHANTOM
370
     0
100
AcDbLine
 10
-122.6716156663355
 20
38.06036264326515
 30
0.0
 11
-122.6695526440297
 21
38.05829962095965
 31
0.0
  0
LINE
  5
3A89
330
A
100
AcDbEntity
  8
001
  6
PHANTOM
370
     0
100
AcDbLine
 10
-122.6655457062628
 20
38.06230655562215
 30
0.0
 11
-122.6676087285683
 21
38.06436958413664
 31
0.0
  0
SPLINE
  5
3A8A
330
A
100
AcDbEntity
  8
001
  6
PHANTOM
370
     0
100
AcDbSpline
210
0.0
220
0.0
230
1.0
 70
     8
 71
     3
 72
    34
 73
    30
 74
     0
 42
0.0000000001
 43
0.0000000001
 40
0.0
 40
0.0
 40
0.0
 40
0.0
 40
0.0050842042912295
 40
0.0495232240716845
 40
0.084258664787837
 40
0.1190009033284135
 40
0.1544754702374429
 40
0.189956948661045
 40
0.225431516686381
 40
0.2609129939192762
 40
0.2956484538625835
 40
0.330390673806904
 40
0.3748236851632974
 40
0.4180459697645025
 40
0.4599713027537119
 40
0.5018905537171592
 40
0.5451129140610119
 40
0.5895519338414669
 40
0.6242873745576194
 40
0.6590296130981958
 40
0.6945041800072253
 40
0.7299856584308273
 40
0.7654602264561634
 40
0.8009417036890587
 40
0.8356771636323658
 40
0.8704193835766865
 40
0.9148523949330797
 40
0.9580731478505088
 40
1.0
 40
1.0
 40
1.0
 40
1.0
 10
-122.6160085490886
 20
38.16133157661893
 30
0.0
 10
-122.6157925589907
 20
38.16129252197366
 30
0.0
 10
-122.6136886848346
 20
38.16091210611352
 30
0.0
 10
-122.6102465170064
 20
38.15965154904322
 30
0.0
 10
-122.605755488546
 20
38.15765402284993
 30
0.0
 10
-122.6018399053392
 20
38.15535396448533
 30
0.0
 10
-122.5981470231664
 20
38.15266353300009
 30
0.0
 10
-122.594730924196
 20
38.14957949835266
 30
0.0
 10
-122.5916473934076
 20
38.14616326153334
 30
0.0
 10
-122.588954224502
 20
38.14247117227486
 30
0.0
 10
-122.5866645147142
 20
38.13855322022036
 30
0.0
 10
-122.5846242505759
 20
38.1340711807157
 30
0.0
 10
-122.5829951408664
 20
38.12902970173255
 30
0.0
 10
-122.5819648868666
 20
38.12351755592301
 30
0.0
 10
-122.5816303829002
 20
38.11802975831127
 30
0.0
 10
-122.5819648885766
 20
38.11254196917482
 30
0.0
 10
-122.5829949383389
 20
38.10702978388852
 30
0.0
 10
-122.5846240640956
 20
38.10198833123967
 30
0.0
 10
-122.5866643777378
 20
38.09750604052844
 30
0.0
 10
-122.5889538995597
 20
38.09358830492603
 30
0.0
 10
-122.5916472120146
 20
38.08989601393168
 30
0.0
 10
-122.5947304692378
 20
38.08647974547673
 30
0.0
 10
-122.5981469143829
 20
38.08339629725873
 30
0.0
 10
-122.6018389480834
 20
38.08070296864597
 30
0.0
 10
-122.6057569146319
 20
38.07841380433283
 30
0.0
 10
-122.6102389502893
 20
38.07637133594732
 30
0.0
 10
-122.6152803663399
 20
38.07475264685539
 30
0.0
 10
-122.620792512776
 20
38.07368319421306
 30
0.0
 10
-122.6244698875485
 20
38.07355347903127
 30
0.0
 10
-122.6262806342896
 20
38.07348960701463
 30
0.0
  0
SPLINE
  5
3A8B
330
A
100
AcDbEntity
  8
001
  6
PHANTOM
370
     0
100
AcDbSpline
210
0.0
220
0.0
230
1.0
 70
     8
 71
     3
 72
    34
 73
    30
 74
     0
 42
0.0000000001
 43
0.0000000001
 40
0.0
 40
0.0
 40
0.0
 40
0.0
 40
0.0419238248446005
 40
0.0851416129540761
 40
0.1295806516660407
 40
0.1643161071798718
 40
0.1990583605210228
 40
0.2345329425426066
 40
0.2700144360817076
 40
0.3054890192195985
 40
0.340970511567992
 40
0.3757059863089861
 40
0.4104482210538731
 40
0.4548812513392165
 40
0.4981035543535887
 40
0.5400289052034496
 40
0.5819481740249575
 40
0.6251705527820095
 40
0.6696095914939742
 40
0.7043450470078053
 40
0.7390873003489562
 40
0.7745618823705401
 40
0.8100433759096409
 40
0.8455179590475319
 40
0.8809994513959253
 40
0.9157349261369191
 40
0.9504771608818066
 40
0.9949101911671498
 40
1.0
 40
1.0
 40
1.0
 40
1.0
 10
-122.6262806342896
 20
38.07348960701463
 30
0.0
 10
-122.6280912464384
 20
38.07355349877604
 30
0.0
 10
-122.6317683546067
 20
38.07368325429431
 30
0.0
 10
-122.6372805392797
 20
38.07475247525717
 30
0.0
 10
-122.6423218001186
 20
38.07637115221345
 30
0.0
 10
-122.6468040916032
 20
38.07841366625485
 30
0.0
 10
-122.6507218263175
 20
38.08070264622149
 30
0.0
 10
-122.6544141202112
 20
38.08339610683434
 30
0.0
 10
-122.6578303779277
 20
38.08647932407615
 30
0.0
 10
-122.6609138661762
 20
38.0898957799396
 30
0.0
 10
-122.66360704643
 20
38.0935878107647
 30
0.0
 10
-122.6658967532452
 20
38.09750577812561
 30
0.0
 10
-122.6679370182218
 20
38.10198781331285
 30
0.0
 10
-122.6695661276506
 20
38.10702929374592
 30
0.0
 10
-122.6705963817275
 20
38.11254143914264
 30
0.0
 10
-122.670930885679
 20
38.11802923688659
 30
0.0
 10
-122.6705963799877
 20
38.12351702589087
 30
0.0
 10
-122.6695663303027
 20
38.12902921158993
 30
0.0
 10
-122.6679372042651
 20
38.13407066278895
 30
0.0
 10
-122.6658968914611
 20
38.13855295781666
 30
0.0
 10
-122.6636073666667
 20
38.14247067811342
 30
0.0
 10
-122.6609140655578
 20
38.14616302752865
 30
0.0
 10
-122.6578307657959
 20
38.14957907695059
 30
0.0
 10
-122.6544144793665
 20
38.15266334240005
 30
0.0
 10
-122.650721857404
 20
38.15535364203657
 30
0.0
 10
-122.6468060419544
 20
38.15765388241482
 30
0.0
 10
-122.64231526946
 20
38.15965136459515
 30
0.0
 10
-122.6388728342071
 20
38.16091195386753
 30
0.0
 10
-122.6367689841415
 20
38.16129240653786
 30
0.0
 10
-122.6365527567435
 20
38.16133150832193
 30
0.0
  0
SPLINE
  5
3A8C
330
A
100
AcDbEntity
  8
001
  6
PHANTOM
370
     0
100
AcDbSpline
210
0.0
220
0.0
230
1.0
 70
     8
 71
     3
 72
     9
 73
     5
 74
     0
 42
0.0000000001
 43
0.0000000001
 40
0.0
 40
0.0
 40
0.0
 40
0.0
 40
0.5000002163751934
 40
1.0
 40
1.0
 40
1.0
 40
1.0
 10
-122.6712997648226
 20
38.05280410375533
 30
0.0
 10
-122.6716970134179
 20
38.05284506067303
 30
0.0
 10
-122.6724915102649
 20
38.05292697447299
 30
0.0
 10
-122.6731112267223
 20
38.05343084607649
 30
0.0
 10
-122.6734210848169
 20
38.05368278176921
 30
0.0
  0
SPLINE
  5
3A8D
330
A
100
AcDbEntity
  8
001
  6
PHANTOM
370
     0
100
AcDbSpline
210
0.0
220
0.0
230
1.0
 70
     8
 71
     3
 72
    15
 73
    11
 74
     0
 42
0.0000000001
 43
0.0000000001
 40
0.0
 40
0.0
 40
0.0
 40
0.0
 40
0.1222499214026823
 40
0.2499999242390997
 40
0.3777506681209032
 40
0.5000000408600278
 40
0.6222500600552948
 40
0.7500000228545242
 40
0.8777504685256452
 40
1.0
 40
1.0
 40
1.0
 40
1.0
 10
-122.6691784448282
 20
38.05792542175787
 30
0.0
 10
-122.6689919149431
 20
38.05770470457255
 30
0.0
 10
-122.6686104631058
 20
38.05725334003198
 30
0.0
 10
-122.6683148713044
 20
38.05639603055505
 30
0.0
 10
-122.6682708435398
 20
38.05549933904551
 30
0.0
 10
-122.668489721595
 20
38.05464014174562
 30
0.0
 10
-122.6689424917174
 20
38.05387782546647
 30
0.0
 10
-122.6696076868549
 20
38.05327490737741
 30
0.0
 10
-122.6704229075705
 20
38.05287771001444
 30
0.0
 10
-122.6710117983223
 20
38.05282827660306
 30
0.0
 10
-122.6712997648226
 20
38.05280410375533
 30
0.0
  0
LINE
  5
3A8E
330
A
100
AcDbEntity
  8
001
  6
PHANTOM
370
     0
100
AcDbLine
 10
-122.6695526440297
 20
38.05829962095965
 30
0.0
 11
-122.6691784448282
 21
38.0579254217579
 31
0.0
  0
LINE
  5
3A8F
330
A
100
AcDbEntity
  8
001
  6
PHANTOM
370
     0
100
AcDbLine
 10
-122.6651715070613
 20
38.0619323626294
 30
0.0
 11
-122.6655457062628
 21
38.06230655562215
 31
0.0
  0
SPLINE
  5
3A90
330
A
100
AcDbEntity
  8
001
  6
PHANTOM
370
     0
100
AcDbSpline
210
0.0
220
0.0
230
1.0
 70
     8
 71
     3
 72
     9
 73
     5
 74
     0
 42
0.0000000001
 43
0.0000000001
 40
0.0
 40
0.0
 40
0.0
 40
0.0
 40
0.4999994796560371
 40
1.0
 40
1.0
 40
1.0
 40
1.0
 10
-122.6630501870668
 20
38.06105367840665
 30
0.0
 10
-122.6634474358798
 20
38.06109463501847
 30
0.0
 10
-122.6642419343324
 20
38.06117654832734
 30
0.0
 10
-122.6648616492699
 20
38.06168042435388
 30
0.0
 10
-122.6651715070611
 20
38.06193236262934
 30
0.0
  0
SPLINE
  5
3A91
330
A
100
AcDbEntity
  8
001
  6
PHANTOM
370
     0
100
AcDbSpline
210
0.0
220
0.0
230
1.0
 70
     8
 71
     3
 72
    15
 73
    11
 74
     0
 42
0.0000000001
 43
0.0000000001
 40
0.0
 40
0.0
 40
0.0
 40
0.0
 40
0.1222495230349517
 40
0.2499994786480933
 40
0.3777501954974252
 40
0.4999996315423982
 40
0.6222496055474795
 40
0.7500001152679691
 40
0.8777505137156504
 40
1.0
 40
1.0
 40
1.0
 40
1.0
 10
-122.6609288670725
 20
38.0661749995136
 30
0.0
 10
-122.66074233701
 20
38.06595428342106
 30
0.0
 10
-122.6603608842466
 20
38.06550292044887
 30
0.0
 10
-122.6600652950819
 20
38.06464561126976
 30
0.0
 10
-122.6600212605375
 20
38.06374891958278
 30
0.0
 10
-122.6602401447727
 20
38.06288972275207
 30
0.0
 10
-122.66069291547
 20
38.06212740630531
 30
0.0
 10
-122.6613581068682
 20
38.06152448152843
 30
0.0
 10
-122.6621733300401
 20
38.06112728493293
 30
0.0
 10
-122.6627622206405
 20
38.06107785134212
 30
0.0
 10
-122.6630501870668
 20
38.06105367840665
 30
0.0
  0
LINE
  5
3A92
330
A
100
AcDbEntity
  8
001
  6
PHANTOM
370
     0
100
AcDbLine
 10
-122.6781351323533
 20
38.08338126479414
 30
0.0
 11
-122.6609288670725
 21
38.06617499951364
 31
0.0
  0
SPLINE
  5
3A93
330
A
100
AcDbEntity
  8
001
  6
PHANTOM
370
     0
100
AcDbSpline
210
0.0
220
0.0
230
1.0
 70
     8
 71
     3
 72
     9
 73
     5
 74
     0
 42
0.0000000001
 43
0.0000000001
 40
0.0
 40
0.0
 40
0.0
 40
0.0
 40
0.49999845269911
 40
1.0
 40
1.0
 40
1.0
 40
1.0
 10
-122.6781351323531
 20
38.08338126479425
 30
0.0
 10
-122.6784449894436
 20
38.08363320023598
 30
0.0
 10
-122.6790647055424
 20
38.08413707267873
 30
0.0
 10
-122.6798592025929
 20
38.08421898808344
 30
0.0
 10
-122.6802564523475
 20
38.08425994591253
 30
0.0
  0
SPLINE
  5
3A94
330
A
100
AcDbEntity
  8
001
  6
PHANTOM
370
     0
100
AcDbSpline
210
0.0
220
0.0
230
1.0
 70
     8
 71
     3
 72
    15
 73
    11
 74
     0
 42
0.0000000001
 43
0.0000000001
 40
0.0
 40
0.0
 40
0.0
 40
0.0
 40
0.1222497394909247
 40
0.2500002100806511
 40
0.3777504170277081
 40
0.5000001245239419
 40
0.6222498978244669
 40
0.7500003867035126
 40
0.8777501247693241
 40
1.0
 40
1.0
 40
1.0
 40
1.0
 10
-122.6823777692374
 20
38.07913862480559
 30
0.0
 10
-122.682564300202
 20
38.07935934082081
 30
0.0
 10
-122.6829457552508
 20
38.07981070415628
 30
0.0
 10
-122.6832413490442
 20
38.08066801374943
 30
0.0
 10
-122.6832853758505
 20
38.0815647061512
 30
0.0
 10
-122.6830665007942
 20
38.082423904358
 30
0.0
 10
-122.6826137230551
 20
38.08318621897145
 30
0.0
 10
-122.6819485292168
 20
38.08378913606336
 30
0.0
 10
-122.6811333110235
 20
38.08418634194485
 30
0.0
 10
-122.6805444201407
 20
38.08423577374805
 30
0.0
 10
-122.6802564523475
 20
38.08425994591253
 30
0.0
  0
LINE
  5
3A95
330
A
100
AcDbEntity
  8
001
  6
PHANTOM
370
     0
100
AcDbLine
 10
-122.6820035762445
 20
38.0787644256039
 30
0.0
 11
-122.6823777692375
 21
38.07913862480565
 31
0.0
  0
LINE
  5
3A96
330
A
100
AcDbEntity
  8
001
  6
PHANTOM
370
     0
100
AcDbLine
 10
-122.6863847101087
 20
38.0751316870384
 30
0.0
 11
-122.6860105109073
 21
38.0747574878369
 31
0.0
  0
SPLINE
  5
3A97
330
A
100
AcDbEntity
  8
001
  6
PHANTOM
370
     0
100
AcDbSpline
210
0.0
220
0.0
230
1.0
 70
     8
 71
     3
 72
     9
 73
     5
 74
     0
 42
0.0000000001
 43
0.0000000001
 40
0.0
 40
0.0
 40
0.0
 40
0.0
 40
0.5000008666625968
 40
1.0
 40
1.0
 40
1.0
 40
1.0
 10
-122.6885060332076
 20
38.07601036505239
 30
0.0
 10
-122.6881087835107
 20
38.07596940832139
 30
0.0
 10
-122.6873142854941
 20
38.07588749500137
 30
0.0
 10
-122.6866945682125
 20
38.07538362273501
 30
0.0
 10
-122.6863847101089
 20
38.07513168703852
 30
0.0
  0
SPLINE
  5
3A98
330
A
100
AcDbEntity
  8
001
  6
PHANTOM
370
     0
100
AcDbSpline
210
0.0
220
0.0
230
1.0
 70
     8
 71
     3
 72
    15
 73
    11
 74
     0
 42
0.0000000001
 43
0.0000000001
 40
0.0
 40
0.0
 40
0.0
 40
0.0
 40
0.1222495184268589
 40
0.2500002419034919
 40
0.3777505869072045
 40
0.4999999992991488
 40
0.6222494539723673
 40
0.7500003779804977
 40
0.8777508650887671
 40
1.0
 40
1.0
 40
1.0
 40
1.0
 10
-122.6906273500975
 20
38.07088904704986
 30
0.0
 10
-122.6908138818263
 20
38.07110976173356
 30
0.0
 10
-122.6911953391761
 20
38.07156112321971
 30
0.0
 10
-122.6914909209689
 20
38.07241843659859
 30
0.0
 10
-122.6915349518575
 20
38.0733151274139
 30
0.0
 10
-122.6913160734678
 20
38.07417432268798
 30
0.0
 10
-122.6908633039194
 20
38.07493663947784
 30
0.0
 10
-122.6901981104051
 20
38.07553956091803
 30
0.0
 10
-122.689382888219
 20
38.07593675820643
 30
0.0
 10
-122.6887939986194
 20
38.07598619204154
 30
0.0
 10
-122.6885060332076
 20
38.07601036505239
 30
0.0
  0
LINE
  5
3A99
330
A
100
AcDbEntity
  8
001
  6
PHANTOM
370
     0
100
AcDbLine
 10
-122.6734210848168
 20
38.05368278176915
 30
0.0
 11
-122.6906273500975
 21
38.0708890470499
 31
0.0
  0
LINE
  5
3AA2
330
A
100
AcDbEntity
  8
001
  6
CENTERX2
370
     0
100
AcDbLine
 10
-122.6262806342895
 20
38.11802949757715
 30
0.0
 11
-122.677291702958
 21
38.06701842890865
 31
0.0
  0
LINE
  5
3AA3
330
A
100
AcDbEntity
  8
001
  6
CENTERX2
370
     0
100
AcDbLine
 10
-122.6861077787323
 20
38.07886169265365
 30
0.0
 11
-122.663229248962
 21
38.0559831628834
 31
0.0
  0
LINE
  5
3B86
330
A
100
AcDbEntity
  8
001
  6
Continuous
370
     0
100
AcDbLine
 10
-122.5566973009563
 20
38.11802949757715
 30
0.0
 11
-122.5566973009563
 21
38.1221961642439
 31
0.0
  0
LINE
  5
3B87
330
A
100
AcDbEntity
  8
001
  6
Continuous
370
     0
100
AcDbLine
 10
-122.5566973009563
 20
38.11802949757715
 30
0.0
 11
-122.560863967623
 21
38.11802949757715
 31
0.0
  0
LINE
  5
3B88
330
A
100
AcDbEntity
  8
001
  6
Continuous
370
     0
100
AcDbLine
 10
-122.5566973009563
 20
38.11802949757715
 30
0.0
 11
-122.5566973009563
 21
38.1138628309104
 31
0.0
  0
LINE
  5
3B89
330
A
100
AcDbEntity
  8
001
  6
Continuous
370
     0
100
AcDbLine
 10
-122.5566973009563
 20
38.11802949757715
 30
0.0
 11
-122.5525306342895
 21
38.11802949757715
 31
0.0
  0
LINE
  5
3B8A
330
A
100
AcDbEntity
  8
001
  6
Continuous
370
     0
100
AcDbLine
 10
-122.5566973009563
 20
38.1263628309104
 30
0.0
 11
-122.5566973009563
 21
38.12802949757715
 31
0.0
  0
LINE
  5
3B8B
330
A
100
AcDbEntity
  8
001
  6
Continuous
370
     0
100
AcDbLine
 10
-122.5650306342895
 20
38.11802949757715
 30
0.0
 11
-122.5666973009562
 21
38.11802949757715
 31
0.0
  0
LINE
  5
3B8C
330
A
100
AcDbEntity
  8
001
  6
Continuous
370
     0
100
AcDbLine
 10
-122.5566973009563
 20
38.1096961642439
 30
0.0
 11
-122.5566973009563
 21
38.10802949757714
 31
0.0
  0
LINE
  5
3B8D
330
A
100
AcDbEntity
  8
001
  6
Continuous
370
     0
100
AcDbLine
 10
-122.548363967623
 20
38.11802949757715
 30
0.0
 11
-122.5466973009563
 21
38.11802949757715
 31
0.0
  0
LINE
  5
3B8E
330
A
100
AcDbEntity
  8
001
  6
Continuous
370
     0
100
AcDbLine
 10
-122.6262806342895
 20
38.0624461642439
 30
0.0
 11
-122.6262806342895
 21
38.06661283091065
 31
0.0
  0
LINE
  5
3B8F
330
A
100
AcDbEntity
  8
001
  6
Continuous
370
     0
100
AcDbLine
 10
-122.6262806342895
 20
38.0624461642439
 30
0.0
 11
-122.6304473009563
 21
38.0624461642439
 31
0.0
  0
LINE
  5
3B90
330
A
100
AcDbEntity
  8
001
  6
Continuous
370
     0
100
AcDbLine
 10
-122.6262806342895
 20
38.0624461642439
 30
0.0
 11
-122.6262806342895
 21
38.05827949757715
 31
0.0
  0
LINE
  5
3B91
330
A
100
AcDbEntity
  8
001
  6
Continuous
370
     0
100
AcDbLine
 10
-122.6262806342895
 20
38.0624461642439
 30
0.0
 11
-122.6221139676227
 21
38.0624461642439
 31
0.0
  0
LINE
  5
3B92
330
A
100
AcDbEntity
  8
001
  6
Continuous
370
     0
100
AcDbLine
 10
-122.6262806342895
 20
38.07077949757715
 30
0.0
 11
-122.6262806342895
 21
38.07244616424389
 31
0.0
  0
LINE
  5
3B93
330
A
100
AcDbEntity
  8
001
  6
Continuous
370
     0
100
AcDbLine
 10
-122.6346139676228
 20
38.0624461642439
 30
0.0
 11
-122.6362806342895
 21
38.0624461642439
 31
0.0
  0
LINE
  5
3B94
330
A
100
AcDbEntity
  8
001
  6
Continuous
370
     0
100
AcDbLine
 10
-122.6262806342895
 20
38.05411283091065
 30
0.0
 11
-122.6262806342895
 21
38.0524461642439
 31
0.0
  0
LINE
  5
3B95
330
A
100
AcDbEntity
  8
001
  6
Continuous
370
     0
100
AcDbLine
 10
-122.6179473009562
 20
38.0624461642439
 30
0.0
 11
-122.6162806342895
 21
38.0624461642439
 31
0.0
  0
LINE
  5
3B96
330
A
100
AcDbEntity
  8
001
  6
Continuous
370
     0
100
AcDbLine
 10
-122.695863967623
 20
38.11802949757715
 30
0.0
 11
-122.695863967623
 21
38.1221961642439
 31
0.0
  0
LINE
  5
3B97
330
A
100
AcDbEntity
  8
001
  6
Continuous
370
     0
100
AcDbLine
 10
-122.695863967623
 20
38.11802949757715
 30
0.0
 11
-122.7000306342898
 21
38.11802949757715
 31
0.0
  0
LINE
  5
3B98
330
A
100
AcDbEntity
  8
001
  6
Continuous
370
     0
100
AcDbLine
 10
-122.695863967623
 20
38.11802949757715
 30
0.0
 11
-122.695863967623
 21
38.1138628309104
 31
0.0
  0
LINE
  5
3B99
330
A
100
AcDbEntity
  8
001
  6
Continuous
370
     0
100
AcDbLine
 10
-122.695863967623
 20
38.11802949757715
 30
0.0
 11
-122.6916973009563
 21
38.11802949757715
 31
0.0
  0
LINE
  5
3B9A
330
A
100
AcDbEntity
  8
001
  6
Continuous
370
     0
100
AcDbLine
 10
-122.695863967623
 20
38.1263628309104
 30
0.0
 11
-122.695863967623
 21
38.12802949757715
 31
0.0
  0
LINE
  5
3B9B
330
A
100
AcDbEntity
  8
001
  6
Continuous
370
     0
100
AcDbLine
 10
-122.7041973009562
 20
38.11802949757715
 30
0.0
 11
-122.705863967623
 21
38.11802949757715
 31
0.0
  0
LINE
  5
3B9C
330
A
100
AcDbEntity
  8
001
  6
Continuous
370
     0
100
AcDbLine
 10
-122.695863967623
 20
38.1096961642439
 30
0.0
 11
-122.695863967623
 21
38.10802949757714
 31
0.0
  0
LINE
  5
3B9D
330
A
100
AcDbEntity
  8
001
  6
Continuous
370
     0
100
AcDbLine
 10
-122.6875306342898
 20
38.11802949757715
 30
0.0
 11
-122.685863967623
 21
38.11802949757715
 31
0.0
  0
LINE
  5
3B9E
330
A
100
AcDbEntity
  8
001
  6
Continuous
370
     0
100
AcDbLine
 10
-122.6262806342895
 20
38.1736128309104
 30
0.0
 11
-122.6262806342895
 21
38.17777949757715
 31
0.0
  0
LINE
  5
3B9F
330
A
100
AcDbEntity
  8
001
  6
Continuous
370
     0
100
AcDbLine
 10
-122.6262806342895
 20
38.1736128309104
 30
0.0
 11
-122.6304473009563
 21
38.1736128309104
 31
0.0
  0
LINE
  5
3BA0
330
A
100
AcDbEntity
  8
001
  6
Continuous
370
     0
100
AcDbLine
 10
-122.6262806342895
 20
38.1736128309104
 30
0.0
 11
-122.6262806342895
 21
38.16944616424365
 31
0.0
  0
LINE
  5
3BA1
330
A
100
AcDbEntity
  8
001
  6
Continuous
370
     0
100
AcDbLine
 10
-122.6262806342895
 20
38.1736128309104
 30
0.0
 11
-122.6221139676227
 21
38.1736128309104
 31
0.0
  0
LINE
  5
3BA2
330
A
100
AcDbEntity
  8
001
  6
Continuous
370
     0
100
AcDbLine
 10
-122.6262806342895
 20
38.18194616424365
 30
0.0
 11
-122.6262806342895
 21
38.1836128309104
 31
0.0
  0
LINE
  5
3BA3
330
A
100
AcDbEntity
  8
001
  6
Continuous
370
     0
100
AcDbLine
 10
-122.6346139676228
 20
38.1736128309104
 30
0.0
 11
-122.6362806342895
 21
38.1736128309104
 31
0.0
  0
LINE
  5
3BA4
330
A
100
AcDbEntity
  8
001
  6
Continuous
370
     0
100
AcDbLine
 10
-122.6262806342895
 20
38.16527949757715
 30
0.0
 11
-122.6262806342895
 21
38.1636128309104
 31
0.0
  0
LINE
  5
3BA5
330
A
100
AcDbEntity
  8
001
  6
Continuous
370
     0
100
AcDbLine
 10
-122.6179473009562
 20
38.1736128309104
 30
0.0
 11
-122.6162806342895
 21
38.1736128309104
 31
0.0
  0
LINE
  5
3BA6
330
A
100
AcDbEntity
  8
001
  6
Continuous
370
     0
100
AcDbLine
 10
-122.6262806342895
 20
38.11802949757715
 30
0.0
 11
-122.6262806342895
 21
38.1221961642439
 31
0.0
  0
LINE
  5
3BA7
330
A
100
AcDbEntity
  8
001
  6
Continuous
370
     0
100
AcDbLine
 10
-122.6262806342895
 20
38.11802949757715
 30
0.0
 11
-122.6304473009563
 21
38.11802949757715
 31
0.0
  0
LINE
  5
3BA8
330
A
100
AcDbEntity
  8
001
  6
Continuous
370
     0
100
AcDbLine
 10
-122.6262806342895
 20
38.11802949757715
 30
0.0
 11
-122.6262806342895
 21
38.1138628309104
 31
0.0
  0
LINE
  5
3BA9
330
A
100
AcDbEntity
  8
001
  6
Continuous
370
     0
100
AcDbLine
 10
-122.6262806342895
 20
38.11802949757715
 30
0.0
 11
-122.6221139676227
 21
38.11802949757715
 31
0.0
  0
LINE
  5
3BAA
330
A
100
AcDbEntity
  8
001
  6
Continuous
370
     0
100
AcDbLine
 10
-122.6262806342895
 20
38.1263628309104
 30
0.0
 11
-122.6262806342895
 21
38.2221961642439
 31
0.0
  0
LINE
  5
3BAB
330
A
100
AcDbEntity
  8
001
  6
Continuous
370
     0
100
AcDbLine
 10
-122.6346139676228
 20
38.11802949757715
 30
0.0
 11
-122.7304473009563
 21
38.11802949757715
 31
0.0
  0
LINE
  5
3BAC
330
A
100
AcDbEntity
  8
001
  6
Continuous
370
     0
100
AcDbLine
 10
-122.6262806342895
 20
38.1096961642439
 30
0.0
 11
-122.6262806342895
 21
38.0138628309104
 31
0.0
  0
LINE
  5
3BAD
330
A
100
AcDbEntity
  8
001
  6
Continuous
370
     0
100
AcDbLine
 10
-122.6179473009562
 20
38.11802949757715
 30
0.0
 11
-122.5221139676228
 21
38.11802949757715
 31
0.0
  0
LINE
  5
3BB1
330
A
100
AcDbEntity
  8
001
  6
Continuous
370
     0
100
AcDbLine
 10
-122.7262806342895
 20
38.11787324757715
 30
0.0
 11
-122.7262806342895
 21
37.91429320349279
 31
0.0
  0
LINE
  5
3BB2
330
A
100
AcDbEntity
  8
001
  6
Continuous
370
     0
100
AcDbLine
 10
-122.5262806342895
 20
38.11787324757715
 30
0.0
 11
-122.5262806342895
 21
37.91429320349279
 31
0.0
  0
LINE
  5
3BB7
330
A
100
AcDbEntity
  8
001
  6
Continuous
370
     0
100
AcDbLine
 10
-122.695863967623
 20
38.10787324757715
 30
0.0
 11
-122.695863967623
 21
37.95969734040498
 31
0.0
  0
LINE
  5
3BB8
330
A
100
AcDbEntity
  8
001
  6
Continuous
370
     0
100
AcDbLine
 10
-122.5566973009563
 20
38.10787324757715
 30
0.0
 11
-122.5566973009563
 21
37.95969734040498
 31
0.0
  0
LINE
  5
3BBD
330
A
100
AcDbEntity
  8
001
  6
Continuous
370
     0
100
AcDbLine
 10
-122.6161243842895
 20
38.1736128309104
 30
0.0
 11
-122.5075252715925
 21
38.1736128309104
 31
0.0
  0
LINE
  5
3BBE
330
A
100
AcDbEntity
  8
001
  6
Continuous
370
     0
100
AcDbLine
 10
-122.6161243842895
 20
38.0624461642439
 30
0.0
 11
-122.5075252715925
 21
38.0624461642439
 31
0.0
  0
LINE
  5
3BC3
330
A
100
AcDbEntity
  8
001
  6
Continuous
370
     0
100
AcDbLine
 10
-122.6263911197241
 20
38.11813998301171
 30
0.0
 11
-122.6713449590232
 21
38.16309382231089
 31
0.0
  0
LINE
  5
3BC4
330
A
100
AcDbEntity
  8
001
  6
Continuous
370
     0
100
AcDbLine
 10
-122.6862182641668
 20
38.07897217808821
 30
0.0
 11
-122.7208424337064
 21
38.11359634762777
 31
0.0
  0
LINE
  5
3BC9
330
A
100
AcDbEntity
  8
001
  6
Continuous
370
     0
100
AcDbLine
 10
-122.6774021883926
 20
38.06690794347409
 30
0.0
 11
-122.6895032493739
 21
38.0548068824928
 31
0.0
  0
LINE
  5
3BCE
330
A
100
AcDbEntity
  8
001
  6
PHANTOM
370
     0
100
AcDbLine
 10
-122.6691784448282
 20
38.0579254217579
 30
0.0
 11
-122.6692474216825
 21
38.0578564480079
 31
0.0
  0
LINE
  5
3BCF
330
A
100
AcDbEntity
  8
001
  6
PHANTOM
370
     0
100
AcDbLine
 10
-122.6692474216825
 20
38.0578564480079
 30
0.0
 11
-122.6693137442675
 21
38.05779011921415
 31
0.0
  0
LINE
  5
3BD0
330
A
100
AcDbEntity
  8
001
  6
PHANTOM
370
     0
100
AcDbLine
 10
-122.6693137442675
 20
38.05779011921415
 30
0.0
 11
-122.6693748700725
 21
38.05772899961814
 31
0.0
  0
LINE
  5
3BD1
330
A
100
AcDbEntity
  8
001
  6
PHANTOM
370
     0
100
AcDbLine
 10
-122.6693748700725
 20
38.05772899961814
 30
0.0
 11
-122.6694284459558
 21
38.05767542373465
 31
0.0
  0
LINE
  5
3BD2
330
A
100
AcDbEntity
  8
001
  6
PHANTOM
370
     0
100
AcDbLine
 10
-122.6694284459558
 20
38.05767542373465
 30
0.0
 11
-122.6694724136945
 21
38.05763145289165
 31
0.0
  0
LINE
  5
3BD3
330
A
100
AcDbEntity
  8
001
  6
PHANTOM
370
     0
100
AcDbLine
 10
-122.6694724136945
 20
38.05763145289165
 30
0.0
 11
-122.6695050875947
 21
38.05759878209565
 31
0.0
  0
LINE
  5
3BD4
330
A
100
AcDbEntity
  8
001
  6
PHANTOM
370
     0
100
AcDbLine
 10
-122.6695050875947
 20
38.05759878209565
 30
0.0
 11
-122.6695252041625
 21
38.05757865931915
 31
0.0
  0
LINE
  5
3BD5
330
A
100
AcDbEntity
  8
001
  6
PHANTOM
370
     0
100
AcDbLine
 10
-122.6695252041625
 20
38.05757865931915
 30
0.0
 11
-122.6695319997127
 21
38.0575718668734
 31
0.0
  0
LINE
  5
3BD6
330
A
100
AcDbEntity
  8
001
  6
PHANTOM
370
     0
100
AcDbLine
 10
-122.6823777692375
 20
38.07913862480565
 30
0.0
 11
-122.6823087954875
 21
38.07920759855539
 31
0.0
  0
LINE
  5
3BD7
330
A
100
AcDbEntity
  8
001
  6
PHANTOM
370
     0
100
AcDbLine
 10
-122.6823087954875
 20
38.07920759855539
 30
0.0
 11
-122.6822424729025
 21
38.0792739242449
 31
0.0
  0
LINE
  5
3BD8
330
A
100
AcDbEntity
  8
001
  6
PHANTOM
370
     0
100
AcDbLine
 10
-122.6822424729025
 20
38.0792739242449
 30
0.0
 11
-122.6821813470975
 21
38.0793350469454
 31
0.0
  0
LINE
  5
3BD9
330
A
100
AcDbEntity
  8
001
  6
PHANTOM
370
     0
100
AcDbLine
 10
-122.6821813470975
 20
38.0793350469454
 30
0.0
 11
-122.6821277712142
 21
38.07938862593315
 31
0.0
  0
LINE
  5
3BDA
330
A
100
AcDbEntity
  8
001
  6
PHANTOM
370
     0
100
AcDbLine
 10
-122.6821277712142
 20
38.07938862593315
 30
0.0
 11
-122.682083800371
 21
38.0794325936719
 31
0.0
  0
LINE
  5
3BDB
330
A
100
AcDbEntity
  8
001
  6
PHANTOM
370
     0
100
AcDbLine
 10
-122.682083800371
 20
38.0794325936719
 30
0.0
 11
-122.6820511295753
 21
38.07946526446765
 31
0.0
  0
LINE
  5
3BDC
330
A
100
AcDbEntity
  8
001
  6
PHANTOM
370
     0
100
AcDbLine
 10
-122.6820511295753
 20
38.07946526446765
 30
0.0
 11
-122.6820310130075
 21
38.0794853841399
 31
0.0
  0
LINE
  5
3BDD
330
A
100
AcDbEntity
  8
001
  6
PHANTOM
370
     0
100
AcDbLine
 10
-122.6820310130075
 20
38.0794853841399
 30
0.0
 11
-122.6820242205615
 21
38.07949217658565
 31
0.0
  0
LINE
  5
3BDE
330
A
100
AcDbEntity
  8
001
  6
PHANTOM
370
     0
100
AcDbLine
 10
-122.6651715070613
 20
38.0619323626294
 30
0.0
 11
-122.6651025333113
 21
38.06200133637915
 31
0.0
  0
LINE
  5
3BDF
330
A
100
AcDbEntity
  8
001
  6
PHANTOM
370
     0
100
AcDbLine
 10
-122.6651025333113
 20
38.06200133637915
 30
0.0
 11
-122.665036207622
 21
38.06206765896415
 31
0.0
  0
LINE
  5
3BE0
330
A
100
AcDbEntity
  8
001
  6
PHANTOM
370
     0
100
AcDbLine
 10
-122.665036207622
 20
38.06206765896415
 30
0.0
 11
-122.6649750849212
 21
38.06212878476915
 31
0.0
  0
LINE
  5
3BE1
330
A
100
AcDbEntity
  8
001
  6
PHANTOM
370
     0
100
AcDbLine
 10
-122.6649750849212
 20
38.06212878476915
 30
0.0
 11
-122.6649215059335
 21
38.0621823606524
 31
0.0
  0
LINE
  5
3BE2
330
A
100
AcDbEntity
  8
001
  6
PHANTOM
370
     0
100
AcDbLine
 10
-122.6649215059335
 20
38.0621823606524
 30
0.0
 11
-122.6648775381947
 21
38.06222633149565
 31
0.0
  0
LINE
  5
3BE3
330
A
100
AcDbEntity
  8
001
  6
PHANTOM
370
     0
100
AcDbLine
 10
-122.6648775381947
 20
38.06222633149565
 30
0.0
 11
-122.664844867399
 21
38.06225900229165
 31
0.0
  0
LINE
  5
3BE4
330
A
100
AcDbEntity
  8
001
  6
PHANTOM
370
     0
100
AcDbLine
 10
-122.664844867399
 20
38.06225900229165
 30
0.0
 11
-122.664824747727
 21
38.06227911885915
 31
0.0
  0
LINE
  5
3BE5
330
A
100
AcDbEntity
  8
001
  6
PHANTOM
370
     0
100
AcDbLine
 10
-122.664824747727
 20
38.06227911885915
 30
0.0
 11
-122.664817955281
 21
38.06228591130515
 31
0.0
  0
LINE
  5
3BE6
330
A
100
AcDbEntity
  8
001
  6
PHANTOM
370
     0
100
AcDbLine
 10
-122.6867382649935
 20
38.0747781321539
 30
0.0
 11
-122.6867314725475
 21
38.0747849277044
 31
0.0
  0
LINE
  5
3BE7
330
A
100
AcDbEntity
  8
001
  6
PHANTOM
370
     0
100
AcDbLine
 10
-122.6867314725475
 20
38.0747849277044
 30
0.0
 11
-122.686711349771
 21
38.0748050442719
 31
0.0
  0
LINE
  5
3BE8
330
A
100
AcDbEntity
  8
001
  6
PHANTOM
370
     0
100
AcDbLine
 10
-122.686711349771
 20
38.0748050442719
 30
0.0
 11
-122.686678678975
 21
38.07483771817215
 31
0.0
  0
LINE
  5
3BE9
330
A
100
AcDbEntity
  8
001
  6
PHANTOM
370
     0
100
AcDbLine
 10
-122.686678678975
 20
38.07483771817215
 30
0.0
 11
-122.686634708132
 21
38.0748816859109
 31
0.0
  0
LINE
  5
3BEA
330
A
100
AcDbEntity
  8
001
  6
PHANTOM
370
     0
100
AcDbLine
 10
-122.686634708132
 20
38.0748816859109
 30
0.0
 11
-122.6865811322488
 21
38.0749352617944
 31
0.0
  0
LINE
  5
3BEB
330
A
100
AcDbEntity
  8
001
  6
PHANTOM
370
     0
100
AcDbLine
 10
-122.6865811322488
 20
38.0749352617944
 30
0.0
 11
-122.6865200126525
 21
38.0749963875994
 31
0.0
  0
LINE
  5
3BEC
330
A
100
AcDbEntity
  8
001
  6
PHANTOM
370
     0
100
AcDbLine
 10
-122.6865200126525
 20
38.0749963875994
 30
0.0
 11
-122.6864536838587
 21
38.07506271018414
 31
0.0
  0
LINE
  5
3BED
330
A
100
AcDbEntity
  8
001
  6
PHANTOM
370
     0
100
AcDbLine
 10
-122.6864536838587
 20
38.07506271018414
 30
0.0
 11
-122.6863847101087
 21
38.0751316870384
 31
0.0
  0
LINE
  5
3BEE
330
A
100
AcDbEntity
  8
001
  6
PHANTOM
370
     0
100
AcDbLine
 10
-122.6734210848168
 20
38.05368278176915
 30
0.0
 11
-122.673352111067
 21
38.05375175551915
 31
0.0
  0
LINE
  5
3BEF
330
A
100
AcDbEntity
  8
001
  6
PHANTOM
370
     0
100
AcDbLine
 10
-122.673352111067
 20
38.05375175551915
 30
0.0
 11
-122.673285788482
 21
38.05381807810415
 31
0.0
  0
LINE
  5
3BF0
330
A
100
AcDbEntity
  8
001
  6
PHANTOM
370
     0
100
AcDbLine
 10
-122.673285788482
 20
38.05381807810415
 30
0.0
 11
-122.673224662677
 21
38.0538792039089
 31
0.0
  0
LINE
  5
3BF1
330
A
100
AcDbEntity
  8
001
  6
PHANTOM
370
     0
100
AcDbLine
 10
-122.673224662677
 20
38.0538792039089
 30
0.0
 11
-122.6731710867938
 21
38.0539327797924
 31
0.0
  0
LINE
  5
3BF2
330
A
100
AcDbEntity
  8
001
  6
PHANTOM
370
     0
100
AcDbLine
 10
-122.6731710867938
 20
38.0539327797924
 30
0.0
 11
-122.6731271159505
 21
38.0539767506354
 31
0.0
  0
LINE
  5
3BF3
330
A
100
AcDbEntity
  8
001
  6
PHANTOM
370
     0
100
AcDbLine
 10
-122.6731271159505
 20
38.0539767506354
 30
0.0
 11
-122.6730944451547
 21
38.0540094214314
 31
0.0
  0
LINE
  5
3BF4
330
A
100
AcDbEntity
  8
001
  6
PHANTOM
370
     0
100
AcDbLine
 10
-122.6730944451547
 20
38.0540094214314
 30
0.0
 11
-122.6730743254828
 21
38.0540295379989
 31
0.0
  0
LINE
  5
3BF5
330
A
100
AcDbEntity
  8
001
  6
PHANTOM
370
     0
100
AcDbLine
 10
-122.6730743254828
 20
38.0540295379989
 30
0.0
 11
-122.6730675330367
 21
38.0540363366539
 31
0.0
  0
LINE
  5
3BF6
330
A
100
AcDbEntity
  8
001
  6
PHANTOM
370
     0
100
AcDbLine
 10
-122.6906273500975
 20
38.0708890470499
 30
0.0
 11
-122.6905583763477
 21
38.07095802079965
 31
0.0
  0
LINE
  5
3BF7
330
A
100
AcDbEntity
  8
001
  6
PHANTOM
370
     0
100
AcDbLine
 10
-122.6905583763477
 20
38.07095802079965
 30
0.0
 11
-122.6904920537627
 21
38.07102434338465
 31
0.0
  0
LINE
  5
3BF8
330
A
100
AcDbEntity
  8
001
  6
PHANTOM
370
     0
100
AcDbLine
 10
-122.6904920537627
 20
38.07102434338465
 30
0.0
 11
-122.6904309279578
 21
38.07108546918965
 31
0.0
  0
LINE
  5
3BF9
330
A
100
AcDbEntity
  8
001
  6
PHANTOM
370
     0
100
AcDbLine
 10
-122.6904309279578
 20
38.07108546918965
 30
0.0
 11
-122.6903773520745
 21
38.0711390450729
 31
0.0
  0
LINE
  5
3BFA
330
A
100
AcDbEntity
  8
001
  6
PHANTOM
370
     0
100
AcDbLine
 10
-122.6903773520745
 20
38.0711390450729
 30
0.0
 11
-122.6903333812312
 21
38.07118301591615
 31
0.0
  0
LINE
  5
3BFB
330
A
100
AcDbEntity
  8
001
  6
PHANTOM
370
     0
100
AcDbLine
 10
-122.6903333812312
 20
38.07118301591615
 30
0.0
 11
-122.6903007104352
 21
38.07121568671215
 31
0.0
  0
LINE
  5
3BFC
330
A
100
AcDbEntity
  8
001
  6
PHANTOM
370
     0
100
AcDbLine
 10
-122.6903007104352
 20
38.07121568671215
 30
0.0
 11
-122.6902805938677
 21
38.07123580638415
 31
0.0
  0
LINE
  5
3BFD
330
A
100
AcDbEntity
  8
001
  6
PHANTOM
370
     0
100
AcDbLine
 10
-122.6902805938677
 20
38.07123580638415
 30
0.0
 11
-122.690273795213
 21
38.07124259883015
 31
0.0
  0
LINE
  5
3BFE
330
A
100
AcDbEntity
  8
001
  6
PHANTOM
370
     0
100
AcDbLine
 10
-122.6781351323533
 20
38.08338126479414
 30
0.0
 11
-122.678204106103
 21
38.0833122910444
 31
0.0
  0
LINE
  5
3BFF
330
A
100
AcDbEntity
  8
001
  6
PHANTOM
370
     0
100
AcDbLine
 10
-122.678204106103
 20
38.0833122910444
 30
0.0
 11
-122.6782704317922
 21
38.0832459653549
 31
0.0
  0
LINE
  5
3C00
330
A
100
AcDbEntity
  8
001
  6
PHANTOM
370
     0
100
AcDbLine
 10
-122.6782704317922
 20
38.0832459653549
 30
0.0
 11
-122.678331554493
 21
38.0831848426544
 31
0.0
  0
LINE
  5
3C01
330
A
100
AcDbEntity
  8
001
  6
PHANTOM
370
     0
100
AcDbLine
 10
-122.678331554493
 20
38.0831848426544
 30
0.0
 11
-122.6783851334807
 21
38.08313126677115
 31
0.0
  0
LINE
  5
3C02
330
A
100
AcDbEntity
  8
001
  6
PHANTOM
370
     0
100
AcDbLine
 10
-122.6783851334807
 20
38.08313126677115
 30
0.0
 11
-122.678429098115
 21
38.0830872959279
 31
0.0
  0
LINE
  5
3C03
330
A
100
AcDbEntity
  8
001
  6
PHANTOM
370
     0
100
AcDbLine
 10
-122.678429098115
 20
38.0830872959279
 30
0.0
 11
-122.6784617751198
 21
38.08305462513215
 31
0.0
  0
LINE
  5
3C04
330
A
100
AcDbEntity
  8
001
  6
PHANTOM
370
     0
100
AcDbLine
 10
-122.6784617751198
 20
38.08305462513215
 30
0.0
 11
-122.6784818916873
 21
38.08303450546015
 31
0.0
  0
LINE
  5
3C05
330
A
100
AcDbEntity
  8
001
  6
PHANTOM
370
     0
100
AcDbLine
 10
-122.6784818916873
 20
38.08303450546015
 30
0.0
 11
-122.6784886841332
 21
38.08302771301415
 31
0.0
  0
LINE
  5
3C06
330
A
100
AcDbEntity
  8
001
  6
PHANTOM
370
     0
100
AcDbLine
 10
-122.6609288670725
 20
38.06617499951364
 30
0.0
 11
-122.6609978408223
 21
38.06610602576365
 31
0.0
  0
LINE
  5
3C07
330
A
100
AcDbEntity
  8
001
  6
PHANTOM
370
     0
100
AcDbLine
 10
-122.6609978408223
 20
38.06610602576365
 30
0.0
 11
-122.6610641665117
 21
38.0660397000744
 31
0.0
  0
LINE
  5
3C08
330
A
100
AcDbEntity
  8
001
  6
PHANTOM
370
     0
100
AcDbLine
 10
-122.6610641665117
 20
38.0660397000744
 30
0.0
 11
-122.6611252892122
 21
38.0659785773739
 31
0.0
  0
LINE
  5
3C09
330
A
100
AcDbEntity
  8
001
  6
PHANTOM
370
     0
100
AcDbLine
 10
-122.6611252892122
 20
38.0659785773739
 30
0.0
 11
-122.6611788650955
 21
38.06592499838615
 31
0.0
  0
LINE
  5
3C0A
330
A
100
AcDbEntity
  8
001
  6
PHANTOM
370
     0
100
AcDbLine
 10
-122.6611788650955
 20
38.06592499838615
 30
0.0
 11
-122.6612228359388
 21
38.06588103375165
 31
0.0
  0
LINE
  5
3C0B
330
A
100
AcDbEntity
  8
001
  6
PHANTOM
370
     0
100
AcDbLine
 10
-122.6612228359388
 20
38.06588103375165
 30
0.0
 11
-122.6612555067348
 21
38.0658483567469
 31
0.0
  0
LINE
  5
3C0C
330
A
100
AcDbEntity
  8
001
  6
PHANTOM
370
     0
100
AcDbLine
 10
-122.6612555067348
 20
38.0658483567469
 30
0.0
 11
-122.6612756264068
 21
38.0658282401794
 31
0.0
  0
LINE
  5
3C0D
330
A
100
AcDbEntity
  8
001
  6
PHANTOM
370
     0
100
AcDbLine
 10
-122.6612756264068
 20
38.0658282401794
 30
0.0
 11
-122.6612824188527
 21
38.0658214477334
 31
0.0
  0
LINE
  5
3C0E
330
A
100
AcDbEntity
  8
001
  6
PHANTOM
370
     0
100
AcDbLine
 10
-122.6734210848168
 20
38.06216806174665
 30
0.0
 11
-122.6731645178652
 21
38.0619114947949
 31
0.0
  0
LINE
  5
3C0F
330
A
100
AcDbEntity
  8
001
  6
PHANTOM
370
     0
100
AcDbLine
 10
-122.6731645178652
 20
38.0619114947949
 30
0.0
 11
-122.6729109963383
 21
38.06165797016365
 31
0.0
  0
LINE
  5
3C10
330
A
100
AcDbEntity
  8
001
  6
PHANTOM
370
     0
100
AcDbLine
 10
-122.6729109963383
 20
38.06165797016365
 30
0.0
 11
-122.6726635377215
 21
38.06141051154665
 31
0.0
  0
LINE
  5
3C11
330
A
100
AcDbEntity
  8
001
  6
PHANTOM
370
     0
100
AcDbLine
 10
-122.6726635377215
 20
38.06141051154665
 30
0.0
 11
-122.6724250818895
 21
38.06117205571465
 31
0.0
  0
LINE
  5
3C12
330
A
100
AcDbEntity
  8
001
  6
PHANTOM
370
     0
100
AcDbLine
 10
-122.6724250818895
 20
38.06117205571465
 30
0.0
 11
-122.6721984631673
 21
38.06094544009715
 31
0.0
  0
LINE
  5
3C13
330
A
100
AcDbEntity
  8
001
  6
PHANTOM
370
     0
100
AcDbLine
 10
-122.6721984631673
 20
38.06094544009715
 30
0.0
 11
-122.6719863761818
 21
38.0607333531114
 31
0.0
  0
LINE
  5
3C14
330
A
100
AcDbEntity
  8
001
  6
PHANTOM
370
     0
100
AcDbLine
 10
-122.6719863761818
 20
38.0607333531114
 30
0.0
 11
-122.6717913386083
 21
38.0605383155379
 31
0.0
  0
LINE
  5
3C15
330
A
100
AcDbEntity
  8
001
  6
PHANTOM
370
     0
100
AcDbLine
 10
-122.6717913386083
 20
38.0605383155379
 30
0.0
 11
-122.6716156663355
 21
38.06036264326515
 31
0.0
  0
LINE
  5
3C16
330
A
100
AcDbEntity
  8
001
  6
PHANTOM
370
     0
100
AcDbLine
 10
-122.6734210848168
 20
38.06216806174665
 30
0.0
 11
-122.6734900616712
 21
38.06209908799665
 31
0.0
  0
LINE
  5
3C17
330
A
100
AcDbEntity
  8
001
  6
PHANTOM
370
     0
100
AcDbLine
 10
-122.6734900616712
 20
38.06209908799665
 30
0.0
 11
-122.673556384256
 21
38.06203276541165
 31
0.0
  0
LINE
  5
3C18
330
A
100
AcDbEntity
  8
001
  6
PHANTOM
370
     0
100
AcDbLine
 10
-122.673556384256
 20
38.06203276541165
 30
0.0
 11
-122.673617510061
 21
38.06197163960665
 31
0.0
  0
LINE
  5
3C19
330
A
100
AcDbEntity
  8
001
  6
PHANTOM
370
     0
100
AcDbLine
 10
-122.673617510061
 20
38.06197163960665
 30
0.0
 11
-122.6736710859445
 21
38.0619180637234
 31
0.0
  0
LINE
  5
3C1A
330
A
100
AcDbEntity
  8
001
  6
PHANTOM
370
     0
100
AcDbLine
 10
-122.6736710859445
 20
38.0619180637234
 30
0.0
 11
-122.6737150567875
 21
38.06187409288015
 31
0.0
  0
LINE
  5
3C1B
330
A
100
AcDbEntity
  8
001
  6
PHANTOM
370
     0
100
AcDbLine
 10
-122.6737150567875
 20
38.06187409288015
 30
0.0
 11
-122.6737477275835
 21
38.0618414220844
 31
0.0
  0
LINE
  5
3C1C
330
A
100
AcDbEntity
  8
001
  6
PHANTOM
370
     0
100
AcDbLine
 10
-122.6737477275835
 20
38.0618414220844
 30
0.0
 11
-122.6737678472555
 21
38.0618212993079
 31
0.0
  0
LINE
  5
3C1D
330
A
100
AcDbEntity
  8
001
  6
PHANTOM
370
     0
100
AcDbLine
 10
-122.6737678472555
 20
38.0618212993079
 30
0.0
 11
-122.6737746397015
 21
38.0618145068619
 31
0.0
  0
LINE
  5
3C1E
330
A
100
AcDbEntity
  8
001
  6
PHANTOM
370
     0
100
AcDbLine
 10
-122.6781351323533
 20
38.0748959848169
 30
0.0
 11
-122.6783917024093
 21
38.0751525548729
 31
0.0
  0
LINE
  5
3C1F
330
A
100
AcDbEntity
  8
001
  6
PHANTOM
370
     0
100
AcDbLine
 10
-122.6783917024093
 20
38.0751525548729
 30
0.0
 11
-122.6786452208318
 21
38.0754060732954
 31
0.0
  0
LINE
  5
3C20
330
A
100
AcDbEntity
  8
001
  6
PHANTOM
370
     0
100
AcDbLine
 10
-122.6786452208318
 20
38.0754060732954
 30
0.0
 11
-122.6788926794485
 21
38.0756535319124
 31
0.0
  0
LINE
  5
3C21
330
A
100
AcDbEntity
  8
001
  6
PHANTOM
370
     0
100
AcDbLine
 10
-122.6788926794485
 20
38.0756535319124
 30
0.0
 11
-122.6791311352805
 21
38.0758919877444
 31
0.0
  0
LINE
  5
3C22
330
A
100
AcDbEntity
  8
001
  6
PHANTOM
370
     0
100
AcDbLine
 10
-122.6791311352805
 20
38.0758919877444
 30
0.0
 11
-122.679357757107
 21
38.0761186064664
 31
0.0
  0
LINE
  5
3C23
330
A
100
AcDbEntity
  8
001
  6
PHANTOM
370
     0
100
AcDbLine
 10
-122.679357757107
 20
38.0761186064664
 30
0.0
 11
-122.6795698440925
 21
38.0763306965564
 31
0.0
  0
LINE
  5
3C24
330
A
100
AcDbEntity
  8
001
  6
PHANTOM
370
     0
100
AcDbLine
 10
-122.6795698440925
 20
38.0763306965564
 30
0.0
 11
-122.679764881666
 21
38.0765257341299
 31
0.0
  0
LINE
  5
3C25
330
A
100
AcDbEntity
  8
001
  6
PHANTOM
370
     0
100
AcDbLine
 10
-122.679764881666
 20
38.0765257341299
 30
0.0
 11
-122.6799405477303
 21
38.0767014032984
 31
0.0
  0
LINE
  5
3C26
330
A
100
AcDbEntity
  8
001
  6
PHANTOM
370
     0
100
AcDbLine
 10
-122.6781351323533
 20
38.0748959848169
 30
0.0
 11
-122.6780661554988
 21
38.0749649585669
 31
0.0
  0
LINE
  5
3C27
330
A
100
AcDbEntity
  8
001
  6
PHANTOM
370
     0
100
AcDbLine
 10
-122.6780661554988
 20
38.0749649585669
 30
0.0
 11
-122.677999832914
 21
38.07503128425615
 31
0.0
  0
LINE
  5
3C28
330
A
100
AcDbEntity
  8
001
  6
PHANTOM
370
     0
100
AcDbLine
 10
-122.677999832914
 20
38.07503128425615
 30
0.0
 11
-122.677938707109
 21
38.07509240695665
 31
0.0
  0
LINE
  5
3C29
330
A
100
AcDbEntity
  8
001
  6
PHANTOM
370
     0
100
AcDbLine
 10
-122.677938707109
 20
38.07509240695665
 30
0.0
 11
-122.6778851312255
 21
38.07514598284015
 31
0.0
  0
LINE
  5
3C2A
330
A
100
AcDbEntity
  8
001
  6
PHANTOM
370
     0
100
AcDbLine
 10
-122.6778851312255
 20
38.07514598284015
 30
0.0
 11
-122.6778411634868
 21
38.07518995368315
 31
0.0
  0
LINE
  5
3C2B
330
A
100
AcDbEntity
  8
001
  6
PHANTOM
370
     0
100
AcDbLine
 10
-122.6778411634868
 20
38.07518995368315
 30
0.0
 11
-122.6778084895865
 21
38.07522262447915
 31
0.0
  0
LINE
  5
3C2C
330
A
100
AcDbEntity
  8
001
  6
PHANTOM
370
     0
100
AcDbLine
 10
-122.6778084895865
 20
38.07522262447915
 30
0.0
 11
-122.677788373019
 21
38.07524274415115
 31
0.0
  0
LINE
  5
3C2D
330
A
100
AcDbEntity
  8
001
  6
PHANTOM
370
     0
100
AcDbLine
 10
-122.677788373019
 20
38.07524274415115
 30
0.0
 11
-122.6777815774685
 21
38.07524953659715
 31
0.0
  0
LINE
  5
3C2E
330
A
100
AcDbEntity
  8
001
  6
PHANTOM
370
     0
100
AcDbLine
 10
-122.6824956250048
 20
38.07053549216515
 30
0.0
 11
-122.6824888325588
 21
38.07054228461115
 31
0.0
  0
LINE
  5
3C2F
330
A
100
AcDbEntity
  8
001
  6
PHANTOM
370
     0
100
AcDbLine
 10
-122.6824888325588
 20
38.07054228461115
 30
0.0
 11
-122.6824687097825
 21
38.07056240428315
 31
0.0
  0
LINE
  5
3C30
330
A
100
AcDbEntity
  8
001
  6
PHANTOM
370
     0
100
AcDbLine
 10
-122.6824687097825
 20
38.07056240428315
 30
0.0
 11
-122.6824360389865
 21
38.07059507507915
 31
0.0
  0
LINE
  5
3C31
330
A
100
AcDbEntity
  8
001
  6
PHANTOM
370
     0
100
AcDbLine
 10
-122.6824360389865
 20
38.07059507507915
 30
0.0
 11
-122.6823920681433
 21
38.0706390459224
 31
0.0
  0
LINE
  5
3C32
330
A
100
AcDbEntity
  8
001
  6
PHANTOM
370
     0
100
AcDbLine
 10
-122.6823920681433
 20
38.0706390459224
 30
0.0
 11
-122.68233849226
 21
38.07069262180565
 31
0.0
  0
LINE
  5
3C33
330
A
100
AcDbEntity
  8
001
  6
PHANTOM
370
     0
100
AcDbLine
 10
-122.68233849226
 20
38.07069262180565
 30
0.0
 11
-122.682277366455
 21
38.07075374761065
 31
0.0
  0
LINE
  5
3C34
330
A
100
AcDbEntity
  8
001
  6
PHANTOM
370
     0
100
AcDbLine
 10
-122.682277366455
 20
38.07075374761065
 30
0.0
 11
-122.68221104387
 21
38.07082007019565
 31
0.0
  0
LINE
  5
3C35
330
A
100
AcDbEntity
  8
001
  6
PHANTOM
370
     0
100
AcDbLine
 10
-122.68221104387
 20
38.07082007019565
 30
0.0
 11
-122.6821420701202
 21
38.0708890470499
 31
0.0
  0
LINE
  5
3C36
330
A
100
AcDbEntity
  8
001
  6
PHANTOM
370
     0
100
AcDbLine
 10
-122.6839474886015
 20
38.0726944655314
 30
0.0
 11
-122.6837718163288
 21
38.0725187932584
 31
0.0
  0
LINE
  5
3C37
330
A
100
AcDbEntity
  8
001
  6
PHANTOM
370
     0
100
AcDbLine
 10
-122.6837718163288
 20
38.0725187932584
 30
0.0
 11
-122.6835767787552
 21
38.0723237556849
 31
0.0
  0
LINE
  5
3C38
330
A
100
AcDbEntity
  8
001
  6
PHANTOM
370
     0
100
AcDbLine
 10
-122.6835767787552
 20
38.0723237556849
 30
0.0
 11
-122.6833646917697
 21
38.0721116686994
 31
0.0
  0
LINE
  5
3C39
330
A
100
AcDbEntity
  8
001
  6
PHANTOM
370
     0
100
AcDbLine
 10
-122.6833646917697
 20
38.0721116686994
 30
0.0
 11
-122.683138076152
 21
38.0718850499774
 31
0.0
  0
LINE
  5
3C3A
330
A
100
AcDbEntity
  8
001
  6
PHANTOM
370
     0
100
AcDbLine
 10
-122.683138076152
 20
38.0718850499774
 30
0.0
 11
-122.68289962032
 21
38.0716465941454
 31
0.0
  0
LINE
  5
3C3B
330
A
100
AcDbEntity
  8
001
  6
PHANTOM
370
     0
100
AcDbLine
 10
-122.68289962032
 20
38.0716465941454
 30
0.0
 11
-122.6826521617033
 21
38.0713991355284
 31
0.0
  0
LINE
  5
3C3C
330
A
100
AcDbEntity
  8
001
  6
PHANTOM
370
     0
100
AcDbLine
 10
-122.6826521617033
 20
38.0713991355284
 30
0.0
 11
-122.6823986370717
 21
38.07114561400165
 31
0.0
  0
LINE
  5
3C3D
330
A
100
AcDbEntity
  8
001
  6
PHANTOM
370
     0
100
AcDbLine
 10
-122.6823986370717
 20
38.07114561400165
 30
0.0
 11
-122.6821420701202
 21
38.0708890470499
 31
0.0
  0
LINE
  5
3C3E
330
A
100
AcDbEntity
  8
001
  6
PHANTOM
370
     0
100
AcDbLine
 10
-122.6690605952695
 20
38.06652855439815
 30
0.0
 11
-122.6690673877155
 21
38.0665217588479
 31
0.0
  0
LINE
  5
3C3F
330
A
100
AcDbEntity
  8
001
  6
PHANTOM
370
     0
100
AcDbLine
 10
-122.6690673877155
 20
38.0665217588479
 30
0.0
 11
-122.6690875073875
 21
38.06650164228015
 31
0.0
  0
LINE
  5
3C40
330
A
100
AcDbEntity
  8
001
  6
PHANTOM
370
     0
100
AcDbLine
 10
-122.6690875073875
 20
38.06650164228015
 30
0.0
 11
-122.6691201781835
 21
38.0664689683799
 31
0.0
  0
LINE
  5
3C41
330
A
100
AcDbEntity
  8
001
  6
PHANTOM
370
     0
100
AcDbLine
 10
-122.6691201781835
 20
38.0664689683799
 30
0.0
 11
-122.6691641490267
 21
38.06642500064115
 31
0.0
  0
LINE
  5
3C42
330
A
100
AcDbEntity
  8
001
  6
PHANTOM
370
     0
100
AcDbLine
 10
-122.6691641490267
 20
38.06642500064115
 30
0.0
 11
-122.66921772491
 21
38.0663714247579
 31
0.0
  0
LINE
  5
3C43
330
A
100
AcDbEntity
  8
001
  6
PHANTOM
370
     0
100
AcDbLine
 10
-122.66921772491
 20
38.0663714247579
 30
0.0
 11
-122.6692788476105
 21
38.0663102989529
 31
0.0
  0
LINE
  5
3C44
330
A
100
AcDbEntity
  8
001
  6
PHANTOM
370
     0
100
AcDbLine
 10
-122.6692788476105
 20
38.0663102989529
 30
0.0
 11
-122.6693451733
 21
38.0662439763679
 31
0.0
  0
LINE
  5
3C45
330
A
100
AcDbEntity
  8
001
  6
PHANTOM
370
     0
100
AcDbLine
 10
-122.6693451733
 20
38.0662439763679
 30
0.0
 11
-122.6694141470497
 21
38.06617499951364
 31
0.0
  0
LINE
  5
3C46
330
A
100
AcDbEntity
  8
001
  6
PHANTOM
370
     0
100
AcDbLine
 10
-122.6676087285683
 20
38.06436958413664
 30
0.0
 11
-122.6677843977368
 21
38.06454525020065
 31
0.0
  0
LINE
  5
3C47
330
A
100
AcDbEntity
  8
001
  6
PHANTOM
370
     0
100
AcDbLine
 10
-122.6677843977368
 20
38.06454525020065
 30
0.0
 11
-122.6679794353105
 21
38.06474028777415
 31
0.0
  0
LINE
  5
3C48
330
A
100
AcDbEntity
  8
001
  6
PHANTOM
370
     0
100
AcDbLine
 10
-122.6679794353105
 20
38.06474028777415
 30
0.0
 11
-122.6681915254003
 21
38.06495237475965
 31
0.0
  0
LINE
  5
3C49
330
A
100
AcDbEntity
  8
001
  6
PHANTOM
370
     0
100
AcDbLine
 10
-122.6681915254003
 20
38.06495237475965
 30
0.0
 11
-122.6684181441225
 21
38.06517899658615
 31
0.0
  0
LINE
  5
3C4A
330
A
100
AcDbEntity
  8
001
  6
PHANTOM
370
     0
100
AcDbLine
 10
-122.6684181441225
 20
38.06517899658615
 30
0.0
 11
-122.6686565999545
 21
38.06541745241815
 31
0.0
  0
LINE
  5
3C4B
330
A
100
AcDbEntity
  8
001
  6
PHANTOM
370
     0
100
AcDbLine
 10
-122.6686565999545
 20
38.06541745241815
 30
0.0
 11
-122.6689040585712
 21
38.06566491103515
 31
0.0
  0
LINE
  5
3C4C
330
A
100
AcDbEntity
  8
001
  6
PHANTOM
370
     0
100
AcDbLine
 10
-122.6689040585712
 20
38.06566491103515
 30
0.0
 11
-122.6691575769937
 21
38.0659184294574
 31
0.0
  0
LINE
  5
3C4D
330
A
100
AcDbEntity
  8
001
  6
PHANTOM
370
     0
100
AcDbLine
 10
-122.6691575769937
 20
38.0659184294574
 30
0.0
 11
-122.6694141470497
 21
38.06617499951364
 31
0.0
  0
LINE
  5
3C51
330
A
100
AcDbEntity
  8
001
  6
Continuous
370
     0
100
AcDbLine
 10
-122.1519716985745
 20
38.10552949757715
 30
0.0
 11
-122.1247467239692
 21
38.10552949757715
 31
0.0
  0
LINE
  5
3C52
330
A
100
AcDbEntity
  8
001
  6
Continuous
370
     0
100
AcDbLine
 10
-122.1519716985745
 20
38.13052949757715
 30
0.0
 11
-122.1247467239692
 21
38.13052949757715
 31
0.0
  0
LINE
  5
3C54
330
A
100
AcDbEntity
  8
001
  6
Continuous
370
     0
100
AcDbLine
 10
-122.1247467239692
 20
38.13052949757715
 30
0.0
 11
-122.1247467239692
 21
38.170583315328
 31
0.0
  0
LINE
  5
3C58
330
A
100
AcDbEntity
  8
001
  6
Continuous
370
     0
100
AcDbLine
 10
-122.3091279485745
 20
38.09081763795214
 30
0.0
 11
-122.3091279485745
 21
37.9704665572994
 31
0.0
  0
LINE
  5
3C59
330
A
100
AcDbEntity
  8
001
  6
Continuous
370
     0
100
AcDbLine
 10
-121.9762946152412
 20
38.01787324757714
 30
0.0
 11
-121.9762946152412
 21
37.9704665572994
 31
0.0
  0
LINE
  5
3C5E
330
A
100
AcDbEntity
  8
001
  6
Continuous
370
     0
100
AcDbLine
 10
-122.1996279485745
 20
38.11787324757715
 30
0.0
 11
-122.1996279485745
 21
38.0065969972279
 31
0.0
  0
LINE
  5
3C5F
330
A
100
AcDbEntity
  8
001
  6
Continuous
370
     0
100
AcDbLine
 10
-122.1396279485745
 20
38.11787324757715
 30
0.0
 11
-122.1396279485745
 21
38.0065969972279
 31
0.0
  0
LINE
  5
3C64
330
A
100
AcDbEntity
  8
001
  6
Continuous
370
     0
100
AcDbLine
 10
-122.1396279485745
 20
38.11787324757715
 30
0.0
 11
-122.1396279485745
 21
38.0065969972279
 31
0.0
  0
LINE
  5
3C65
330
A
100
AcDbEntity
  8
001
  6
Continuous
370
     0
100
AcDbLine
 10
-121.9762946152412
 20
38.01787324757714
 30
0.0
 11
-121.9762946152412
 21
38.0065969972279
 31
0.0
  0
LINE
  5
3C6A
330
A
100
AcDbEntity
  8
001
  6
Continuous
370
     0
100
AcDbLine
 10
-122.310617531908
 20
38.14302949757715
 30
0.0
 11
-122.336589509447
 21
38.14302949757715
 31
0.0
  0
LINE
  5
3C6B
330
A
100
AcDbEntity
  8
001
  6
Continuous
370
     0
100
AcDbLine
 10
-122.310617531908
 20
38.09302949757714
 30
0.0
 11
-122.336589509447
 21
38.09302949757714
 31
0.0
  0
LINE
  5
3C70
330
A
100
AcDbEntity
  8
001
  6
Continuous
370
    15
100
AcDbLine
 10
-121.9842946156212
 20
38.0748959848169
 30
0.0
 11
-121.9842850082527
 21
38.0749649585669
 31
0.0
  0
LINE
  5
3C71
330
A
100
AcDbEntity
  8
001
  6
Continuous
370
    15
100
AcDbLine
 10
-121.9842850082527
 20
38.0749649585669
 30
0.0
 11
-121.984256554796
 21
38.07503128425615
 31
0.0
  0
LINE
  5
3C72
330
A
100
AcDbEntity
  8
001
  6
Continuous
370
    15
100
AcDbLine
 10
-121.984256554796
 20
38.07503128425615
 30
0.0
 11
-121.984256533065
 21
38.07503132150915
 31
0.0
  0
LINE
  5
3C73
330
A
100
AcDbEntity
  8
001
  6
Continuous
370
    15
100
AcDbLine
 10
-122.2335448348247
 20
38.0942166208734
 30
0.0
 11
-122.232961280517
 21
38.0941961643729
 31
0.0
  0
LINE
  5
3C74
330
A
100
AcDbEntity
  8
001
  6
Continuous
370
    15
100
AcDbLine
 10
-122.232961280517
 20
38.0941961643729
 30
0.0
 11
-122.2324178351685
 21
38.09421390296365
 31
0.0
  0
TEXT
  5
3CC7
330
A
100
AcDbEntity
  8
001
  6
Continuous
100
AcDbText
 10
-122.7081858205626
 20
38.13350566952135
 30
0.0
 40
0.0232799810762421
  1
42
 50
45.00000000000008
 41
0.6
 72
     1
 11
-122.6999551043201
 21
38.14173638576381
 31
0.0
100
AcDbText
  0
LINE
  5
3CC8
330
A
100
AcDbEntity
  8
001
100
AcDbLine
 10
-122.6713449590234
 20
38.16309382231077
 30
0.0
 11
-122.6766853535677
 21
38.15546607184542
 31
0.0
  0
LINE
  5
3CC9
330
A
100
AcDbEntity
  8
001
100
AcDbLine
 10
-122.6713449590234
 20
38.16309382231077
 30
0.0
 11
-122.6789721393601
 21
38.15775285763782
 31
0.0
  0
LINE
  5
3CCA
330
A
100
AcDbEntity
  8
001
100
AcDbLine
 10
-122.7208424337064
 20
38.11359634762777
 30
0.0
 11
-122.6713449590234
 21
38.16309382231077
 31
0.0
  0
LINE
  5
3CCB
330
A
100
AcDbEntity
  8
001
100
AcDbLine
 10
-122.7208424337064
 20
38.11359634762777
 30
0.0
 11
-122.7155014690334
 21
38.12122352796454
 31
0.0
  0
LINE
  5
3CCC
330
A
100
AcDbEntity
  8
001
100
AcDbLine
 10
-122.7208424337064
 20
38.11359634762777
 30
0.0
 11
-122.7132146832411
 21
38.11893674217214
 31
0.0
  0
LINE
  5
3CCD
330
A
100
AcDbEntity
  8
001
  6
ByBlock
370
    -2
100
AcDbLine
 10
-122.6853456823703
 20
38.04824920004337
 30
0.0
 11
-122.6895032493739
 21
38.0548068824928
 31
0.0
  0
LINE
  5
3CCE
330
A
100
AcDbEntity
  8
001
  6
ByBlock
370
    -2
100
AcDbLine
 10
-122.6895032493739
 20
38.0548068824928
 30
0.0
 11
-122.6839876165005
 21
38.04972477721974
 31
0.0
  0
LINE
  5
3CCF
330
A
100
AcDbEntity
  8
001
  6
ByBlock
370
    -2
100
AcDbLine
 10
-122.6895032493739
 20
38.0548068824928
 30
0.0
 11
-122.682623850799
 21
38.05120654393313
 31
0.0
  0
ARC
  5
3CD0
330
A
100
AcDbEntity
  8
001
  6
Continuous
370
     0
100
AcDbCircle
 10
-122.62643618233
 20
38.11495608749846
 30
0.0
 40
0.0869909790145129
100
AcDbArc
 50
228.5790908334538
 51
268.5268285994814
  0
LINE
  5
3CD1
330
A
100
AcDbEntity
  8
001
  6
ByBlock
370
    -2
100
AcDbLine
 10
-122.6336617620188
 20
38.03027497133754
 30
0.0
 11
-122.6262806342895
 21
38.02786509251478
 31
0.0
  0
LINE
  5
3CD2
330
A
100
AcDbEntity
  8
001
  6
ByBlock
370
    -2
100
AcDbLine
 10
-122.6262806342895
 20
38.02786509251478
 30
0.0
 11
-122.6286726211018
 21
38.02799386137975
 31
0.0
  0
LINE
  5
3CD3
330
A
100
AcDbEntity
  8
001
  6
ByBlock
370
    -2
100
AcDbLine
 10
-122.6262806342895
 20
38.02786509251478
 30
0.0
 11
-122.6338778183988
 21
38.02626154765869
 31
0.0
  0
TEXT
  5
3CD4
330
A
100
AcDbEntity
  8
001
  6
Continuous
100
AcDbText
 10
-122.6991186453227
 20
38.03068982068026
 30
0.0
 40
0.0232799810762421
  1
45.00°
 50
315.0
 41
0.6
 72
     1
 11
-122.6781185607384
 21
38.00968973609594
 31
0.0
100
AcDbText
  0
LINE
  5
3CD5
330
A
100
AcDbEntity
  8
001
100
AcDbLine
 10
-122.695863967623
 20
37.96159508735705
 30
0.0
 11
-122.5566973009562
 21
37.96159508735705
 31
0.0
  0
LINE
  5
3CD6
330
A
100
AcDbEntity
  8
001
100
AcDbLine
 10
-122.695863967623
 20
37.96159508735705
 30
0.0
 11
-122.6860140574
 21
37.95985867640203
 31
0.0
  0
LINE
  5
3CD7
330
A
100
AcDbEntity
  8
001
100
AcDbLine
 10
-122.695863967623
 20
37.96159508735705
 30
0.0
 11
-122.6860140574
 21
37.96333149831208
 31
0.0
  0
LINE
  5
3CD8
330
A
100
AcDbEntity
  8
001
100
AcDbLine
 10
-122.5566973009562
 20
37.96159508735705
 30
0.0
 11
-122.5665472111792
 21
37.96333149831208
 31
0.0
  0
LINE
  5
3CD9
330
A
100
AcDbEntity
  8
001
100
AcDbLine
 10
-122.5566973009562
 20
37.96159508735705
 30
0.0
 11
-122.5665472111792
 21
37.95985867640202
 31
0.0
  0
TEXT
  5
3CDA
330
A
100
AcDbEntity
  8
001
  6
Continuous
100
AcDbText
 10
-122.6489877483801
 20
37.92302041723594
 30
0.0
 40
0.0250053502430098
  1
φ120
 41
0.6
 72
     1
 11
-122.6222320236201
 21
37.92302041723594
 31
0.0
100
AcDbText
  0
LINE
  5
3CDB
330
A
100
AcDbEntity
  8
001
100
AcDbLine
 10
-122.7262806342898
 20
37.91676933779783
 30
0.0
 11
-122.5262806342897
 21
37.91676933779783
 31
0.0
  0
LINE
  5
3CDC
330
A
100
AcDbEntity
  8
001
100
AcDbLine
 10
-122.5262806342897
 20
37.91676933779783
 30
0.0
 11
-122.5361305445127
 21
37.91503292684279
 31
0.0
  0
LINE
  5
3CDD
330
A
100
AcDbEntity
  8
001
100
AcDbLine
 10
-122.5262806342897
 20
37.91676933779783
 30
0.0
 11
-122.5361305445127
 21
37.91850574875286
 31
0.0
  0
LINE
  5
3CDE
330
A
100
AcDbEntity
  8
001
100
AcDbLine
 10
-122.7262806342898
 20
37.91676933779783
 30
0.0
 11
-122.7164307240668
 21
37.91850574875286
 31
0.0
  0
LINE
  5
3CDF
330
A
100
AcDbEntity
  8
001
100
AcDbLine
 10
-122.7262806342898
 20
37.91676933779783
 30
0.0
 11
-122.7164307240668
 21
37.9150329268428
 31
0.0
  0
TEXT
  5
3CE0
330
A
100
AcDbEntity
  8
001
  6
Continuous
100
AcDbText
 10
-122.6469856208261
 20
37.96784616679516
 30
0.0
 40
0.0250053502430098
  1
83.5
 41
0.6
 72
     1
 11
-122.6244808056074
 21
37.96784616679516
 31
0.0
100
AcDbText
  0
LINE
  5
3CE2
330
A
100
AcDbEntity
  8
001
  6
ByBlock
370
    -2
100
AcDbLine
 10
-122.5025614049211
 20
38.20782986809029
 30
0.0
 11
-122.4332150614905
 21
38.20782986809029
 31
0.0
  0
TEXT
  5
3CE3
330
A
100
AcDbEntity
  8
001
  6
Continuous
100
AcDbText
 10
-122.4986776551215
 20
38.2140809475284
 30
0.0
 40
0.0250053502430098
  1
4-φ7
 41
0.6
 72
     1
 11
-122.4696714488397
 21
38.2140809475284
 31
0.0
100
AcDbText
  0
LINE
  5
3CE4
330
A
100
AcDbEntity
  8
001
  6
ByBlock
370
    -2
100
AcDbLine
 10
-122.552237089809
 20
38.12178905796364
 30
0.0
 11
-122.5025614049211
 21
38.20782986809029
 31
0.0
  0
LINE
  5
3CE5
330
A
100
AcDbEntity
  8
001
100
AcDbLine
 10
-122.552237089809
 20
38.12178905796364
 30
0.0
 11
-122.548815910696
 21
38.13118753591924
 31
0.0
  0
LINE
  5
3CE6
330
A
100
AcDbEntity
  8
001
100
AcDbLine
 10
-122.552237089809
 20
38.12178905796364
 30
0.0
 11
-122.5458083586991
 21
38.12945112496421
 31
0.0
  0
LINE
  5
3CE7
330
A
100
AcDbEntity
  8
001
100
AcDbLine
 10
-122.3310052783581
 20
38.09302949757715
 30
0.0
 11
-122.329388679759
 21
38.10219936085293
 31
0.0
  0
LINE
  5
3CE8
330
A
100
AcDbEntity
  8
001
100
AcDbLine
 10
-122.3310052783581
 20
38.09302949757715
 30
0.0
 11
-122.3326226832408
 21
38.10219936085293
 31
0.0
  0
TEXT
  5
3CE9
330
A
100
AcDbEntity
  8
001
  6
Continuous
100
AcDbText
 10
-122.3378599955485
 20
38.09792066090807
 30
0.0
 40
0.0232799810762421
  1
φ30
 50
90.0
 41
0.6
 72
     1
 11
-122.3378599955485
 21
38.1181742444444
 31
0.0
100
AcDbText
  0
LINE
  5
3CEA
330
A
100
AcDbEntity
  8
001
100
AcDbLine
 10
-122.3310052783581
 20
38.14302949757714
 30
0.0
 11
-122.3326226832408
 21
38.13385963430135
 31
0.0
  0
LINE
  5
3CEB
330
A
100
AcDbEntity
  8
001
100
AcDbLine
 10
-122.3310052783581
 20
38.14302949757714
 30
0.0
 11
-122.329388679759
 21
38.13385963430135
 31
0.0
  0
LINE
  5
3CEC
330
A
100
AcDbEntity
  8
001
100
AcDbLine
 10
-122.3310052783581
 20
38.09302949757715
 30
0.0
 11
-122.3310052783581
 21
38.14302949757714
 31
0.0
  0
LINE
  5
3CED
330
A
100
AcDbEntity
  8
001
100
AcDbLine
 10
-122.3140446080489
 20
38.11276283077665
 30
0.0
 11
-122.3149167082206
 21
38.10279913188037
 31
0.0
  0
LINE
  5
3CEE
330
A
100
AcDbEntity
  8
001
100
AcDbLine
 10
-122.3140446080489
 20
38.11276283077665
 30
0.0
 11
-122.3182711965936
 21
38.10369796433095
 31
0.0
  0
LINE
  5
3CEF
330
A
100
AcDbEntity
  8
001
  6
ByBlock
370
    -2
100
AcDbLine
 10
-122.3140446080489
 20
38.11276283077665
 30
0.0
 11
-122.3386086411937
 21
38.02108861104112
 31
0.0
  0
LINE
  5
3CF0
330
A
100
AcDbEntity
  8
001
  6
ByBlock
370
    -2
100
AcDbLine
 10
-122.4812590974747
 20
38.02108861104112
 30
0.0
 11
-122.3386086411937
 21
38.02108861104112
 31
0.0
  0
TEXT
  5
3CF1
330
A
100
AcDbEntity
  8
001
  6
Continuous
100
AcDbText
 10
-122.4736413136547
 20
38.02733969047924
 30
0.0
 40
0.0250053502430098
  1
UNC1/4-20
 41
0.6
 72
     1
 11
-122.4123782055593
 21
38.02733969047924
 31
0.0
100
AcDbText
  0
LINE
  5
3CF3
330
A
100
AcDbEntity
  8
001
100
AcDbLine
 10
-122.5112224991318
 20
38.0624461642439
 30
0.0
 11
-122.5112224991318
 21
38.1736128309104
 31
0.0
  0
LINE
  5
3CF4
330
A
100
AcDbEntity
  8
001
100
AcDbLine
 10
-122.5112224991318
 20
38.1736128309104
 30
0.0
 11
-122.5128399040145
 21
38.16444296763461
 31
0.0
  0
LINE
  5
3CF5
330
A
100
AcDbEntity
  8
001
100
AcDbLine
 10
-122.5112224991318
 20
38.1736128309104
 30
0.0
 11
-122.5096059005326
 21
38.16444296763461
 31
0.0
  0
TEXT
  5
3CF6
330
A
100
AcDbEntity
  8
001
  6
Continuous
100
AcDbText
 10
-122.4804437504852
 20
38.10475974325748
 30
0.0
 40
0.0232799810762421
  1
66.7
 50
90.0
 41
0.6
 72
     1
 11
-122.4804437504852
 21
38.1257117262261
 31
0.0
100
AcDbText
  0
LINE
  5
3CF7
330
A
100
AcDbEntity
  8
001
100
AcDbLine
 10
-122.5112224991318
 20
38.0624461642439
 30
0.0
 11
-122.5096059005326
 21
38.07161602751968
 31
0.0
  0
LINE
  5
3CF8
330
A
100
AcDbEntity
  8
001
100
AcDbLine
 10
-122.5112224991318
 20
38.0624461642439
 30
0.0
 11
-122.5128399040145
 21
38.07161602751968
 31
0.0
  0
TEXT
  5
3CF9
330
A
100
AcDbEntity
  8
001
  6
Continuous
100
AcDbText
 10
-122.1830531836284
 20
38.01687397521463
 30
0.0
 40
0.0250053502430098
  1
36
 41
0.6
 72
     1
 11
-122.1705505085069
 21
38.01687397521463
 31
0.0
100
AcDbText
  0
LINE
  5
3CFA
330
A
100
AcDbEntity
  8
001
100
AcDbLine
 10
-122.1996279485745
 20
38.01062289577652
 30
0.0
 11
-122.1396279485745
 21
38.01062289577652
 31
0.0
  0
LINE
  5
3CFB
330
A
100
AcDbEntity
  8
001
100
AcDbLine
 10
-122.1396279485745
 20
38.01062289577652
 30
0.0
 11
-122.1297780383515
 21
38.00888648482149
 31
0.0
  0
LINE
  5
3CFC
330
A
100
AcDbEntity
  8
001
100
AcDbLine
 10
-122.1396279485745
 20
38.01062289577652
 30
0.0
 11
-122.1297780383515
 21
38.01235930673155
 31
0.0
  0
LINE
  5
3CFD
330
A
100
AcDbEntity
  8
001
100
AcDbLine
 10
-122.1396279485745
 20
38.01062289577652
 30
0.0
 11
-122.1494778587975
 21
38.00888648482148
 31
0.0
  0
LINE
  5
3CFE
330
A
100
AcDbEntity
  8
001
100
AcDbLine
 10
-122.1396279485745
 20
38.01062289577652
 30
0.0
 11
-122.1494778587975
 21
38.01235930673155
 31
0.0
  0
LINE
  5
3CFF
330
A
100
AcDbEntity
  8
001
100
AcDbLine
 10
-122.1996279485745
 20
38.01062289577652
 30
0.0
 11
-122.1897780383515
 21
38.01235930673155
 31
0.0
  0
LINE
  5
3D00
330
A
100
AcDbEntity
  8
001
100
AcDbLine
 10
-122.1996279485745
 20
38.01062289577652
 30
0.0
 11
-122.1897780383515
 21
38.00888648482149
 31
0.0
  0
LINE
  5
3D01
330
A
100
AcDbEntity
  8
001
100
AcDbLine
 10
-122.1396279485745
 20
38.01062289577652
 30
0.0
 11
-121.9762946152412
 21
38.01062289577652
 31
0.0
  0
TEXT
  5
3D02
330
A
100
AcDbEntity
  8
001
  6
Continuous
100
AcDbText
 10
-122.0761278554704
 20
38.01687397521463
 30
0.0
 40
0.0250053502430098
  1
98
 41
0.6
 72
     1
 11
-122.0636251803489
 21
38.01687397521463
 31
0.0
100
AcDbText
  0
LINE
  5
3D03
330
A
100
AcDbEntity
  8
001
100
AcDbLine
 10
-121.9762946152412
 20
38.01062289577652
 30
0.0
 11
-121.9861445254642
 21
38.01235930673155
 31
0.0
  0
LINE
  5
3D04
330
A
100
AcDbEntity
  8
001
100
AcDbLine
 10
-121.9762946152412
 20
38.01062289577652
 30
0.0
 11
-121.9861445254642
 21
38.00888648482148
 31
0.0
  0
LINE
  5
3D05
330
A
100
AcDbEntity
  8
001
100
AcDbLine
 10
-122.3091279485745
 20
37.97516772716832
 30
0.0
 11
-121.9762946152412
 21
37.97516772716832
 31
0.0
  0
TEXT
  5
3D06
330
A
100
AcDbEntity
  8
001
  6
Continuous
100
AcDbText
 10
-122.2557226516446
 20
37.98141880660643
 30
0.0
 40
0.0250053502430098
  1
200
 41
0.6
 72
     1
 11
-122.2382189064745
 21
37.98141880660643
 31
0.0
100
AcDbText
  0
LINE
  5
3D07
330
A
100
AcDbEntity
  8
001
100
AcDbLine
 10
-122.3091279485745
 20
37.97516772716832
 30
0.0
 11
-122.2992780383515
 21
37.97690413812336
 31
0.0
  0
LINE
  5
3D08
330
A
100
AcDbEntity
  8
001
100
AcDbLine
 10
-122.3091279485745
 20
37.97516772716832
 30
0.0
 11
-122.2992780383515
 21
37.9734313162133
 31
0.0
  0
LINE
  5
3D09
330
A
100
AcDbEntity
  8
001
100
AcDbLine
 10
-121.9762946152412
 20
37.97516772716832
 30
0.0
 11
-121.9861445254642
 21
37.97343131621329
 31
0.0
  0
LINE
  5
3D0A
330
A
100
AcDbEntity
  8
001
100
AcDbLine
 10
-121.9762946152412
 20
37.97516772716832
 30
0.0
 11
-121.9861445254642
 21
37.97690413812336
 31
0.0
  0
LINE
  5
3D12
330
A
100
AcDbEntity
  8
001
100
AcDbLine
 10
-122.1247467239692
 20
38.10552949813615
 30
0.0
 11
-122.1231301253701
 21
38.11469936141193
 31
0.0
  0
LINE
  5
3D13
330
A
100
AcDbEntity
  8
001
100
AcDbLine
 10
-122.1247467239692
 20
38.10552949813615
 30
0.0
 11
-122.1263641288519
 21
38.11469936141193
 31
0.0
  0
LINE
  5
3D14
330
A
100
AcDbEntity
  8
001
100
AcDbLine
 10
-122.1247467239692
 20
38.13052949757715
 30
0.0
 11
-122.1263641288519
 21
38.12135963430136
 31
0.0
  0
LINE
  5
3D15
330
A
100
AcDbEntity
  8
001
100
AcDbLine
 10
-122.1247467239692
 20
38.13052949757715
 30
0.0
 11
-122.1231301253701
 21
38.12135963430136
 31
0.0
  0
LINE
  5
3D16
330
A
100
AcDbEntity
  8
001
100
AcDbLine
 10
-122.1247467239692
 20
38.10552949813615
 30
0.0
 11
-122.1247467239692
 21
38.13052949757715
 31
0.0
  0
TEXT
  5
3D17
330
A
100
AcDbEntity
  8
001
  6
Continuous
100
AcDbText
 10
-122.1277681307727
 20
38.14518049218315
 30
0.0
 40
0.0232799810762421
  1
15
 50
90.0
 41
0.6
 72
     1
 11
-122.1277681307727
 21
38.15449248461364
 31
0.0
100
AcDbText
  0
LINE
  5
3D24
330
A
100
AcDbEntity
  8
002
100
AcDbLine
 10
-122.7515919291612
 20
38.47579633982718
 30
0.0
 11
-122.7515919291612
 21
38.43579633982718
 31
0.0
  0
LINE
  5
3D25
330
A
100
AcDbEntity
  8
002
100
AcDbLine
 10
-122.7715919291612
 20
38.47579633982718
 30
0.0
 11
-122.7315919291612
 21
38.47579633982718
 31
0.0
  0
ENDSEC
  0
SECTION
  2
OBJECTS
  0
DICTIONARY
  5
19
330
0
100
AcDbDictionary
281
     1
  3
ACAD_COLOR
350
7BF
  3
ACAD_GROUP
350
1A
  3
ACAD_LAYOUT
350
105
  3
ACAD_MATERIAL
350
7AA
  3
ACAD_MLINESTYLE
350
1B
  3
ACAD_PLOTSETTINGS
350
106
  3
ACAD_PLOTSTYLENAME
350
76F
  3
ACAD_TABLESTYLE
350
7C0
  3
ACAD_VISUALSTYLE
350
7AE
  3
AcDbVariableDictionary
350
7A7
  3
DWGPROPS
350
83C
1001
ACAD
1000
TREAT_AS_HARD
1070
     0
  0
DICTIONARY
  5
802
330
7
100
AcDbDictionary
280
     1
281
     1
  3
ACAD_XREC_ROUNDTRIP
360
803
  0
DICTIONARY
  5
C88
330
2
100
AcDbDictionary
280
     1
281
     1
  3
ACAD_LAYERFILTERS
360
C93
  3
ACAD_LAYERSTATES
360
C89
  0
DICTIONARY
  5
806
330
14
100
AcDbDictionary
280
     1
281
     1
  3
ACAD_XREC_ROUNDTRIP
360
807
  0
DICTIONARY
  5
767
330
A
100
AcDbDictionary
280
     1
281
     1
  3
ACAD_LAYOUTSELFREF
360
804
  0
DICTIONARY
  5
769
330
B
100
AcDbDictionary
280
     1
281
     1
  3
ACAD_LAYOUTSELFREF
360
805
  0
DICTIONARY
  5
7BF
102
{ACAD_REACTORS
330
19
102
}
330
19
100
AcDbDictionary
281
     1
  0
DICTIONARY
  5
1A
102
{ACAD_REACTORS
330
19
102
}
330
19
100
AcDbDictionary
281
     1
1001
ACAD
1000
TREAT_AS_HARD
1070
     0
  0
DICTIONARY
  5
105
102
{ACAD_REACTORS
330
19
102
}
330
19
100
AcDbDictionary
281
     1
  3
Model
350
771
  3
ﾚｲｱｳﾄ1
350
772
1001
ACAD
1000
TREAT_AS_HARD
1070
     0
  0
DICTIONARY
  5
7AA
102
{ACAD_REACTORS
330
19
102
}
330
19
100
AcDbDictionary
281
     1
  3
ByBlock
350
7AC
  3
ByLayer
350
7AB
  3
Global
350
7AD
  0
DICTIONARY
  5
1B
102
{ACAD_REACTORS
330
19
102
}
330
19
100
AcDbDictionary
281
     1
  3
STANDARD
350
1C
1001
ACAD
1000
TREAT_AS_HARD
1070
     0
  0
DICTIONARY
  5
106
102
{ACAD_REACTORS
330
19
102
}
330
19
100
AcDbDictionary
281
     1
1001
ACAD
1000
TREAT_AS_HARD
1070
     0
  0
ACDBDICTIONARYWDFLT
  5
76F
102
{ACAD_REACTORS
330
19
102
}
330
19
100
AcDbDictionary
281
     1
  3
Normal
350
770
100
AcDbDictionaryWithDefault
340
770
1001
ACAD
1000
TREAT_AS_HARD
1070
     0
  0
DICTIONARY
  5
7C0
102
{ACAD_REACTORS
330
19
102
}
330
19
100
AcDbDictionary
281
     1
  3
Standard
350
7C1
  0
DICTIONARY
  5
7AE
102
{ACAD_REACTORS
330
19
102
}
330
19
100
AcDbDictionary
281
     1
  3
2dWireframe
350
7B4
  3
3D Hidden
350
7B6
  3
3dWireframe
350
7B5
  3
Basic
350
7B3
  3
Brighten
350
7BA
  3
ColorChange
350
7BE
  3
Conceptual
350
7B7
  3
Dim
350
7B9
  3
Facepattern
350
7BD
  3
Flat
350
7AF
  3
FlatWithEdges
350
7B0
  3
Gouraud
350
7B1
  3
GouraudWithEdges
350
7B2
  3
Linepattern
350
7BC
  3
Realistic
350
7B8
  3
Thicken
350
7BB
  0
DICTIONARY
  5
7A7
102
{ACAD_REACTORS
330
19
102
}
330
19
100
AcDbDictionary
281
     1
  3
CTABLESTYLE
350
824
  3
DIMASSOC
350
7A8
  3
INDEXCTL
350
826
  3
PROJECTNAME
350
835
  3
SORTENTS
350
825
  0
XRECORD
  5
83C
102
{ACAD_REACTORS
330
19
102
}
330
19
100
AcDbXrecord
280
     1
  1
DWGPROPS COOKIE
  2

  3

  4

  6

  7

  8
sendai
  9

300
=
301
=
302
=
303
=
304
=
305
=
306
=
307
=
308
=
309
=
 40
0.0323558217592593
 41
2444972.375
 42
2455449.586781504
  1

 90
        0
  0
XRECORD
  5
803
102
{ACAD_REACTORS
330
802
102
}
330
802
100
AcDbXrecord
280
     1
102
VTR_0.000_0.000_1.000_1.000_VISUALSTYLE
340
7B4
102
VTR_0.000_0.000_1.000_1.000_GRIDDISPLAY
 70
     3
102
VTR_0.000_0.000_1.000_1.000_GRIDMAJOR
 70
     5
102
VTR_0.000_0.000_1.000_1.000_DEFAULTLIGHTING
280
     1
102
VTR_0.000_0.000_1.000_1.000_DEFAULTLIGHTINGTYPE
 70
     1
102
VTR_0.000_0.000_1.000_1.000_BRIGHTNESS
141
0.0
102
VTR_0.000_0.000_1.000_1.000_CONTRAST
142
0.0
  0
DICTIONARY
  5
C93
102
{ACAD_REACTORS
330
C88
102
}
330
C88
100
AcDbDictionary
280
     1
281
     1
  0
DICTIONARY
  5
C89
102
{ACAD_REACTORS
330
C88
102
}
330
C88
100
AcDbDictionary
281
     1
  0
XRECORD
  5
807
102
{ACAD_REACTORS
330
806
102
}
330
806
100
AcDbXrecord
280
     1
102
MATERIAL
340
7AD
  0
XRECORD
  5
804
102
{ACAD_REACTORS
330
767
102
}
330
767
100
AcDbXrecord
280
     1
340
A
  0
XRECORD
  5
805
102
{ACAD_REACTORS
330
769
102
}
330
769
100
AcDbXrecord
280
     1
340
B
  0
LAYOUT
  5
771
102
{ACAD_XDICTIONARY
360
83E
102
}
102
{ACAD_REACTORS
330
105
102
}
330
105
100
AcDbPlotSettings
  1

  2
SHARP MX-2311FN SPDL2-c
  4
A4
  6
V0
 40
5.027083396911621
 41
5.027085304260253
 42
5.027084350585937
 43
5.027069091796875
 44
209.9733276367187
 45
296.9259948730469
 46
49.61
 47
93.84
 48
0.0
 49
0.0
140
42050.0
141
29700.0
142
100.0
143
1.0
 70
 11940
 72
     1
 73
     0
 74
     1
  7
プリンタ.ctb
 75
     0
147
100.0
148
-26.90582301805938
149
-37.22076443631755
100
AcDbLayout
  1
Model
 70
     1
 71
     0
 10
0.0
 20
0.0
 11
12.0
 21
9.0
 12
0.0
 22
0.0
 32
0.0
 14
0.0
 24
0.0
 34
0.0
 15
0.0
 25
0.0
 35
0.0
146
0.0
 13
0.0
 23
0.0
 33
0.0
 16
1.0
 26
0.0
 36
0.0
 17
0.0
 27
1.0
 37
0.0
 76
     0
330
A
  0
LAYOUT
  5
772
102
{ACAD_XDICTIONARY
360
840
102
}
102
{ACAD_REACTORS
330
105
102
}
330
105
100
AcDbPlotSettings
  1

  2
なし
  4

  6

 40
0.0
 41
0.0
 42
0.0
 43
0.0
 44
0.0
 45
0.0
 46
0.0
 47
0.0
 48
0.0
 49
0.0
140
0.0
141
0.0
142
1.0
143
1.0
 70
   688
 72
     0
 73
     0
 74
     5
  7
京セラレーザー.ctb
 75
    16
147
1.0
148
0.0
149
0.0
100
AcDbLayout
  1
ﾚｲｱｳﾄ1
 70
     0
 71
     1
 10
0.0
 20
0.0
 11
12.0
 21
9.0
 12
0.0
 22
0.0
 32
0.0
 14
1.000000000000000E+20
 24
1.000000000000000E+20
 34
1.000000000000000E+20
 15
-1.000000000000000E+20
 25
-1.000000000000000E+20
 35
-1.000000000000000E+20
146
0.0
 13
0.0
 23
0.0
 33
0.0
 16
1.0
 26
0.0
 36
0.0
 17
0.0
 27
1.0
 37
0.0
 76
     0
330
B
  0
ACAD_PROXY_OBJECT
  5
7AC
102
{ACAD_XDICTIONARY
360
81A
102
}
102
{ACAD_REACTORS
330
7AA
102
}
330
7AA
100
AcDbProxyObject
 90
      499
 91
      532
 95
   655383
 70
     0
 93
      574
310
41D096509313D0D2E004014040405AA6A9AA4060050101016A9AA6A9018000000000000E03F4040405AA6A9AA40650101016A9AA6A90190101016A9AA6A90194040405AA6A9AA403
 94
        0
  0
ACAD_PROXY_OBJECT
  5
7AB
102
{ACAD_XDICTIONARY
360
818
102
}
102
{ACAD_REACTORS
330
7AA
102
}
330
7AA
100
AcDbProxyObject
 90
      499
 91
      532
 95
   655383
 70
     0
 93
      574
310
41D0965310565154A004014040405AA6A9AA4060050101016A9AA6A9018000000000000E03F4040405AA6A9AA40650101016A9AA6A90190101016A9AA6A90194040405AA6A9AA403
 94
        0
  0
ACAD_PROXY_OBJECT
  5
7AD
102
{ACAD_XDICTIONARY
360
81C
102
}
102
{ACAD_REACTORS
330
7AA
102
}
330
7AA
100
AcDbProxyObject
 90
      499
 91
      532
 95
   655383
 70
     0
 93
      566
310
4191D313D090532004014040405AA6A9AA4060050101016A9AA6A9018000000000000E03F4040405AA6A9AA40650101016A9AA6A90190101016A9AA6A90194040405AA6A9AA400
 94
        0
  0
MLINESTYLE
  5
1C
102
{ACAD_REACTORS
330
1B
102
}
330
1B
100
AcDbMlineStyle
  2
STANDARD
 70
     0
  3

 62
     0
 51
90.00000000000019
 52
90.00000000000019
 71
     2
 49
0.5
 62
   256
  6
BYLAYER
 49
-0.5
 62
   256
  6
BYLAYER
  0
ACDBPLACEHOLDER
  5
770
102
{ACAD_REACTORS
330
76F
102
}
330
76F
  0
ACAD_PROXY_OBJECT
  5
7C1
102
{ACAD_XDICTIONARY
360
822
102
}
102
{ACAD_REACTORS
330
7C0
102
}
330
7C0
100
AcDbProxyObject
 90
      499
 91
      534
 95
   655383
 70
     0
 93
     1841
310
4214DD185B99185C9928B81E85EB51B8AE3F2E07A17AD46E2B8FC02B5E8DC0F42B1CFD028000000C1008070000C3001FDFF8000000C1003FBFF000000182007F7FE00000030400FEFFC00000060801FDFF8000000C1003FBFF00000018200000000000000681FA0B0000001820100E000186003FBFF000000182007F7FE000
310
00030400FEFFC00000060801FDFF8000000C1003FBFF000000182007F7FE000000304000AD7A3703D0AC73F4160000003040201C00030C007F7FE00000030400FEFFC00000060801FDFF8000000C1003FBFF000000182007F7FE00000030400FEFFC000000608033
340
17
340
17
340
17
 94
        0
  0
ACAD_PROXY_OBJECT
  5
7B4
102
{ACAD_REACTORS
330
7AE
102
}
330
7AE
100
AcDbProxyObject
 90
      499
 91
      533
 95
   655381
 70
     0
 93
      444
310
430C9915DA5C99599C985B59401049028333333333333E3BF0000000000000FB0107901411070040501600405405064090741402480A0340
 94
        0
1001
ACAD
1000
AcDbSavedByObjectVersion
1070
     0
1000
AcRTDxfName
1000
VISUALSTYLE
1000
AcRTDxfName
1000
VISUALSTYLE
  0
ACAD_PROXY_OBJECT
  5
7B6
102
{ACAD_REACTORS
330
7AE
102
}
330
7AE
100
AcDbProxyObject
 90
      499
 91
      533
 95
   655381
 70
     0
 93
      508
310
428CD108121A5919195B8010640502408333333333333E3BF0000000000000FB01079024090700405020000000000001110200405405064090740C02480A0340
 94
        0
1001
ACAD
1000
AcDbSavedByObjectVersion
1070
     0
1000
AcRTDxfName
1000
VISUALSTYLE
1000
AcRTDxfName
1000
VISUALSTYLE
  0
ACAD_PROXY_OBJECT
  5
7B5
102
{ACAD_REACTORS
330
7AE
102
}
330
7AE
100
AcDbProxyObject
 90
      499
 91
      533
 95
   655381
 70
     0
 93
      444
310
430CD915DA5C99599C985B59401059028333333333333E3BF0000000000000FB0107901411070040501600405405064090741402480A0340
 94
        0
1001
ACAD
1000
AcDbSavedByObjectVersion
1070
     0
1000
AcRTDxfName
1000
VISUALSTYLE
1000
AcRTDxfName
1000
VISUALSTYLE
  0
ACAD_PROXY_OBJECT
  5
7B3
102
{ACAD_REACTORS
330
7AE
102
}
330
7AE
100
AcDbProxyObject
 90
      499
 91
      533
 95
   655381
 70
     0
 93
      396
310
4190985CDA58C0107406404333333333333E3BF0000000000000FB0107A41107004050150841D405064090741402480A0356
 94
        0
1001
ACAD
1000
AcDbSavedByObjectVersion
1070
     0
1000
AcRTDxfName
1000
VISUALSTYLE
1000
AcRTDxfName
1000
VISUALSTYLE
  0
ACAD_PROXY_OBJECT
  5
7BA
102
{ACAD_REACTORS
330
7AE
102
}
330
7AE
100
AcDbProxyObject
 90
      499
 91
      533
 95
   655381
 70
     0
 93
      436
310
42509C9A59DA1D195B8010C409028333333333333E3BF0000000000000FB010790141107004050150841D405064090741402480A029956
 94
        0
1001
ACAD
1000
AcDbSavedByObjectVersion
1070
     0
1000
AcRTDxfName
1000
VISUALSTYLE
1000
AcRTDxfName
1000
VISUALSTYLE
  0
ACAD_PROXY_OBJECT
  5
7BE
102
{ACAD_REACTORS
330
7AE
102
}
330
7AE
100
AcDbProxyObject
 90
      499
 91
      533
 95
   655381
 70
     0
 93
      460
310
4310DBDB1BDC90DA185B99D9401104090240C333333333333E3BF0000000000000FB0108901411070040501508421405064090741402480A0354
 94
        0
1001
ACAD
1000
AcDbSavedByObjectVersion
1070
     0
1000
AcRTDxfName
1000
VISUALSTYLE
1000
AcRTDxfName
1000
VISUALSTYLE
  0
ACAD_PROXY_OBJECT
  5
7B7
102
{ACAD_REACTORS
330
7AE
102
}
330
7AE
100
AcDbProxyObject
 90
      499
 91
      533
 95
   655381
 70
     0
 93
      508
310
42D0DBDB98D95C1D1D585B0010940D028333333333333E3BF0000000000000FB0107902409070040501000000000000111010841D405064090740C02480A0340
 94
        0
1001
ACAD
1000
AcDbSavedByObjectVersion
1070
     0
1000
AcRTDxfName
1000
VISUALSTYLE
1000
AcRTDxfName
1000
VISUALSTYLE
  0
ACAD_PROXY_OBJECT
  5
7B9
102
{ACAD_REACTORS
330
7AE
102
}
330
7AE
100
AcDbProxyObject
 90
      499
 91
      533
 95
   655381
 70
     0
 93
      420
310
41111A5B4010B409028333333333333E3BF0000000000000FB010790141107004050150841D405064090741402480A02677FFFFFDB
 94
        0
1001
ACAD
1000
AcDbSavedByObjectVersion
1070
     0
1000
AcRTDxfName
1000
VISUALSTYLE
1000
AcRTDxfName
1000
VISUALSTYLE
  0
ACAD_PROXY_OBJECT
  5
7BD
102
{ACAD_REACTORS
330
7AE
102
}
330
7AE
100
AcDbProxyObject
 90
      499
 91
      533
 95
   655381
 70
     0
 93
      452
310
43119858D95C185D1D195C9B8010F409028333333333333E3BF0000000000000FB010790141107004050150841D405064090741402480A0350
 94
        0
1001
ACAD
1000
AcDbSavedByObjectVersion
1070
     0
1000
AcRTDxfName
1000
VISUALSTYLE
1000
AcRTDxfName
1000
VISUALSTYLE
  0
ACAD_PROXY_OBJECT
  5
7AF
102
{ACAD_REACTORS
330
7AE
102
}
330
7AE
100
AcDbProxyObject
 90
      499
 91
      533
 95
   655381
 70
     0
 93
      396
310
41519B185D00240901404333333333333E3BF0000000000000F9010740A41107004050150841D405064090741402480A1B50
 94
        0
1001
ACAD
1000
AcDbSavedByObjectVersion
1070
     0
1000
AcRTDxfName
1000
VISUALSTYLE
1000
AcRTDxfName
1000
VISUALSTYLE
  0
ACAD_PROXY_OBJECT
  5
7B0
102
{ACAD_REACTORS
330
7AE
102
}
330
7AE
100
AcDbProxyObject
 90
      499
 91
      533
 95
   655381
 70
     0
 93
      484
310
43919B185D15DA5D1A115919D95CC010140901404333333333333E3BF0000000000000F9010740901411070040501600405405064090741402480A1B50
 94
        0
1001
ACAD
1000
AcDbSavedByObjectVersion
1070
     0
1000
AcRTDxfName
1000
VISUALSTYLE
1000
AcRTDxfName
1000
VISUALSTYLE
  0
ACAD_PROXY_OBJECT
  5
7B1
102
{ACAD_REACTORS
330
7AE
102
}
330
7AE
100
AcDbProxyObject
 90
      499
 91
      533
 95
   655381
 70
     0
 93
      420
310
4211DBDD5C985D590010240902404333333333333E3BF0000000000000F9010740A411070040501641D405064090741402480A1B50
 94
        0
1001
ACAD
1000
AcDbSavedByObjectVersion
1070
     0
1000
AcRTDxfName
1000
VISUALSTYLE
1000
AcRTDxfName
1000
VISUALSTYLE
  0
ACAD_PROXY_OBJECT
  5
7B2
102
{ACAD_REACTORS
330
7AE
102
}
330
7AE
100
AcDbProxyObject
 90
      499
 91
      533
 95
   655381
 70
     0
 93
      508
310
4451DBDD5C985D5915DA5D1A115919D95CC010340902404333333333333E3BF0000000000000F9010740901411070040501600405405064090741402480A1B50
 94
        0
1001
ACAD
1000
AcDbSavedByObjectVersion
1070
     0
1000
AcRTDxfName
1000
VISUALSTYLE
1000
AcRTDxfName
1000
VISUALSTYLE
  0
ACAD_PROXY_OBJECT
  5
7BC
102
{ACAD_REACTORS
330
7AE
102
}
330
7AE
100
AcDbProxyObject
 90
      499
 91
      533
 95
   655381
 70
     0
 93
      452
310
43131A5B995C185D1D195C9B8010E409028333333333333E3BF0000000000000FB010790141107004050750841D405064090741402483A0350
 94
        0
1001
ACAD
1000
AcDbSavedByObjectVersion
1070
     0
1000
AcRTDxfName
1000
VISUALSTYLE
1000
AcRTDxfName
1000
VISUALSTYLE
  0
ACAD_PROXY_OBJECT
  5
7B8
102
{ACAD_REACTORS
330
7AE
102
}
330
7AE
100
AcDbProxyObject
 90
      499
 91
      533
 95
   655381
 70
     0
 93
      428
310
429499585B1A5CDD1A58C0108409028333333333333E3BF0000000000000FB01079019070040501508421405064090741402480A1B45
 94
        0
1001
ACAD
1000
AcDbSavedByObjectVersion
1070
     0
1000
AcRTDxfName
1000
VISUALSTYLE
1000
AcRTDxfName
1000
VISUALSTYLE
  0
ACAD_PROXY_OBJECT
  5
7BB
102
{ACAD_REACTORS
330
7AE
102
}
330
7AE
100
AcDbProxyObject
 90
      499
 91
      533
 95
   655381
 70
     0
 93
      420
310
42151A1A58DAD95B8010D409028333333333333E3BF0000000000000FB010790141107004050150C41D405064090741402480A0352
 94
        0
1001
ACAD
1000
AcDbSavedByObjectVersion
1070
     0
1000
AcRTDxfName
1000
VISUALSTYLE
1000
AcRTDxfName
1000
VISUALSTYLE
  0
DICTIONARYVAR
  5
824
102
{ACAD_REACTORS
330
7A7
102
}
330
7A7
100
DictionaryVariables
280
     0
  1
STANDARD
  0
DICTIONARYVAR
  5
7A8
102
{ACAD_REACTORS
330
7A7
102
}
330
7A7
100
DictionaryVariables
280
     0
  1
1
  0
DICTIONARYVAR
  5
826
102
{ACAD_REACTORS
330
7A7
102
}
330
7A7
100
DictionaryVariables
280
     0
  1
0
  0
DICTIONARYVAR
  5
835
102
{ACAD_REACTORS
330
7A7
102
}
330
7A7
100
DictionaryVariables
280
     0
  1

  0
DICTIONARYVAR
  5
825
102
{ACAD_REACTORS
330
7A7
102
}
330
7A7
100
DictionaryVariables
280
     0
  1
127
  0
DICTIONARY
  5
83E
330
771
100
AcDbDictionary
280
     1
281
     1
  3
ACAD_XREC_ROUNDTRIP
360
83F
  0
DICTIONARY
  5
840
330
772
100
AcDbDictionary
280
     1
281
     1
  3
ACAD_XREC_ROUNDTRIP
360
841
  0
DICTIONARY
  5
81A
330
7AC
100
AcDbDictionary
280
     1
281
     1
  3
ACAD_XREC_ROUNDTRIP
360
81B
  0
DICTIONARY
  5
818
330
7AB
100
AcDbDictionary
280
     1
281
     1
  3
ACAD_XREC_ROUNDTRIP
360
819
  0
DICTIONARY
  5
81C
330
7AD
100
AcDbDictionary
280
     1
281
     1
  3
ACAD_XREC_ROUNDTRIP
360
81D
  0
DICTIONARY
  5
822
330
7C1
100
AcDbDictionary
280
     1
281
     1
  3
ACAD_XREC_ROUNDTRIP
360
823
  0
XRECORD
  5
83F
102
{ACAD_REACTORS
330
83E
102
}
330
83E
100
AcDbXrecord
280
     1
102
SHADEPLOT
 70
     0
102
SHADEPLOTRESLEVEL
 70
     2
102
SHADEPLOTCUSTOMDPI
 70
   300
  0
XRECORD
  5
841
102
{ACAD_REACTORS
330
840
102
}
330
840
100
AcDbXrecord
280
     1
102
SHADEPLOT
 70
     0
102
SHADEPLOTRESLEVEL
 70
     2
102
SHADEPLOTCUSTOMDPI
 70
   300
  0
XRECORD
  5
81B
102
{ACAD_REACTORS
330
81A
102
}
330
81A
100
AcDbXrecord
280
     1
102
MATERIAL
148
0.0
149
0.0
149
0.0
 93
        0
 94
       63
282
     0
 72
     1
 77
     1
171
     1
175
     1
179
     1
273
     0
  0
XRECORD
  5
819
102
{ACAD_REACTORS
330
818
102
}
330
818
100
AcDbXrecord
280
     1
102
MATERIAL
148
0.0
149
0.0
149
0.0
 93
        0
 94
       63
282
     0
 72
     1
 77
     1
171
     1
175
     1
179
     1
273
     0
  0
XRECORD
  5
81D
102
{ACAD_REACTORS
330
81C
102
}
330
81C
100
AcDbXrecord
280
     1
102
MATERIAL
148
0.0
149
0.0
149
0.0
 93
        0
 94
       63
282
     0
 72
     1
 77
     1
171
     1
175
     1
179
     1
273
     0
  0
XRECORD
  5
823
102
{ACAD_REACTORS
330
822
102
}
330
822
100
AcDbXrecord
280
     1
102
ACAD_ROUNDTRIP_PRE2007_TABLESTYLE
 90
      512
 91
        0
  1

 92
      512
 93
        0
  2

 94
      512
 95
        0
  3

  0
ENDSEC
  0
EOF
