  0
SECTION
  2
HEADER
  9
$ACADVER
  1
AC1015
  9
$ACADMAINTVER
 70
    10
  9
$DWGCODEPAGE
  3
ANSI_932
  9
$INSBASE
 10
0.0
 20
0.0
 30
0.0
  9
$EXTMIN
 10
89.09301791467356
 20
1.995849844529118
 30
-0.0000000000112498
  9
$EXTMAX
 10
90.10009787755564
 20
2.980041623790782
 30
0.0000000000002956
  9
$LIMMIN
 10
0.0
 20
0.0
  9
$LIMMAX
 10
100.0
 20
100.0
  9
$ORTHOMODE
 70
     1
  9
$REGENMODE
 70
     1
  9
$FILLMODE
 70
     1
  9
$QTEXTMODE
 70
     0
  9
$MIRRTEXT
 70
     1
  9
$LTSCALE
 40
1.0
  9
$ATTMODE
 70
     1
  9
$TEXTSIZE
 40
0.0
  9
$TRACEWID
 40
0.05
  9
$TEXTSTYLE
  7
STANDARD
  9
$CLAYER
  8
0
  9
$CELTYPE
  6
CONTINUOUS
  9
$CECOLOR
 62
   256
  9
$CELTSCALE
 40
1.0
  9
$DISPSILH
 70
     0
  9
$DIMSCALE
 40
1.0
  9
$DIMASZ
 40
0.18
  9
$DIMEXO
 40
0.0625
  9
$DIMDLI
 40
0.38
  9
$DIMRND
 40
0.0
  9
$DIMDLE
 40
0.0
  9
$DIMEXE
 40
0.18
  9
$DIMTP
 40
0.0
  9
$DIMTM
 40
0.0
  9
$DIMTXT
 40
0.18
  9
$DIMCEN
 40
0.09
  9
$DIMTSZ
 40
0.0
  9
$DIMTOL
 70
     0
  9
$DIMLIM
 70
     0
  9
$DIMTIH
 70
     1
  9
$DIMTOH
 70
     1
  9
$DIMSE1
 70
     0
  9
$DIMSE2
 70
     0
  9
$DIMTAD
 70
     0
  9
$DIMZIN
 70
     0
  9
$DIMBLK
  1

  9
$DIMASO
 70
     1
  9
$DIMSHO
 70
     1
  9
$DIMPOST
  1

  9
$DIMAPOST
  1

  9
$DIMALT
 70
     0
  9
$DIMALTD
 70
     2
  9
$DIMALTF
 40
25.4
  9
$DIMLFAC
 40
1.0
  9
$DIMTOFL
 70
     0
  9
$DIMTVP
 40
0.0
  9
$DIMTIX
 70
     0
  9
$DIMSOXD
 70
     0
  9
$DIMSAH
 70
     0
  9
$DIMBLK1
  1

  9
$DIMBLK2
  1

  9
$DIMSTYLE
  2
STANDARD
  9
$DIMCLRD
 70
     0
  9
$DIMCLRE
 70
     0
  9
$DIMCLRT
 70
     0
  9
$DIMTFAC
 40
1.0
  9
$DIMGAP
 40
0.09
  9
$DIMJUST
 70
     0
  9
$DIMSD1
 70
     0
  9
$DIMSD2
 70
     0
  9
$DIMTOLJ
 70
     1
  9
$DIMTZIN
 70
     0
  9
$DIMALTZ
 70
     0
  9
$DIMALTTZ
 70
     0
  9
$DIMUPT
 70
     0
  9
$DIMDEC
 70
     4
  9
$DIMTDEC
 70
     4
  9
$DIMALTU
 70
     2
  9
$DIMALTTD
 70
     2
  9
$DIMTXSTY
  7
STANDARD
  9
$DIMAUNIT
 70
     0
  9
$DIMADEC
 70
     0
  9
$DIMALTRND
 40
0.0
  9
$DIMAZIN
 70
     0
  9
$DIMDSEP
 70
    46
  9
$DIMATFIT
 70
     3
  9
$DIMFRAC
 70
     0
  9
$DIMLDRBLK
  1

  9
$DIMLUNIT
 70
     2
  9
$DIMLWD
 70
    -2
  9
$DIMLWE
 70
    -2
  9
$DIMTMOVE
 70
     0
  9
$LUNITS
 70
     2
  9
$LUPREC
 70
     4
  9
$SKETCHINC
 40
0.1
  9
$FILLETRAD
 40
0.0
  9
$AUNITS
 70
     0
  9
$AUPREC
 70
     0
  9
$MENU
  1
acad
  9
$ELEVATION
 40
0.0
  9
$PELEVATION
 40
0.0
  9
$THICKNESS
 40
0.0
  9
$LIMCHECK
 70
     0
  9
$CHAMFERA
 40
0.0
  9
$CHAMFERB
 40
0.0
  9
$CHAMFERC
 40
0.0
  9
$CHAMFERD
 40
0.0
  9
$SKPOLY
 70
     0
  9
$TDCREATE
 40
2444972.375000000
  9
$TDUCREATE
 40
2444972.000000000
  9
$TDUPDATE
 40
2456381.491524699
  9
$TDUUPDATE
 40
2456381.116524699
  9
$TDINDWG
 40
0.0733725231
  9
$TDUSRTIMER
 40
0.0733725231
  9
$USRTIMER
 70
     1
  9
$ANGBASE
 50
0.0
  9
$ANGDIR
 70
     0
  9
$PDMODE
 70
     0
  9
$PDSIZE
 40
0.0
  9
$PLINEWID
 40
0.0
  9
$SPLFRAME
 70
     0
  9
$SPLINETYPE
 70
     6
  9
$SPLINESEGS
 70
     8
  9
$HANDSEED
  5
1C70
  9
$SURFTAB1
 70
     6
  9
$SURFTAB2
 70
     6
  9
$SURFTYPE
 70
     6
  9
$SURFU
 70
     6
  9
$SURFV
 70
     6
  9
$UCSBASE
  2

  9
$UCSNAME
  2

  9
$UCSORG
 10
0.0
 20
0.0
 30
0.0
  9
$UCSXDIR
 10
1.0
 20
0.0
 30
0.0
  9
$UCSYDIR
 10
0.0
 20
1.0
 30
0.0
  9
$UCSORTHOREF
  2

  9
$UCSORTHOVIEW
 70
     0
  9
$UCSORGTOP
 10
0.0
 20
0.0
 30
0.0
  9
$UCSORGBOTTOM
 10
0.0
 20
0.0
 30
0.0
  9
$UCSORGLEFT
 10
0.0
 20
0.0
 30
0.0
  9
$UCSORGRIGHT
 10
0.0
 20
0.0
 30
0.0
  9
$UCSORGFRONT
 10
0.0
 20
0.0
 30
0.0
  9
$UCSORGBACK
 10
0.0
 20
0.0
 30
0.0
  9
$PUCSBASE
  2

  9
$PUCSNAME
  2

  9
$PUCSORG
 10
0.0
 20
0.0
 30
0.0
  9
$PUCSXDIR
 10
1.0
 20
0.0
 30
0.0
  9
$PUCSYDIR
 10
0.0
 20
1.0
 30
0.0
  9
$PUCSORTHOREF
  2

  9
$PUCSORTHOVIEW
 70
     0
  9
$PUCSORGTOP
 10
0.0
 20
0.0
 30
0.0
  9
$PUCSORGBOTTOM
 10
0.0
 20
0.0
 30
0.0
  9
$PUCSORGLEFT
 10
0.0
 20
0.0
 30
0.0
  9
$PUCSORGRIGHT
 10
0.0
 20
0.0
 30
0.0
  9
$PUCSORGFRONT
 10
0.0
 20
0.0
 30
0.0
  9
$PUCSORGBACK
 10
0.0
 20
0.0
 30
0.0
  9
$USERI1
 70
     0
  9
$USERI2
 70
     0
  9
$USERI3
 70
     0
  9
$USERI4
 70
     0
  9
$USERI5
 70
     0
  9
$USERR1
 40
0.0
  9
$USERR2
 40
0.0
  9
$USERR3
 40
0.0
  9
$USERR4
 40
0.0
  9
$USERR5
 40
0.0
  9
$WORLDVIEW
 70
     1
  9
$SHADEDGE
 70
     3
  9
$SHADEDIF
 70
    70
  9
$TILEMODE
 70
     1
  9
$MAXACTVP
 70
    16
  9
$PINSBASE
 10
0.0
 20
0.0
 30
0.0
  9
$PLIMCHECK
 70
     0
  9
$PEXTMIN
 10
1.000000000000000E+20
 20
1.000000000000000E+20
 30
1.000000000000000E+20
  9
$PEXTMAX
 10
-1.000000000000000E+20
 20
-1.000000000000000E+20
 30
-1.000000000000000E+20
  9
$PLIMMIN
 10
0.0
 20
0.0
  9
$PLIMMAX
 10
12.0
 20
9.0
  9
$UNITMODE
 70
     0
  9
$VISRETAIN
 70
     0
  9
$PLINEGEN
 70
     1
  9
$PSLTSCALE
 70
     0
  9
$TREEDEPTH
 70
  3020
  9
$CMLSTYLE
  2
STANDARD
  9
$CMLJUST
 70
     0
  9
$CMLSCALE
 40
1.0
  9
$PROXYGRAPHICS
 70
     1
  9
$MEASUREMENT
 70
     0
  9
$CELWEIGHT
370
    -1
  9
$ENDCAPS
280
     0
  9
$JOINSTYLE
280
     0
  9
$LWDISPLAY
290
     0
  9
$INSUNITS
 70
     0
  9
$HYPERLINKBASE
  1

  9
$STYLESHEET
  1
プリンタ.ctb
  9
$XEDIT
290
     1
  9
$CEPSNTYPE
380
     0
  9
$PSTYLEMODE
290
     1
  9
$FINGERPRINTGUID
  2
{7E5E7D33-40A8-4612-AA41-990508750287}
  9
$VERSIONGUID
  2
{D220224C-1986-4F8D-B0A3-B6E2FF56C2ED}
  9
$EXTNAMES
290
     1
  9
$PSVPSCALE
 40
0.0
  9
$OLESTARTUP
290
     0
  0
ENDSEC
  0
SECTION
  2
CLASSES
  0
CLASS
  1
LWPOLYLINE
  2
AcDbPolyline
  3
AutoCAD 2000
 90
    32768
280
     0
281
     1
  0
CLASS
  1
IMAGE
  2
AcDbRasterImage
  3
ISM
 90
    32895
280
     0
281
     1
  0
CLASS
  1
OLE2FRAME
  2
AcDbOle2Frame
  3
AutoCAD 2000
 90
    32768
280
     0
281
     1
  0
CLASS
  1
HATCH
  2
AcDbHatch
  3
AutoCAD 2000
 90
    32768
280
     0
281
     1
  0
CLASS
  1
DICTIONARYVAR
  2
AcDbDictionaryVar
  3
AutoCAD 2000
 90
        0
280
     0
281
     0
  0
CLASS
  1
RASTERVARIABLES
  2
AcDbRasterVariables
  3
ISM
 90
    32768
280
     0
281
     0
  0
CLASS
  1
IMAGEDEF
  2
AcDbRasterImageDef
  3
ISM
 90
    32768
280
     0
281
     0
  0
CLASS
  1
IMAGEDEF_REACTOR
  2
AcDbRasterImageDefReactor
  3
ISM
 90
    32769
280
     0
281
     0
  0
CLASS
  1
IDBUFFER
  2
AcDbIdBuffer
  3
AutoCAD 2000
 90
    32768
280
     0
281
     0
  0
CLASS
  1
SPATIAL_FILTER
  2
AcDbSpatialFilter
  3
AutoCAD 2000
 90
    32768
280
     0
281
     0
  0
CLASS
  1
XRECORD
  2
AcDbXrecord
  3
AutoCAD 2000
 90
    32768
280
     0
281
     0
  0
CLASS
  1
SORTENTSTABLE
  2
AcDbSortentsTable
  3
AutoCAD 2000
 90
    32768
280
     0
281
     0
  0
CLASS
  1
LAYER_INDEX
  2
AcDbLayerIndex
  3
AutoCAD 2000
 90
    32768
280
     0
281
     0
  0
CLASS
  1
SPATIAL_INDEX
  2
AcDbSpatialIndex
  3
AutoCAD 2000
 90
    32768
280
     0
281
     0
  0
CLASS
  1
OBJECT_PTR
  2
CAseDLPNTableRecord
  3
"ASE-LPNTableRecord"
 90
    32768
280
     0
281
     0
  0
CLASS
  1
LAYOUT
  2
AcDbLayout
  3
AutoCAD 2000
 90
        0
280
     0
281
     0
  0
CLASS
  1
PLOTSETTINGS
  2
AcDbPlotSettings
  3
AutoCAD 2000
 90
    32768
280
     0
281
     0
  0
CLASS
  1
ACDBDICTIONARYWDFLT
  2
AcDbDictionaryWithDefault
  3
AutoCAD 2000
 90
        0
280
     0
281
     0
  0
CLASS
  1
ACDBPLACEHOLDER
  2
AcDbPlaceHolder
  3
AutoCAD 2000
 90
        0
280
     0
281
     0
  0
CLASS
  1
VBA_PROJECT
  2
AcDbVbaProject
  3
acad
 90
    32768
280
     0
281
     0
  0
CLASS
  1
WIPEOUT
  2
AcDbWipeout
  3
"WipeOut|Product Desc: Object Enabler for WipeOut entity^I^I^I^I^I^I|Company: Autodesk, Inc.^I^I^I^I^I^I|WEB Address: www.autodesk.com"
 90
    32895
280
     0
281
     1
  0
CLASS
  1
WIPEOUTVARIABLES
  2
AcDbWipeoutVariables
  3
"WipeOut|Product Desc:     WipeOut Dbx Application|Company:          Autodesk, Inc.|WEB Address:      www.autodesk.com"
 90
    32768
280
     0
281
     0
  0
CLASS
  1
RTEXT
  2
RText
  3
RText|AutoCAD Express Tool|expresstools@autodesk.com
 90
    32768
280
     0
281
     1
  0
CLASS
  1
ARCALIGNEDTEXT
  2
AcDbArcAlignedText
  3
ATEXT|AutoCAD Express Tool|expresstools@autodesk.com
 90
    32768
280
     0
281
     1
  0
CLASS
  1
LONG_TRANSACTION
  2
AcDbLongTransaction
  3
AutoCAD 2000
 90
    32768
280
     0
281
     0
  0
CLASS
  1
LWPOLYLINE
  2
AcDbPolyline
  3
AutoCAD 2000
 90
    32768
280
     0
281
     1
  0
CLASS
  1
HATCH
  2
AcDbHatch
  3
AutoCAD 2000
 90
    32768
280
     0
281
     1
  0
CLASS
  1
XRECORD
  2
AcDbXrecord
  3
AutoCAD 2000
 90
    32768
280
     0
281
     0
  0
CLASS
  1
LONG_TRANSACTION
  2
AcDbLongTransaction
  3
AutoCAD 2000
 90
    32768
280
     0
281
     0
  0
CLASS
  1
LWPOLYLINE
  2
AcDbPolyline
  3
AutoCAD 2000
 90
    32768
280
     0
281
     1
  0
CLASS
  1
HATCH
  2
AcDbHatch
  3
AutoCAD 2000
 90
    32768
280
     0
281
     1
  0
CLASS
  1
XRECORD
  2
AcDbXrecord
  3
AutoCAD 2000
 90
    32768
280
     0
281
     0
  0
CLASS
  1
MATERIAL
  2
AcDbMaterial
  3
ObjectDBX Classes
 90
        0
280
     0
281
     0
  0
CLASS
  1
VISUALSTYLE
  2
AcDbVisualStyle
  3
ObjectDBX Classes
 90
     4095
280
     0
281
     0
  0
CLASS
  1
TABLESTYLE
  2
AcDbTableStyle
  3
ObjectDBX Classes
 90
     2047
280
     0
281
     0
  0
ENDSEC
  0
SECTION
  2
TABLES
  0
TABLE
  2
VPORT
  5
7
102
{ACAD_XDICTIONARY
360
802
102
}
330
0
100
AcDbSymbolTable
 70
     2
  0
VPORT
  5
1C6F
330
7
100
AcDbSymbolTableRecord
100
AcDbViewportTableRecord
  2
*Active
 70
     0
 10
0.0
 20
0.0
 11
1.0
 21
1.0
 12
89.5965578961146
 22
2.48794573415995
 13
0.0
 23
0.0
 14
1.0
 24
1.0
 15
0.0
 25
0.0
 16
0.0
 26
0.0
 36
1.0
 17
0.0
 27
0.0
 37
0.0
 40
0.9923820021126628
 41
1.747222222222222
 42
50.0
 43
0.0
 44
0.0
 50
0.0
 51
0.0
 71
     0
 72
   100
 73
     1
 74
     0
 75
     0
 76
     0
 77
     0
 78
     0
281
     0
 65
     1
110
0.0
120
0.0
130
0.0
111
1.0
121
0.0
131
0.0
112
0.0
122
1.0
132
0.0
 79
     0
146
0.0
  0
ENDTAB
  0
TABLE
  2
LTYPE
  5
4
330
0
100
AcDbSymbolTable
 70
     1
  0
LTYPE
  5
11
330
4
100
AcDbSymbolTableRecord
100
AcDbLinetypeTableRecord
  2
BYBLOCK
 70
     0
  3

 72
    65
 73
     0
 40
0.0
  0
LTYPE
  5
12
330
4
100
AcDbSymbolTableRecord
100
AcDbLinetypeTableRecord
  2
BYLAYER
 70
     0
  3

 72
    65
 73
     0
 40
0.0
  0
LTYPE
  5
13
330
4
100
AcDbSymbolTableRecord
100
AcDbLinetypeTableRecord
  2
CONTINUOUS
 70
     0
  3
Solid line
 72
    65
 73
     0
 40
0.0
  0
ENDTAB
  0
TABLE
  2
LAYER
  5
2
102
{ACAD_XDICTIONARY
360
C88
102
}
330
0
100
AcDbSymbolTable
 70
     4
  0
LAYER
  5
14
102
{ACAD_XDICTIONARY
360
806
102
}
330
2
100
AcDbSymbolTableRecord
100
AcDbLayerTableRecord
  2
0
 70
     0
 62
     7
  6
CONTINUOUS
370
    -3
390
770
  0
LAYER
  5
8A6
330
2
100
AcDbSymbolTableRecord
100
AcDbLayerTableRecord
  2
DEFPOINTS
 70
     0
 62
     7
  6
CONTINUOUS
290
     0
370
    -3
390
770
  0
LAYER
  5
C94
330
2
100
AcDbSymbolTableRecord
100
AcDbLayerTableRecord
  2
001
 70
     0
 62
     7
  6
CONTINUOUS
370
    -3
390
770
  0
LAYER
  5
C95
330
2
100
AcDbSymbolTableRecord
100
AcDbLayerTableRecord
  2
002
 70
     0
 62
     7
  6
CONTINUOUS
370
    -3
390
770
  0
ENDTAB
  0
TABLE
  2
STYLE
  5
3
330
0
100
AcDbSymbolTable
 70
     1
  0
STYLE
  5
17
330
3
100
AcDbSymbolTableRecord
100
AcDbTextStyleTableRecord
  2
STANDARD
 70
     0
 40
0.0
 41
0.8
 50
0.0
 71
     0
 42
0.0
  3
txt.shx
  4
extfont.shx
  0
ENDTAB
  0
TABLE
  2
VIEW
  5
5
330
0
100
AcDbSymbolTable
 70
     0
  0
ENDTAB
  0
TABLE
  2
UCS
  5
6
330
0
100
AcDbSymbolTable
 70
     0
  0
ENDTAB
  0
TABLE
  2
APPID
  5
8
330
0
100
AcDbSymbolTable
 70
    17
  0
APPID
  5
16
330
8
100
AcDbSymbolTableRecord
100
AcDbRegAppTableRecord
  2
ACAD
 70
     0
  0
APPID
  5
8AA
330
8
100
AcDbSymbolTableRecord
100
AcDbRegAppTableRecord
  2
ACAD_DSTYLE_DIMRADIAL_EXTENSION
 70
     0
  0
APPID
  5
17E1
330
8
100
AcDbSymbolTableRecord
100
AcDbRegAppTableRecord
  2
DCO15
 70
     0
  0
APPID
  5
17E2
330
8
100
AcDbSymbolTableRecord
100
AcDbRegAppTableRecord
  2
ACAD_EXEMPT_FROM_CAD_STANDARDS
 70
     0
  0
APPID
  5
17E3
330
8
100
AcDbSymbolTableRecord
100
AcDbRegAppTableRecord
  2
ACAD_DSTYLE_DIMTEXT_FILL
 70
     0
  0
APPID
  5
17E4
330
8
100
AcDbSymbolTableRecord
100
AcDbRegAppTableRecord
  2
ACAD_DSTYLE_DIMEXT_LENGTH
 70
     0
  0
APPID
  5
17E5
330
8
100
AcDbSymbolTableRecord
100
AcDbRegAppTableRecord
  2
ACAD_DSTYLE_DIMEXT_ENABLED
 70
     0
  0
APPID
  5
17E6
330
8
100
AcDbSymbolTableRecord
100
AcDbRegAppTableRecord
  2
ACAD_DSTYLE_DIM_LINETYPE
 70
     0
  0
APPID
  5
17E7
330
8
100
AcDbSymbolTableRecord
100
AcDbRegAppTableRecord
  2
ACAD_DSTYLE_DIM_EXT1_LINETYPE
 70
     0
  0
APPID
  5
17E8
330
8
100
AcDbSymbolTableRecord
100
AcDbRegAppTableRecord
  2
ACAD_DSTYLE_DIM_EXT2_LINETYPE
 70
     0
  0
APPID
  5
17E9
330
8
100
AcDbSymbolTableRecord
100
AcDbRegAppTableRecord
  2
ACAD_DSTYLE_DIMJOGGED_JOGANGLE_SYMBOL
 70
     0
  0
APPID
  5
17EA
330
8
100
AcDbSymbolTableRecord
100
AcDbRegAppTableRecord
  2
ACAD_DSTYLE_DIMARC_LENGTH_SYMBOL
 70
     0
  0
APPID
  5
17EB
330
8
100
AcDbSymbolTableRecord
100
AcDbRegAppTableRecord
  2
ACAD_PSEXT
 70
     0
  0
APPID
  5
17EC
330
8
100
AcDbSymbolTableRecord
100
AcDbRegAppTableRecord
  2
ACAD_MLEADERVER
 70
     0
  0
APPID
  5
17ED
330
8
100
AcDbSymbolTableRecord
100
AcDbRegAppTableRecord
  2
ACAD_DSTYLE_DIMJAG
 70
     0
  0
APPID
  5
17EE
330
8
100
AcDbSymbolTableRecord
100
AcDbRegAppTableRecord
  2
ACAD_DSTYLE_DIMTALN
 70
     0
  0
APPID
  5
17EF
330
8
100
AcDbSymbolTableRecord
100
AcDbRegAppTableRecord
  2
AcadStringInfo
 70
     0
  0
ENDTAB
  0
TABLE
  2
DIMSTYLE
  5
9
330
0
100
AcDbSymbolTable
 70
     1
100
AcDbDimStyleTable
 71
     0
  0
DIMSTYLE
105
18
330
9
100
AcDbSymbolTableRecord
100
AcDbDimStyleTableRecord
  2
STANDARD
 70
     0
340
17
  0
ENDTAB
  0
TABLE
  2
BLOCK_RECORD
  5
1
330
0
100
AcDbSymbolTable
 70
     0
  0
BLOCK_RECORD
  5
A
102
{ACAD_XDICTIONARY
360
767
102
}
330
1
100
AcDbSymbolTableRecord
100
AcDbBlockTableRecord
  2
*MODEL_SPACE
340
771
  0
BLOCK_RECORD
  5
B
102
{ACAD_XDICTIONARY
360
769
102
}
330
1
100
AcDbSymbolTableRecord
100
AcDbBlockTableRecord
  2
*PAPER_SPACE
340
772
  0
ENDTAB
  0
ENDSEC
  0
SECTION
  2
BLOCKS
  0
BLOCK
  5
D
330
A
100
AcDbEntity
  8
0
100
AcDbBlockBegin
  2
*MODEL_SPACE
 70
     0
 10
0.0
 20
0.0
 30
0.0
  3
*MODEL_SPACE
  1

  0
ENDBLK
  5
E
330
A
100
AcDbEntity
  8
0
100
AcDbBlockEnd
  0
BLOCK
  5
F
330
B
100
AcDbEntity
 67
     1
  8
0
100
AcDbBlockBegin
  2
*PAPER_SPACE
 70
     0
 10
0.0
 20
0.0
 30
0.0
  3
*PAPER_SPACE
  1

  0
ENDBLK
  5
10
330
B
100
AcDbEntity
 67
     1
  8
0
100
AcDbBlockEnd
  0
ENDSEC
  0
SECTION
  2
ENTITIES
  0
LINE
  5
A6
330
A
100
AcDbEntity
  8
002
100
AcDbLine
 10
89.10006857570342
 20
2.89995133895793
 30
0.0
 11
90.10006857570344
 21
2.89995133895793
 31
0.0
  0
LINE
  5
A5
330
A
100
AcDbEntity
  8
002
100
AcDbLine
 10
89.30006892204536
 20
2.979951997007609
 30
0.0
 11
89.30006892204536
 21
2.89995133895793
 31
0.0
  0
LINE
  5
A4
330
A
100
AcDbEntity
  8
002
100
AcDbLine
 10
89.20006874887439
 20
2.3199575201922
 30
0.0
 11
90.00006926838731
 21
2.3199575201922
 31
0.0
  0
LINE
  5
A3
330
A
100
AcDbEntity
  8
002
100
AcDbLine
 10
90.00006926838731
 20
2.3199575201922
 30
0.0
 11
90.00006926838731
 21
1.999951512128898
 31
0.0
  0
LINE
  5
A2
330
A
100
AcDbEntity
  8
002
100
AcDbLine
 10
89.20006874887439
 20
2.3199575201922
 30
0.0
 11
89.20006874887439
 21
1.999951512128898
 31
0.0
  0
LINE
  5
A1
330
A
100
AcDbEntity
  8
002
100
AcDbLine
 10
89.20006874887439
 20
2.279958489949623
 30
0.0
 11
90.00006926838731
 21
2.279958489949623
 31
0.0
  0
LINE
  5
A0
330
A
100
AcDbEntity
  8
002
100
AcDbLine
 10
89.20006874887439
 20
2.199956966045103
 30
0.0
 11
90.00006926838731
 21
2.199956966045103
 31
0.0
  0
LINE
  5
9F
330
A
100
AcDbEntity
  8
002
100
AcDbLine
 10
89.20006874887439
 20
2.159957935802525
 30
0.0
 11
90.00006926838731
 21
2.159957935802525
 31
0.0
  0
LINE
  5
9E
330
A
100
AcDbEntity
  8
002
100
AcDbLine
 10
89.35506888741118
 20
2.119957173850264
 30
0.0
 11
90.00006926838731
 21
2.119957173850265
 31
0.0
  0
LINE
  5
9D
330
A
100
AcDbEntity
  8
002
100
AcDbLine
 10
89.35506888741118
 20
2.3199575201922
 30
0.0
 11
89.35506888741118
 21
1.999960083122532
 31
0.0
  0
LINE
  5
9C
330
A
100
AcDbEntity
  8
002
100
AcDbLine
 10
89.20006874887439
 20
2.239957727997364
 30
0.0
 11
90.00006926838731
 21
2.239957727997364
 31
0.0
  0
TEXT
  5
26B
330
A
100
AcDbEntity
  8
002
  6
Continuous
100
AcDbText
 10
89.37657066068188
 20
2.247457762631557
 30
0.0
 40
0.024999993243562
  1
１ｃｈ
 41
0.7
100
AcDbText
  0
TEXT
  5
4D4
330
A
100
AcDbEntity
  8
002
  6
Continuous
100
AcDbText
 10
89.96987616250633
 20
2.85745171993406
 30
0.0
 40
0.024999993243562
  1
RP102
 41
0.8
100
AcDbText
  0
TEXT
  5
4D5
330
A
100
AcDbEntity
  8
002
  6
Continuous
100
AcDbText
 10
89.3938470623277
 20
2.91995171993406
 30
0.0
 40
0.0399999901963199
  1
ＨＤ－ＳＤＩリピーター
 41
0.8
100
AcDbText
  0
TEXT
  5
4D7
330
A
100
AcDbEntity
  8
002
  6
Continuous
100
AcDbText
 10
89.37173486139398
 20
2.287456792874134
 30
0.0
 40
0.024999993243562
  1
ＤＣ１２Ｖ　最大３Ｗ／約２５０ｍＡ
 41
0.7
100
AcDbText
  0
TEXT
  5
4D9
330
A
100
AcDbEntity
  8
002
  6
Continuous
100
AcDbText
 10
89.37618102600337
 20
2.207457000679296
 30
0.0
 40
0.024999993243562
  1
２ｃｈ
 41
0.7
100
AcDbText
  0
TEXT
  5
4DA
330
A
100
AcDbEntity
  8
002
  6
Continuous
100
AcDbText
 10
89.2191954823158
 20
2.247457762631557
 30
0.0
 40
0.0249999769310372
  1
入力（ＢＮＣ）
 41
0.6
100
AcDbText
  0
TEXT
  5
4DC
330
A
100
AcDbEntity
  8
002
  6
Continuous
100
AcDbText
 10
89.2191954823158
 20
2.207457000679296
 30
0.0
 40
0.0249999769310372
  1
出力（ＢＮＣ）
 41
0.6
100
AcDbText
  0
TEXT
  5
4DD
330
A
100
AcDbEntity
  8
002
  6
Continuous
100
AcDbText
 10
89.2191954823158
 20
2.287456792874134
 30
0.0
 40
0.024999993243562
  1
消費電力
 41
0.8
100
AcDbText
  0
LINE
  5
651
330
A
100
AcDbEntity
  8
002
100
AcDbLine
 10
89.20006874887439
 20
2.03995911336511
 30
0.0
 11
90.00006926838731
 21
2.03995911336511
 31
0.0
  0
TEXT
  5
67A
330
A
100
AcDbEntity
  8
002
  6
Continuous
100
AcDbText
 10
89.37618143309117
 20
2.167457991642351
 30
0.0
 40
0.0249999769310372
  1
７２０ｐ　１０８０ｐ
 41
0.7
100
AcDbText
  0
TEXT
  5
67B
330
A
100
AcDbEntity
  8
002
  6
Continuous
100
AcDbText
 10
89.37618143309117
 20
2.127455506843804
 30
0.0
 40
0.0249999769310372
  1
約１２０ｍ（同軸ケーブル：５Ｃ－ＦＢ相当）
 41
0.7
100
AcDbText
  0
TEXT
  5
67C
330
A
100
AcDbEntity
  8
002
  6
Continuous
100
AcDbText
 10
89.37618143309117
 20
2.047457472458064
 30
0.0
 40
0.0249999769310372
  1
イコライザー、リ・クロッカー、ドライバー内臓
 41
0.7
100
AcDbText
  0
TEXT
  5
67D
330
A
100
AcDbEntity
  8
002
  6
Continuous
100
AcDbText
 10
89.21919599183686
 20
2.167457125788075
 30
0.0
 40
0.0249999769310372
  1
ビデオフォーマット
 41
0.5
100
AcDbText
  0
TEXT
  5
67F
330
A
100
AcDbEntity
  8
002
  6
Continuous
100
AcDbText
 10
89.21919599183686
 20
2.127457255790635
 30
0.0
 40
0.0249999769310372
  1
距　　　離
 41
0.8
100
AcDbText
  0
LINE
  5
689
330
A
100
AcDbEntity
  8
002
100
AcDbLine
 10
89.20006874887439
 20
1.999960083122532
 30
0.0
 11
90.00006926838731
 21
1.999960083122532
 31
0.0
  0
LINE
  5
74E
330
A
100
AcDbEntity
  8
002
100
AcDbLine
 10
89.20006874887439
 20
2.079958143607687
 30
0.0
 11
90.00006926838731
 21
2.079958143607687
 31
0.0
  0
TEXT
  5
74F
330
A
100
AcDbEntity
  8
002
  6
Continuous
100
AcDbText
 10
89.37618143309117
 20
2.087456502700641
 30
0.0
 40
0.0249999769310372
  1
約１００ｍ（同軸ケーブル：５Ｃ－２Ｖ相当）
 41
0.7
100
AcDbText
  0
TEXT
  5
847
330
A
100
AcDbEntity
  8
002
  6
Continuous
100
AcDbText
 10
89.21919599183686
 20
2.047460883237773
 30
0.0
 40
0.0249999769310372
  1
機　　　能
 41
0.8
100
AcDbText
  0
LINE
  5
E4D
330
A
100
AcDbEntity
  8
001
100
AcDbLine
 10
89.16919038320262
 20
2.960461503906528
 30
0.0
 11
89.23776181177554
 21
2.960461503906528
 31
0.0
  0
TEXT
  5
E4E
330
A
100
AcDbEntity
  8
001
100
AcDbText
 10
89.1783332403483
 20
2.925223408666438
 30
0.0
 40
0.0285714285714286
  1
ＲＰ
 41
0.8
 72
     4
 11
89.20347609749116
 21
2.940461503904533
 31
0.0
100
AcDbText
  0
LINE
  5
E4F
330
A
100
AcDbEntity
  8
001
100
AcDbLine
 10
89.23776181177554
 20
2.920461503906695
 30
0.0
 11
89.16919038320262
 21
2.920461503906695
 31
0.0
  0
LINE
  5
E50
330
A
100
AcDbEntity
  8
001
100
AcDbLine
 10
89.16919038320262
 20
2.960461503906528
 30
0.0
 11
89.16919038320262
 21
2.920461503906695
 31
0.0
  0
LINE
  5
E51
330
A
100
AcDbEntity
  8
001
100
AcDbLine
 10
89.23776181177554
 20
2.960461503906528
 30
0.0
 11
89.23776181177554
 21
2.920461503906695
 31
0.0
  0
SPLINE
  5
1A0F
330
A
100
AcDbEntity
  8
001
  6
Continuous
370
    15
100
AcDbSpline
210
0.0
220
0.0
230
1.0
 70
    24
 71
     1
 72
     4
 73
     2
 74
     0
 42
0.0000000001
 43
0.0000000001
 40
0.0
 40
0.0
 40
1.0
 40
1.0
 10
89.46697730568024
 20
2.737087330770592
 30
0.0
 10
89.40947730091187
 20
2.737087330770592
 30
0.0
  0
SPLINE
  5
1A10
330
A
100
AcDbEntity
  8
001
  6
Continuous
370
    15
100
AcDbSpline
210
0.0
220
0.0
230
1.0
 70
    24
 71
     1
 72
     4
 73
     2
 74
     0
 42
0.0000000001
 43
0.0000000001
 40
0.0
 40
0.0
 40
1.0
 40
1.0
 10
89.40947730091187
 20
2.689587336954573
 30
0.0
 10
89.46697730568024
 20
2.689587336954573
 30
0.0
  0
SPLINE
  5
1A11
330
A
100
AcDbEntity
  8
001
  6
Continuous
370
    15
100
AcDbSpline
210
0.0
220
0.0
230
1.0
 70
    24
 71
     1
 72
     4
 73
     2
 74
     0
 42
0.0000000001
 43
0.0000000001
 40
0.0
 40
0.0
 40
1.0
 40
1.0
 10
89.84877729785415
 20
2.673437337380747
 30
0.0
 10
89.86477729861411
 20
2.673437337380747
 30
0.0
  0
SPLINE
  5
1A12
330
A
100
AcDbEntity
  8
001
  6
Continuous
370
    15
100
AcDbSpline
210
0.0
220
0.0
230
1.0
 70
    24
 71
     1
 72
     4
 73
     2
 74
     0
 42
0.0000000001
 43
0.0000000001
 40
0.0
 40
0.0
 40
1.0
 40
1.0
 10
89.81047729958566
 20
2.673437337380747
 30
0.0
 10
89.83884278681847
 20
2.673437337380747
 30
0.0
  0
SPLINE
  5
1A13
330
A
100
AcDbEntity
  8
001
  6
Continuous
370
    15
100
AcDbSpline
210
0.0
220
0.0
230
1.0
 70
    24
 71
     1
 72
     4
 73
     2
 74
     0
 42
0.0000000001
 43
0.0000000001
 40
0.0
 40
0.0
 40
1.0
 40
1.0
 10
89.83877729621502
 20
2.720937340509991
 30
0.0
 10
89.81047729958566
 20
2.720937340509991
 30
0.0
  0
SPLINE
  5
1A14
330
A
100
AcDbEntity
  8
001
  6
Continuous
370
    15
100
AcDbSpline
210
0.0
220
0.0
230
1.0
 70
    24
 71
     1
 72
     4
 73
     2
 74
     0
 42
0.0000000001
 43
0.0000000001
 40
0.0
 40
0.0
 40
1.0
 40
1.0
 10
89.86477729861411
 20
2.720937340509991
 30
0.0
 10
89.8487118072507
 20
2.720937340509991
 30
0.0
  0
SPLINE
  5
1A15
330
A
100
AcDbEntity
  8
001
  6
Continuous
370
    15
100
AcDbSpline
210
0.0
220
0.0
230
1.0
 70
    24
 71
     1
 72
     4
 73
     2
 74
     0
 42
0.0000000001
 43
0.0000000001
 40
0.0
 40
0.0
 40
1.0
 40
1.0
 10
89.84877729785415
 20
2.593437335909257
 30
0.0
 10
89.86477729861411
 20
2.593437335909257
 30
0.0
  0
SPLINE
  5
1A16
330
A
100
AcDbEntity
  8
001
  6
Continuous
370
    15
100
AcDbSpline
210
0.0
220
0.0
230
1.0
 70
    24
 71
     1
 72
     4
 73
     2
 74
     0
 42
0.0000000001
 43
0.0000000001
 40
0.0
 40
0.0
 40
1.0
 40
1.0
 10
89.81047729958566
 20
2.593437335909257
 30
0.0
 10
89.83884278681847
 20
2.593437335909257
 30
0.0
  0
SPLINE
  5
1A17
330
A
100
AcDbEntity
  8
001
  6
Continuous
370
    15
100
AcDbSpline
210
0.0
220
0.0
230
1.0
 70
    24
 71
     1
 72
     4
 73
     2
 74
     0
 42
0.0000000001
 43
0.0000000001
 40
0.0
 40
0.0
 40
1.0
 40
1.0
 10
89.83884278681847
 20
2.640937336710194
 30
0.0
 10
89.81047729958566
 20
2.640937336710194
 30
0.0
  0
SPLINE
  5
1A18
330
A
100
AcDbEntity
  8
001
  6
Continuous
370
    15
100
AcDbSpline
210
0.0
220
0.0
230
1.0
 70
    24
 71
     1
 72
     4
 73
     2
 74
     0
 42
0.0000000001
 43
0.0000000001
 40
0.0
 40
0.0
 40
1.0
 40
1.0
 10
89.86477729861411
 20
2.640937336710194
 30
0.0
 10
89.84877729785415
 20
2.640937336710194
 30
0.0
  0
SPLINE
  5
1A19
330
A
100
AcDbEntity
  8
001
  6
Continuous
370
    15
100
AcDbSpline
210
0.0
220
0.0
230
1.0
 70
    24
 71
     1
 72
     4
 73
     2
 74
     0
 42
0.0000000001
 43
0.0000000001
 40
0.0
 40
0.0
 40
1.0
 40
1.0
 10
89.80447730046483
 20
2.589187337308104
 30
0.0
 10
89.81047729958566
 20
2.589187337308104
 30
0.0
  0
SPLINE
  5
1A1A
330
A
100
AcDbEntity
  8
001
  6
Continuous
370
    15
100
AcDbSpline
210
0.0
220
0.0
230
1.0
 70
    24
 71
     1
 72
     4
 73
     2
 74
     0
 42
0.0000000001
 43
0.0000000001
 40
0.0
 40
0.0
 40
1.0
 40
1.0
 10
89.80447730046483
 20
2.669187339943746
 30
0.0
 10
89.81047729958566
 20
2.669187339943746
 30
0.0
  0
SPLINE
  5
1A1B
330
A
100
AcDbEntity
  8
001
  6
Continuous
370
    15
100
AcDbSpline
210
0.0
220
0.0
230
1.0
 70
    24
 71
     1
 72
     4
 73
     2
 74
     0
 42
0.0000000001
 43
0.0000000001
 40
0.0
 40
0.0
 40
1.0
 40
1.0
 10
89.81047729958566
 20
2.645187338803808
 30
0.0
 10
89.80447730046483
 20
2.645187338803808
 30
0.0
  0
SPLINE
  5
1A1C
330
A
100
AcDbEntity
  8
001
  6
Continuous
370
    15
100
AcDbSpline
210
0.0
220
0.0
230
1.0
 70
    24
 71
     1
 72
     4
 73
     2
 74
     0
 42
0.0000000001
 43
0.0000000001
 40
0.0
 40
0.0
 40
1.0
 40
1.0
 10
89.81047729958566
 20
2.725187337946991
 30
0.0
 10
89.80447730046483
 20
2.725187337946991
 30
0.0
  0
SPLINE
  5
1A1D
330
A
100
AcDbEntity
  8
001
  6
Continuous
370
    15
100
AcDbSpline
210
0.0
220
0.0
230
1.0
 70
    24
 71
     1
 72
     4
 73
     2
 74
     0
 42
0.0000000001
 43
0.0000000001
 40
0.0
 40
0.0
 40
1.0
 40
1.0
 10
89.84877729785415
 20
2.640937336710194
 30
0.0
 10
89.84877729785415
 20
2.644687334996561
 30
0.0
  0
SPLINE
  5
1A1E
330
A
100
AcDbEntity
  8
001
  6
Continuous
370
    15
100
AcDbSpline
210
0.0
220
0.0
230
1.0
 70
    24
 71
     1
 72
     4
 73
     2
 74
     0
 42
0.0000000001
 43
0.0000000001
 40
0.0
 40
0.0
 40
1.0
 40
1.0
 10
89.83877729621502
 20
2.644687334996561
 30
0.0
 10
89.83877729621502
 20
2.640923678864638
 30
0.0
  0
SPLINE
  5
1A1F
330
A
100
AcDbEntity
  8
001
  6
Continuous
370
    15
100
AcDbSpline
210
0.0
220
0.0
230
1.0
 70
    24
 71
     1
 72
     4
 73
     2
 74
     0
 42
0.0000000001
 43
0.0000000001
 40
0.0
 40
0.0
 40
1.0
 40
1.0
 10
89.84877729785415
 20
2.589687336458737
 30
0.0
 10
89.84877729785415
 20
2.593437335909257
 30
0.0
  0
SPLINE
  5
1A20
330
A
100
AcDbEntity
  8
001
  6
Continuous
370
    15
100
AcDbSpline
210
0.0
220
0.0
230
1.0
 70
    24
 71
     1
 72
     4
 73
     2
 74
     0
 42
0.0000000001
 43
0.0000000001
 40
0.0
 40
0.0
 40
1.0
 40
1.0
 10
89.83877729621502
 20
2.59345099608312
 30
0.0
 10
89.83877729621502
 20
2.589687336458737
 30
0.0
  0
SPLINE
  5
1A21
330
A
100
AcDbEntity
  8
001
  6
Continuous
370
    15
100
AcDbSpline
210
0.0
220
0.0
230
1.0
 70
    24
 71
     1
 72
     4
 73
     2
 74
     0
 42
0.0000000001
 43
0.0000000001
 40
0.0
 40
0.0
 40
1.0
 40
1.0
 10
89.83877729621502
 20
2.724687338796357
 30
0.0
 10
89.83877729621502
 20
2.720937340509991
 30
0.0
  0
SPLINE
  5
1A22
330
A
100
AcDbEntity
  8
001
  6
Continuous
370
    15
100
AcDbSpline
210
0.0
220
0.0
230
1.0
 70
    24
 71
     1
 72
     4
 73
     2
 74
     0
 42
0.0000000001
 43
0.0000000001
 40
0.0
 40
0.0
 40
1.0
 40
1.0
 10
89.84877729785415
 20
2.720923678007821
 30
0.0
 10
89.84877729785415
 20
2.724687338796357
 30
0.0
  0
SPLINE
  5
1A23
330
A
100
AcDbEntity
  8
001
  6
Continuous
370
    15
100
AcDbSpline
210
0.0
220
0.0
230
1.0
 70
    24
 71
     1
 72
     4
 73
     2
 74
     0
 42
0.0000000001
 43
0.0000000001
 40
0.0
 40
0.0
 40
1.0
 40
1.0
 10
89.83877729621502
 20
2.673450999882916
 30
0.0
 10
89.83877729621502
 20
2.66968733909438
 30
0.0
  0
SPLINE
  5
1A24
330
A
100
AcDbEntity
  8
001
  6
Continuous
370
    15
100
AcDbSpline
210
0.0
220
0.0
230
1.0
 70
    24
 71
     1
 72
     4
 73
     2
 74
     0
 42
0.0000000001
 43
0.0000000001
 40
0.0
 40
0.0
 40
1.0
 40
1.0
 10
89.84877729785415
 20
2.66968733909438
 30
0.0
 10
89.84877729785415
 20
2.673437337380747
 30
0.0
  0
LINE
  5
1A25
330
A
100
AcDbEntity
  8
001
  6
Continuous
370
    15
100
AcDbLine
 10
89.50447730717035
 20
2.759937330138782
 30
0.0
 11
89.51447729018303
 21
2.759937330138782
 31
0.0
  0
LINE
  5
1A26
330
A
100
AcDbEntity
  8
001
  6
Continuous
370
    15
100
AcDbLine
 10
89.50447730717035
 20
2.784937343549827
 30
0.0
 11
89.51447729018303
 21
2.784937343549827
 31
0.0
  0
LINE
  5
1A27
330
A
100
AcDbEntity
  8
001
  6
Continuous
370
    15
100
AcDbLine
 10
89.51447729018303
 20
2.759937330138782
 30
0.0
 11
89.51447729018303
 21
2.763464025211433
 31
0.0
  0
LINE
  5
1A28
330
A
100
AcDbEntity
  8
001
  6
Continuous
370
    15
100
AcDbLine
 10
89.51447729018303
 20
2.782937328320841
 30
0.0
 11
89.51447729018303
 21
2.784937343549827
 31
0.0
  0
LINE
  5
1A29
330
A
100
AcDbEntity
  8
001
  6
Continuous
370
    15
100
AcDbLine
 10
89.50447730717035
 20
2.759937330138782
 30
0.0
 11
89.50447730717035
 21
2.784937343549827
 31
0.0
  0
LINE
  5
1A2A
330
A
100
AcDbEntity
  8
001
  6
Continuous
370
    15
100
AcDbLine
 10
89.50447730717035
 20
2.554437336967239
 30
0.0
 11
89.51447729018303
 21
2.554437336967239
 31
0.0
  0
LINE
  5
1A2B
330
A
100
AcDbEntity
  8
001
  6
Continuous
370
    15
100
AcDbLine
 10
89.51447729018303
 20
2.759937330138782
 30
0.0
 11
89.51447729018303
 21
2.554437336967239
 31
0.0
  0
LINE
  5
1A2C
330
A
100
AcDbEntity
  8
001
  6
Continuous
370
    15
100
AcDbLine
 10
89.50447730717035
 20
2.759937330138782
 30
0.0
 11
89.50447730717035
 21
2.554437336967239
 31
0.0
  0
LINE
  5
1A2D
330
A
100
AcDbEntity
  8
001
  6
Continuous
370
    15
100
AcDbLine
 10
89.50447730717035
 20
2.529437335197727
 30
0.0
 11
89.51447729018303
 21
2.529437335197727
 31
0.0
  0
LINE
  5
1A2E
330
A
100
AcDbEntity
  8
001
  6
Continuous
370
    15
100
AcDbLine
 10
89.51447729018303
 20
2.529437335197727
 30
0.0
 11
89.51447729018303
 21
2.531437336456875
 31
0.0
  0
LINE
  5
1A2F
330
A
100
AcDbEntity
  8
001
  6
Continuous
370
    15
100
AcDbLine
 10
89.51447729018303
 20
2.550910653536121
 30
0.0
 11
89.51447729018303
 21
2.554437336967239
 31
0.0
  0
LINE
  5
1A30
330
A
100
AcDbEntity
  8
001
  6
Continuous
370
    15
100
AcDbLine
 10
89.50447730717035
 20
2.529437335197727
 30
0.0
 11
89.50447730717035
 21
2.554437336967239
 31
0.0
  0
CIRCLE
  5
1A31
330
A
100
AcDbEntity
  8
001
  6
Continuous
370
    15
100
AcDbCircle
 10
89.43393901029297
 20
2.713337336993936
 30
0.0
 40
0.005
  0
LINE
  5
1A32
330
A
100
AcDbEntity
  8
001
  6
Continuous
370
    15
100
AcDbLine
 10
89.46697730568024
 20
2.689587336954573
 30
0.0
 11
89.49197730046483
 21
2.689587336954573
 31
0.0
  0
LINE
  5
1A33
330
A
100
AcDbEntity
  8
001
  6
Continuous
370
    15
100
AcDbLine
 10
89.46697730568024
 20
2.689587336954573
 30
0.0
 11
89.46697730568024
 21
2.737087330770592
 31
0.0
  0
LINE
  5
1A34
330
A
100
AcDbEntity
  8
001
  6
Continuous
370
    15
100
AcDbLine
 10
89.46697730568024
 20
2.737087330770592
 30
0.0
 11
89.49197730046483
 21
2.737087330770592
 31
0.0
  0
LINE
  5
1A35
330
A
100
AcDbEntity
  8
001
  6
Continuous
370
    15
100
AcDbLine
 10
89.40947730091187
 20
2.689587336954573
 30
0.0
 11
89.40947730091187
 21
2.737087330770592
 31
0.0
  0
ARC
  5
1A36
330
A
100
AcDbEntity
  8
001
  6
Continuous
370
    15
100
AcDbCircle
 10
89.84377771241884
 20
2.64996790410989
 30
0.0
 40
0.0239960445194701
100
AcDbArc
 50
77.97430112682199
 51
101.8678913211269
  0
LINE
  5
1A37
330
A
100
AcDbEntity
  8
001
  6
Continuous
370
    15
100
AcDbLine
 10
89.86477729861411
 20
2.673437337380747
 30
0.0
 11
89.86477729861411
 21
2.720937340509991
 31
0.0
  0
ARC
  5
1A38
330
A
100
AcDbEntity
  8
001
  6
Continuous
370
    15
100
AcDbCircle
 10
89.84377687847127
 20
2.74440446532426
 30
0.0
 40
0.023993786066107
100
AcDbArc
 50
257.9731600280488
 51
281.8690324200114
  0
LINE
  5
1A39
330
A
100
AcDbEntity
  8
001
  6
Continuous
370
    15
100
AcDbLine
 10
89.81047729958566
 20
2.695301373478869
 30
0.0
 11
89.81047729958566
 21
2.699073304411868
 31
0.0
  0
LINE
  5
1A3A
330
A
100
AcDbEntity
  8
001
  6
Continuous
370
    15
100
AcDbLine
 10
89.86477729861411
 20
2.640937336710194
 30
0.0
 11
89.86477729861411
 21
2.593437335909257
 31
0.0
  0
SPLINE
  5
1A3B
330
A
100
AcDbEntity
  8
001
  6
Continuous
370
    15
100
AcDbSpline
210
0.0
220
0.0
230
1.0
 70
     8
 71
     3
 72
    17
 73
    13
 74
     0
 42
0.0000000001
 43
0.0000000001
 40
0.0
 40
0.0
 40
0.0
 40
0.0
 40
0.1057753823457715
 40
0.2114961204753472
 40
0.3186306948568562
 40
0.4268334169062297
 40
0.5334580432507271
 40
0.6383065259356209
 40
0.7439528519277224
 40
0.851703864794255
 40
0.9596331593270544
 40
1.0
 40
1.0
 40
1.0
 40
1.0
 10
89.84877729785415
 20
2.640937336710194
 30
0.0
 10
89.84872324919795
 20
2.640925655448682
 30
0.0
 10
89.84861517980741
 20
2.640902298960282
 30
0.0
 10
89.84777420002805
 20
2.64073897972934
 30
0.0
 10
89.84652633402847
 20
2.640552840610635
 30
0.0
 10
89.84494932724988
 20
2.640414357983227
 30
0.0
 10
89.84324870371006
 20
2.64039072161766
 30
0.0
 10
89.84162627623389
 20
2.64048788517137
 30
0.0
 10
89.84022984981235
 20
2.640664604631729
 30
0.0
 10
89.83924798356275
 20
2.640838593291228
 30
0.0
 10
89.83876379895402
 20
2.640940128949969
 30
0.0
 10
89.83882588636131
 20
2.640927180268027
 30
0.0
 10
89.83884278681847
 20
2.640923655581573
 30
0.0
  0
ARC
  5
1A3C
330
A
100
AcDbEntity
  8
001
  6
Continuous
370
    15
100
AcDbCircle
 10
89.84377771401533
 20
2.569969061933207
 30
0.0
 40
0.0239949103348212
100
AcDbArc
 50
77.97372809977218
 51
101.8684643482553
  0
LINE
  5
1A3D
330
A
100
AcDbEntity
  8
001
  6
Continuous
370
    15
100
AcDbLine
 10
89.81047729958566
 20
2.619073305268685
 30
0.0
 11
89.81047729958566
 21
2.615301369679073
 31
0.0
  0
LINE
  5
1A3E
330
A
100
AcDbEntity
  8
001
  6
Continuous
370
    15
100
AcDbLine
 10
89.81047729958566
 20
2.712137068611482
 30
0.0
 11
89.80447730046483
 21
2.712137068611482
 31
0.0
  0
LINE
  5
1A3F
330
A
100
AcDbEntity
  8
001
  6
Continuous
370
    15
100
AcDbLine
 10
89.81047729958566
 20
2.712137068611482
 30
0.0
 11
89.81047729958566
 21
2.699073304411868
 31
0.0
  0
LINE
  5
1A40
330
A
100
AcDbEntity
  8
001
  6
Continuous
370
    15
100
AcDbLine
 10
89.81047729958566
 20
2.695301373478869
 30
0.0
 11
89.81047729958566
 21
2.682237609279255
 31
0.0
  0
LINE
  5
1A41
330
A
100
AcDbEntity
  8
001
  6
Continuous
370
    15
100
AcDbLine
 10
89.81047729958566
 20
2.682237609279255
 30
0.0
 11
89.80447730046483
 21
2.682237609279255
 31
0.0
  0
LINE
  5
1A42
330
A
100
AcDbEntity
  8
001
  6
Continuous
370
    15
100
AcDbLine
 10
89.81047729958566
 20
2.602237607807765
 30
0.0
 11
89.80447730046483
 21
2.602237607807765
 31
0.0
  0
LINE
  5
1A43
330
A
100
AcDbEntity
  8
001
  6
Continuous
370
    15
100
AcDbLine
 10
89.81047729958566
 20
2.602237607807765
 30
0.0
 11
89.81047729958566
 21
2.589187337308104
 31
0.0
  0
LINE
  5
1A44
330
A
100
AcDbEntity
  8
001
  6
Continuous
370
    15
100
AcDbLine
 10
89.81047729958566
 20
2.632137064811686
 30
0.0
 11
89.80447730046483
 21
2.632137064811686
 31
0.0
  0
LINE
  5
1A45
330
A
100
AcDbEntity
  8
001
  6
Continuous
370
    15
100
AcDbLine
 10
89.81047729958566
 20
2.632137064811686
 30
0.0
 11
89.81047729958566
 21
2.619073305268685
 31
0.0
  0
LINE
  5
1A46
330
A
100
AcDbEntity
  8
001
  6
Continuous
370
    15
100
AcDbLine
 10
89.81047729958566
 20
2.615301369679073
 30
0.0
 11
89.81047729958566
 21
2.602237607807765
 31
0.0
  0
LINE
  5
1A47
330
A
100
AcDbEntity
  8
001
  6
Continuous
370
    15
100
AcDbLine
 10
89.81047729958566
 20
2.682237609279255
 30
0.0
 11
89.81047729958566
 21
2.669187339943746
 31
0.0
  0
LINE
  5
1A48
330
A
100
AcDbEntity
  8
001
  6
Continuous
370
    15
100
AcDbLine
 10
89.81047729958566
 20
2.645187338803808
 30
0.0
 11
89.81047729958566
 21
2.632137064811686
 31
0.0
  0
LINE
  5
1A49
330
A
100
AcDbEntity
  8
001
  6
Continuous
370
    15
100
AcDbLine
 10
89.81047729958566
 20
2.725187337946991
 30
0.0
 11
89.81047729958566
 21
2.712137068611482
 31
0.0
  0
LINE
  5
1A4A
330
A
100
AcDbEntity
  8
001
  6
Continuous
370
    15
100
AcDbLine
 10
89.84877729785415
 20
2.644687334996561
 30
0.0
 11
89.83877729621502
 21
2.644687334996561
 31
0.0
  0
LINE
  5
1A4B
330
A
100
AcDbEntity
  8
001
  6
Continuous
370
    15
100
AcDbLine
 10
89.84877729785415
 20
2.589687336458737
 30
0.0
 11
89.83877729621502
 21
2.589687336458737
 31
0.0
  0
LINE
  5
1A4C
330
A
100
AcDbEntity
  8
001
  6
Continuous
370
    15
100
AcDbLine
 10
89.84877729785415
 20
2.724687338796357
 30
0.0
 11
89.83877729621502
 21
2.724687338796357
 31
0.0
  0
LINE
  5
1A4D
330
A
100
AcDbEntity
  8
001
  6
Continuous
370
    15
100
AcDbLine
 10
89.84877729785415
 20
2.66968733909438
 30
0.0
 11
89.83877729621502
 21
2.66968733909438
 31
0.0
  0
LINE
  5
1A4E
330
A
100
AcDbEntity
  8
001
  6
Continuous
370
    15
100
AcDbLine
 10
89.7944772988257
 20
2.748676168722013
 30
0.0
 11
89.51447729018303
 21
2.748676168722013
 31
0.0
  0
LINE
  5
1A4F
330
A
100
AcDbEntity
  8
001
  6
Continuous
370
    15
100
AcDbLine
 10
89.7944772988257
 20
2.746198496770958
 30
0.0
 11
89.51447729018303
 21
2.746198496770958
 31
0.0
  0
LINE
  5
1A50
330
A
100
AcDbEntity
  8
001
  6
Continuous
370
    15
100
AcDbLine
 10
89.7944772988257
 20
2.753676178854803
 30
0.0
 11
89.51447729018303
 21
2.753676178854803
 31
0.0
  0
LINE
  5
1A51
330
A
100
AcDbEntity
  8
001
  6
Continuous
370
    15
100
AcDbLine
 10
89.7944772988257
 20
2.751198506903747
 30
0.0
 11
89.51447729018303
 21
2.751198506903747
 31
0.0
  0
LINE
  5
1A52
330
A
100
AcDbEntity
  8
001
  6
Continuous
370
    15
100
AcDbLine
 10
89.7944772988257
 20
2.743676177215675
 30
0.0
 11
89.51447729018303
 21
2.743676177215675
 31
0.0
  0
LINE
  5
1A53
330
A
100
AcDbEntity
  8
001
  6
Continuous
370
    15
100
AcDbLine
 10
89.7944772988257
 20
2.74119850526462
 30
0.0
 11
89.51447729018303
 21
2.74119850526462
 31
0.0
  0
LINE
  5
1A54
330
A
100
AcDbEntity
  8
001
  6
Continuous
370
    15
100
AcDbLine
 10
89.7944772988257
 20
2.56817617615583
 30
0.0
 11
89.51447729018303
 21
2.56817617615583
 31
0.0
  0
LINE
  5
1A55
330
A
100
AcDbEntity
  8
001
  6
Continuous
370
    15
100
AcDbLine
 10
89.7944772988257
 20
2.565698497801932
 30
0.0
 11
89.51447729018303
 21
2.565698497801932
 31
0.0
  0
LINE
  5
1A56
330
A
100
AcDbEntity
  8
001
  6
Continuous
370
    15
100
AcDbLine
 10
89.7944772988257
 20
2.573176176102279
 30
0.0
 11
89.51447729018303
 21
2.573176176102279
 31
0.0
  0
LINE
  5
1A57
330
A
100
AcDbEntity
  8
001
  6
Continuous
370
    15
100
AcDbLine
 10
89.7944772988257
 20
2.57069849793028
 30
0.0
 11
89.51447729018303
 21
2.57069849793028
 31
0.0
  0
LINE
  5
1A58
330
A
100
AcDbEntity
  8
001
  6
Continuous
370
    15
100
AcDbLine
 10
89.7944772988257
 20
2.576945891360665
 30
0.0
 11
89.51447729018303
 21
2.576945891360665
 31
0.0
  0
LINE
  5
1A59
330
A
100
AcDbEntity
  8
001
  6
Continuous
370
    15
100
AcDbLine
 10
89.7944772988257
 20
2.575734432485333
 30
0.0
 11
89.51447729018303
 21
2.575734432485333
 31
0.0
  0
LINE
  5
1A5A
330
A
100
AcDbEntity
  8
001
  6
Continuous
370
    15
100
AcDbLine
 10
89.7944772988257
 20
2.738640236657957
 30
0.0
 11
89.51447729018303
 21
2.738640236657957
 31
0.0
  0
LINE
  5
1A5B
330
A
100
AcDbEntity
  8
001
  6
Continuous
370
    15
100
AcDbLine
 10
89.7944772988257
 20
2.737428790879349
 30
0.0
 11
89.51447729018303
 21
2.737428790879349
 31
0.0
  0
LINE
  5
1A5C
330
A
100
AcDbEntity
  8
001
  6
Continuous
370
    15
100
AcDbLine
 10
89.7944772988257
 20
2.563176175918343
 30
0.0
 11
89.51447729018303
 21
2.563176175918343
 31
0.0
  0
LINE
  5
1A5D
330
A
100
AcDbEntity
  8
001
  6
Continuous
370
    15
100
AcDbLine
 10
89.7944772988257
 20
2.560698497564445
 30
0.0
 11
89.51447729018303
 21
2.560698497564445
 31
0.0
  0
LINE
  5
1A5E
330
A
100
AcDbEntity
  8
001
  6
Continuous
370
    15
100
AcDbLine
 10
89.7944772988257
 20
2.77043734024177
 30
0.0
 11
89.51447729018303
 21
2.77043734024177
 31
0.0
  0
LINE
  5
1A5F
330
A
100
AcDbEntity
  8
001
  6
Continuous
370
    15
100
AcDbLine
 10
89.7944772988257
 20
2.757437343698839
 30
0.0
 11
89.51447729018303
 21
2.757437343698839
 31
0.0
  0
LINE
  5
1A60
330
A
100
AcDbEntity
  8
001
  6
Continuous
370
    15
100
AcDbLine
 10
89.51447729018303
 20
2.77043734024177
 30
0.0
 11
89.51447729018303
 21
2.763464025211433
 31
0.0
  0
LINE
  5
1A61
330
A
100
AcDbEntity
  8
001
  6
Continuous
370
    15
100
AcDbLine
 10
89.7944772988257
 20
2.77043734024177
 30
0.0
 11
89.7944772988257
 21
2.763464025211433
 31
0.0
  0
LINE
  5
1A62
330
A
100
AcDbEntity
  8
001
  6
Continuous
370
    15
100
AcDbLine
 10
89.7944772988257
 20
2.782937328320841
 30
0.0
 11
89.51447729018303
 21
2.782937328320841
 31
0.0
  0
LINE
  5
1A63
330
A
100
AcDbEntity
  8
001
  6
Continuous
370
    15
100
AcDbLine
 10
89.51447729018303
 20
2.782937328320841
 30
0.0
 11
89.51447729018303
 21
2.77043734024177
 31
0.0
  0
LINE
  5
1A64
330
A
100
AcDbEntity
  8
001
  6
Continuous
370
    15
100
AcDbLine
 10
89.7944772988257
 20
2.782937328320841
 30
0.0
 11
89.7944772988257
 21
2.77043734024177
 31
0.0
  0
LINE
  5
1A65
330
A
100
AcDbEntity
  8
001
  6
Continuous
370
    15
100
AcDbLine
 10
89.7944772988257
 20
2.756198498410086
 30
0.0
 11
89.51447729018303
 21
2.756198498410086
 31
0.0
  0
LINE
  5
1A66
330
A
100
AcDbEntity
  8
001
  6
Continuous
370
    15
100
AcDbLine
 10
89.7944772988257
 20
2.543937336177478
 30
0.0
 11
89.51447729018303
 21
2.543937336177478
 31
0.0
  0
LINE
  5
1A67
330
A
100
AcDbEntity
  8
001
  6
Continuous
370
    15
100
AcDbLine
 10
89.7944772988257
 20
2.531437336456875
 30
0.0
 11
89.51447729018303
 21
2.531437336456875
 31
0.0
  0
LINE
  5
1A68
330
A
100
AcDbEntity
  8
001
  6
Continuous
370
    15
100
AcDbLine
 10
89.51447729018303
 20
2.531437336456875
 30
0.0
 11
89.51447729018303
 21
2.543937336177478
 31
0.0
  0
LINE
  5
1A69
330
A
100
AcDbEntity
  8
001
  6
Continuous
370
    15
100
AcDbLine
 10
89.7944772988257
 20
2.531437336456875
 30
0.0
 11
89.7944772988257
 21
2.543937336177478
 31
0.0
  0
LINE
  5
1A6A
330
A
100
AcDbEntity
  8
001
  6
Continuous
370
    15
100
AcDbLine
 10
89.7944772988257
 20
2.558176175680856
 30
0.0
 11
89.51447729018303
 21
2.558176175680856
 31
0.0
  0
LINE
  5
1A6B
330
A
100
AcDbEntity
  8
001
  6
Continuous
370
    15
100
AcDbLine
 10
89.7944772988257
 20
2.556937337377021
 30
0.0
 11
89.51447729018303
 21
2.556937337377021
 31
0.0
  0
LINE
  5
1A6C
330
A
100
AcDbEntity
  8
001
  6
Continuous
370
    15
100
AcDbLine
 10
89.51447729018303
 20
2.550910653536121
 30
0.0
 11
89.51447729018303
 21
2.543937336177478
 31
0.0
  0
LINE
  5
1A6D
330
A
100
AcDbEntity
  8
001
  6
Continuous
370
    15
100
AcDbLine
 10
89.7944772988257
 20
2.550910653536121
 30
0.0
 11
89.7944772988257
 21
2.543937336177478
 31
0.0
  0
LINE
  5
1A6E
330
A
100
AcDbEntity
  8
001
  6
Continuous
370
    15
100
AcDbLine
 10
89.7944772988257
 20
2.57516421219465
 30
0.0
 11
89.51447729018303
 21
2.57516421219465
 31
0.0
  0
LINE
  5
1A6F
330
A
100
AcDbEntity
  8
001
  6
Continuous
370
    15
100
AcDbLine
 10
89.7944772988257
 20
2.739210466843942
 30
0.0
 11
89.51447729018303
 21
2.739210466843942
 31
0.0
  0
LINE
  5
1A70
330
A
100
AcDbEntity
  8
001
  6
Continuous
370
    15
100
AcDbLine
 10
89.7944772988257
 20
2.74921046848307
 30
0.0
 11
89.51447729018303
 21
2.74921046848307
 31
0.0
  0
LINE
  5
1A71
330
A
100
AcDbEntity
  8
001
  6
Continuous
370
    15
100
AcDbLine
 10
89.7944772988257
 20
2.745664215636352
 30
0.0
 11
89.51447729018303
 21
2.745664215636352
 31
0.0
  0
LINE
  5
1A72
330
A
100
AcDbEntity
  8
001
  6
Continuous
370
    15
100
AcDbLine
 10
89.7944772988257
 20
2.75066420714269
 30
0.0
 11
89.51447729018303
 21
2.75066420714269
 31
0.0
  0
LINE
  5
1A73
330
A
100
AcDbEntity
  8
001
  6
Continuous
370
    15
100
AcDbLine
 10
89.7944772988257
 20
2.754210459989408
 30
0.0
 11
89.51447729018303
 21
2.754210459989408
 31
0.0
  0
LINE
  5
1A74
330
A
100
AcDbEntity
  8
001
  6
Continuous
370
    15
100
AcDbLine
 10
89.7944772988257
 20
2.744210458350281
 30
0.0
 11
89.51447729018303
 21
2.744210458350281
 31
0.0
  0
LINE
  5
1A75
330
A
100
AcDbEntity
  8
001
  6
Continuous
370
    15
100
AcDbLine
 10
89.7944772988257
 20
2.75566421727548
 30
0.0
 11
89.51447729018303
 21
2.75566421727548
 31
0.0
  0
LINE
  5
1A76
330
A
100
AcDbEntity
  8
001
  6
Continuous
370
    15
100
AcDbLine
 10
89.7944772988257
 20
2.740664205503563
 30
0.0
 11
89.51447729018303
 21
2.740664205503563
 31
0.0
  0
LINE
  5
1A77
330
A
100
AcDbEntity
  8
001
  6
Continuous
370
    15
100
AcDbLine
 10
89.7944772988257
 20
2.563710461709561
 30
0.0
 11
89.51447729018303
 21
2.563710461709561
 31
0.0
  0
LINE
  5
1A78
330
A
100
AcDbEntity
  8
001
  6
Continuous
370
    15
100
AcDbLine
 10
89.7944772988257
 20
2.560164211773226
 30
0.0
 11
89.51447729018303
 21
2.560164211773226
 31
0.0
  0
LINE
  5
1A79
330
A
100
AcDbEntity
  8
001
  6
Continuous
370
    15
100
AcDbLine
 10
89.7944772988257
 20
2.573710461602459
 30
0.0
 11
89.51447729018303
 21
2.573710461602459
 31
0.0
  0
LINE
  5
1A7A
330
A
100
AcDbEntity
  8
001
  6
Continuous
370
    15
100
AcDbLine
 10
89.7944772988257
 20
2.565164212010714
 30
0.0
 11
89.51447729018303
 21
2.565164212010714
 31
0.0
  0
LINE
  5
1A7B
330
A
100
AcDbEntity
  8
001
  6
Continuous
370
    15
100
AcDbLine
 10
89.7944772988257
 20
2.558710461472074
 30
0.0
 11
89.51447729018303
 21
2.558710461472074
 31
0.0
  0
LINE
  5
1A7C
330
A
100
AcDbEntity
  8
001
  6
Continuous
370
    15
100
AcDbLine
 10
89.7944772988257
 20
2.56871046165601
 30
0.0
 11
89.51447729018303
 21
2.56871046165601
 31
0.0
  0
LINE
  5
1A7D
330
A
100
AcDbEntity
  8
001
  6
Continuous
370
    15
100
AcDbLine
 10
89.7944772988257
 20
2.570164212248201
 30
0.0
 11
89.51447729018303
 21
2.570164212248201
 31
0.0
  0
LINE
  5
1A7E
330
A
100
AcDbEntity
  8
001
  6
Continuous
370
    15
100
AcDbLine
 10
89.7944772988257
 20
2.526437335637311
 30
0.0
 11
89.51447729018303
 21
2.526437335637311
 31
0.0
  0
LINE
  5
1A7F
330
A
100
AcDbEntity
  8
001
  6
Continuous
370
    15
100
AcDbLine
 10
89.51447729018303
 20
2.526437335637311
 30
0.0
 11
89.51447729018303
 21
2.529437335197727
 31
0.0
  0
LINE
  5
1A80
330
A
100
AcDbEntity
  8
001
  6
Continuous
370
    15
100
AcDbLine
 10
89.7944772988257
 20
2.526437335637311
 30
0.0
 11
89.7944772988257
 21
2.529437335197727
 31
0.0
  0
LINE
  5
1A81
330
A
100
AcDbEntity
  8
001
  6
Continuous
370
    15
100
AcDbLine
 10
89.65447729450437
 20
2.78793733845363
 30
0.0
 11
89.51447729018303
 21
2.78793733845363
 31
0.0
  0
LINE
  5
1A82
330
A
100
AcDbEntity
  8
001
  6
Continuous
370
    15
100
AcDbLine
 10
89.7944772988257
 20
2.78793733845363
 30
0.0
 11
89.65447729450437
 21
2.78793733845363
 31
0.0
  0
LINE
  5
1A83
330
A
100
AcDbEntity
  8
001
  6
Continuous
370
    15
100
AcDbLine
 10
89.51447729018303
 20
2.78793733845363
 30
0.0
 11
89.51447729018303
 21
2.784937343549827
 31
0.0
  0
LINE
  5
1A84
330
A
100
AcDbEntity
  8
001
  6
Continuous
370
    15
100
AcDbLine
 10
89.7944772988257
 20
2.78793733845363
 30
0.0
 11
89.7944772988257
 21
2.784937343549827
 31
0.0
  0
LINE
  5
1A85
330
A
100
AcDbEntity
  8
001
  6
Continuous
370
    15
100
AcDbLine
 10
89.66697730120989
 20
2.498895216722885
 30
0.0
 11
89.66697730120989
 21
2.513895214524964
 31
0.0
  0
ARC
  5
1A86
330
A
100
AcDbEntity
  8
001
  6
Continuous
370
    15
100
AcDbCircle
 10
89.65447729912373
 20
2.513895216665187
 30
0.0
 40
0.0125000000000009
100
AcDbArc
 50
0.0
 51
180.0
  0
LINE
  5
1A87
330
A
100
AcDbEntity
  8
001
  6
Continuous
370
    15
100
AcDbLine
 10
89.64197729711207
 20
2.513895214524964
 30
0.0
 11
89.64197729711207
 21
2.498895216722885
 31
0.0
  0
LINE
  5
1A88
330
A
100
AcDbEntity
  8
001
  6
Continuous
370
    15
100
AcDbLine
 10
89.64197729711207
 20
2.498895216722885
 30
0.0
 11
89.63951941576572
 21
2.496437335376541
 31
0.0
  0
LINE
  5
1A89
330
A
100
AcDbEntity
  8
001
  6
Continuous
370
    15
100
AcDbLine
 10
89.63951941576572
 20
2.496437335376541
 30
0.0
 11
89.51947730031582
 21
2.496437335376541
 31
0.0
  0
LINE
  5
1A8A
330
A
100
AcDbEntity
  8
001
  6
Continuous
370
    15
100
AcDbLine
 10
89.51447729018303
 20
2.501437336196104
 30
0.0
 11
89.51947730031582
 21
2.496437335376541
 31
0.0
  0
LINE
  5
1A8B
330
A
100
AcDbEntity
  8
001
  6
Continuous
370
    15
100
AcDbLine
 10
89.78947729800614
 20
2.496437335376541
 30
0.0
 11
89.66943517789962
 21
2.496437335376541
 31
0.0
  0
LINE
  5
1A8C
330
A
100
AcDbEntity
  8
001
  6
Continuous
370
    15
100
AcDbLine
 10
89.66943517789962
 20
2.496437335376541
 30
0.0
 11
89.66697730120989
 21
2.498895216722885
 31
0.0
  0
LINE
  5
1A8D
330
A
100
AcDbEntity
  8
001
  6
Continuous
370
    15
100
AcDbLine
 10
89.78947729800614
 20
2.496437335376541
 30
0.0
 11
89.7944772988257
 21
2.501437336196104
 31
0.0
  0
LINE
  5
1A8E
330
A
100
AcDbEntity
  8
001
  6
Continuous
370
    15
100
AcDbLine
 10
89.51447729018303
 20
2.501437336196104
 30
0.0
 11
89.51447729018303
 21
2.526437335637311
 31
0.0
  0
LINE
  5
1A8F
330
A
100
AcDbEntity
  8
001
  6
Continuous
370
    15
100
AcDbLine
 10
89.7944772988257
 20
2.501437336196104
 30
0.0
 11
89.7944772988257
 21
2.526437335637311
 31
0.0
  0
LINE
  5
1A90
330
A
100
AcDbEntity
  8
001
  6
Continuous
370
    15
100
AcDbLine
 10
89.64197729711207
 20
2.800437345159153
 30
0.0
 11
89.64197729711207
 21
2.815437338304619
 31
0.0
  0
LINE
  5
1A91
330
A
100
AcDbEntity
  8
001
  6
Continuous
370
    15
100
AcDbLine
 10
89.6394773013589
 20
2.817937343371013
 30
0.0
 11
89.51947730031582
 21
2.817937343371013
 31
0.0
  0
LINE
  5
1A92
330
A
100
AcDbEntity
  8
001
  6
Continuous
370
    15
100
AcDbLine
 10
89.64197729711207
 20
2.815437338304619
 30
0.0
 11
89.6394773013589
 21
2.817937343371013
 31
0.0
  0
ARC
  5
1A93
330
A
100
AcDbEntity
  8
001
  6
Continuous
370
    15
100
AcDbCircle
 10
89.65447729912373
 20
2.80043733699391
 30
0.0
 40
0.0124999999999997
100
AcDbArc
 50
180.0
 51
270.0
  0
LINE
  5
1A94
330
A
100
AcDbEntity
  8
001
  6
Continuous
370
    15
100
AcDbLine
 10
89.51947730031582
 20
2.817937343371013
 30
0.0
 11
89.51447729018303
 21
2.812937333238224
 31
0.0
  0
LINE
  5
1A95
330
A
100
AcDbEntity
  8
001
  6
Continuous
370
    15
100
AcDbLine
 10
89.51447729018303
 20
2.812937333238224
 30
0.0
 11
89.51447729018303
 21
2.78793733845363
 31
0.0
  0
LINE
  5
1A96
330
A
100
AcDbEntity
  8
001
  6
Continuous
370
    15
100
AcDbLine
 10
89.78947729800614
 20
2.817937343371013
 30
0.0
 11
89.66947729696306
 21
2.817937343371013
 31
0.0
  0
LINE
  5
1A97
330
A
100
AcDbEntity
  8
001
  6
Continuous
370
    15
100
AcDbLine
 10
89.66947729696306
 20
2.817937343371013
 30
0.0
 11
89.66697730120989
 21
2.815437338304619
 31
0.0
  0
LINE
  5
1A98
330
A
100
AcDbEntity
  8
001
  6
Continuous
370
    15
100
AcDbLine
 10
89.7944772988257
 20
2.812937333238224
 30
0.0
 11
89.78947729800614
 21
2.817937343371013
 31
0.0
  0
LINE
  5
1A99
330
A
100
AcDbEntity
  8
001
  6
Continuous
370
    15
100
AcDbLine
 10
89.66697730120989
 20
2.815437338304619
 30
0.0
 11
89.66697730120989
 21
2.800437345159153
 31
0.0
  0
ARC
  5
1A9A
330
A
100
AcDbEntity
  8
001
  6
Continuous
370
    15
100
AcDbCircle
 10
89.65447729912373
 20
2.80043733699391
 30
0.0
 40
0.0124999999999997
100
AcDbArc
 50
270.0
 51
0.0
  0
LINE
  5
1A9B
330
A
100
AcDbEntity
  8
001
  6
Continuous
370
    15
100
AcDbLine
 10
89.7944772988257
 20
2.812937333238224
 30
0.0
 11
89.7944772988257
 21
2.78793733845363
 31
0.0
  0
LINE
  5
1A9C
330
A
100
AcDbEntity
  8
001
  6
Continuous
370
    15
100
AcDbLine
 10
89.49697729197117
 20
2.713337338519195
 30
0.0
 11
89.50447730717035
 21
2.713337338519195
 31
0.0
  0
LINE
  5
1A9D
330
A
100
AcDbEntity
  8
001
  6
Continuous
370
    15
100
AcDbLine
 10
89.49697729197117
 20
2.748372762453655
 30
0.0
 11
89.49697729197117
 21
2.713337338519195
 31
0.0
  0
LINE
  5
1A9E
330
A
100
AcDbEntity
  8
001
  6
Continuous
370
    15
100
AcDbLine
 10
89.49697729197117
 20
2.748372762453655
 30
0.0
 11
89.50447730717035
 21
2.748372762453655
 31
0.0
  0
LINE
  5
1A9F
330
A
100
AcDbEntity
  8
001
  6
Continuous
370
    15
100
AcDbLine
 10
89.49697729197117
 20
2.713337338519195
 30
0.0
 11
89.49197730046483
 21
2.713337338519195
 31
0.0
  0
LINE
  5
1AA0
330
A
100
AcDbEntity
  8
001
  6
Continuous
370
    15
100
AcDbLine
 10
89.49197730046483
 20
2.713337338519195
 30
0.0
 11
89.49197730046483
 21
2.743372770947317
 31
0.0
  0
LINE
  5
1AA1
330
A
100
AcDbEntity
  8
001
  6
Continuous
370
    15
100
AcDbLine
 10
89.49697729197117
 20
2.748372762453655
 30
0.0
 11
89.49197730046483
 21
2.743372770947317
 31
0.0
  0
LINE
  5
1AA2
330
A
100
AcDbEntity
  8
001
  6
Continuous
370
    15
100
AcDbLine
 10
89.49697729197117
 20
2.713337338519195
 30
0.0
 11
89.49697729197117
 21
2.678301914584736
 31
0.0
  0
LINE
  5
1AA3
330
A
100
AcDbEntity
  8
001
  6
Continuous
370
    15
100
AcDbLine
 10
89.49697729197117
 20
2.678301914584736
 30
0.0
 11
89.49197730046483
 21
2.683301906091074
 31
0.0
  0
LINE
  5
1AA4
330
A
100
AcDbEntity
  8
001
  6
Continuous
370
    15
100
AcDbLine
 10
89.49197730046483
 20
2.683301906091074
 30
0.0
 11
89.49197730046483
 21
2.713337338519195
 31
0.0
  0
LINE
  5
1AA5
330
A
100
AcDbEntity
  8
001
  6
Continuous
370
    15
100
AcDbLine
 10
89.49697729197117
 20
2.678301914584736
 30
0.0
 11
89.50447730717035
 21
2.678301914584736
 31
0.0
  0
LINE
  5
1AA6
330
A
100
AcDbEntity
  8
001
  6
Continuous
370
    15
100
AcDbLine
 10
89.80447730046483
 20
2.759937330138782
 30
0.0
 11
89.7944772988257
 21
2.759937330138782
 31
0.0
  0
LINE
  5
1AA7
330
A
100
AcDbEntity
  8
001
  6
Continuous
370
    15
100
AcDbLine
 10
89.80447730046483
 20
2.554437336967239
 30
0.0
 11
89.7944772988257
 21
2.554437336967239
 31
0.0
  0
LINE
  5
1AA8
330
A
100
AcDbEntity
  8
001
  6
Continuous
370
    15
100
AcDbLine
 10
89.7944772988257
 20
2.554437336967239
 30
0.0
 11
89.7944772988257
 21
2.759937330138782
 31
0.0
  0
LINE
  5
1AA9
330
A
100
AcDbEntity
  8
001
  6
Continuous
370
    15
100
AcDbLine
 10
89.80447730046483
 20
2.554437336967239
 30
0.0
 11
89.80447730046483
 21
2.759937330138782
 31
0.0
  0
LINE
  5
1AAA
330
A
100
AcDbEntity
  8
001
  6
Continuous
370
    15
100
AcDbLine
 10
89.80447730046483
 20
2.784937343549827
 30
0.0
 11
89.7944772988257
 21
2.784937343549827
 31
0.0
  0
LINE
  5
1AAB
330
A
100
AcDbEntity
  8
001
  6
Continuous
370
    15
100
AcDbLine
 10
89.7944772988257
 20
2.759937330138782
 30
0.0
 11
89.7944772988257
 21
2.763464025211433
 31
0.0
  0
LINE
  5
1AAC
330
A
100
AcDbEntity
  8
001
  6
Continuous
370
    15
100
AcDbLine
 10
89.7944772988257
 20
2.782937328320841
 30
0.0
 11
89.7944772988257
 21
2.784937343549827
 31
0.0
  0
LINE
  5
1AAD
330
A
100
AcDbEntity
  8
001
  6
Continuous
370
    15
100
AcDbLine
 10
89.80447730046483
 20
2.759937330138782
 30
0.0
 11
89.80447730046483
 21
2.784937343549827
 31
0.0
  0
LINE
  5
1AAE
330
A
100
AcDbEntity
  8
001
  6
Continuous
370
    15
100
AcDbLine
 10
89.80447730046483
 20
2.529437335197727
 30
0.0
 11
89.7944772988257
 21
2.529437335197727
 31
0.0
  0
LINE
  5
1AAF
330
A
100
AcDbEntity
  8
001
  6
Continuous
370
    15
100
AcDbLine
 10
89.7944772988257
 20
2.529437335197727
 30
0.0
 11
89.7944772988257
 21
2.531437336456875
 31
0.0
  0
LINE
  5
1AB0
330
A
100
AcDbEntity
  8
001
  6
Continuous
370
    15
100
AcDbLine
 10
89.7944772988257
 20
2.550910653536121
 30
0.0
 11
89.7944772988257
 21
2.554437336967239
 31
0.0
  0
LINE
  5
1AB1
330
A
100
AcDbEntity
  8
001
  6
Continuous
370
    15
100
AcDbLine
 10
89.80447730046483
 20
2.529437335197727
 30
0.0
 11
89.80447730046483
 21
2.554437336967239
 31
0.0
  0
LINE
  5
1AB2
330
A
100
AcDbEntity
  8
001
100
AcDbLine
 10
89.77380868290321
 20
2.700433327470946
 30
0.0
 11
89.77380868290321
 21
2.69400399388308
 31
0.0
  0
LINE
  5
1AB3
330
A
100
AcDbEntity
  8
001
100
AcDbLine
 10
89.77501650103219
 20
2.701279050829653
 30
0.0
 11
89.78384872545959
 21
2.698064384035716
 31
0.0
  0
LINE
  5
1AB4
330
A
100
AcDbEntity
  8
001
100
AcDbLine
 10
89.77501650103219
 20
2.693158270524373
 30
0.0
 11
89.78384872545959
 21
2.696372937318302
 31
0.0
  0
ARC
  5
1AB5
330
A
100
AcDbEntity
  8
001
100
AcDbCircle
 10
89.78354090733061
 20
2.697218660677008
 30
0.0
 40
0.0009000000000004
100
AcDbArc
 50
290.0000000000053
 51
69.99999999999463
  0
ARC
  5
1AB6
330
A
100
AcDbEntity
  8
001
100
AcDbCircle
 10
89.77470868290321
 20
2.700433327470946
 30
0.0
 40
0.0009000000000004
100
AcDbArc
 50
69.99999999999463
 51
180.0
  0
ARC
  5
1AB7
330
A
100
AcDbEntity
  8
001
100
AcDbCircle
 10
89.77470868290321
 20
2.69400399388308
 30
0.0
 40
0.0009000000000033
100
AcDbArc
 50
180.0
 51
290.0000000000053
  0
HATCH
  5
1AB8
330
A
100
AcDbEntity
  8
001
100
AcDbHatch
 10
0.0
 20
0.0
 30
0.0
210
0.0
220
0.0
230
1.0
  2
SOLID
 70
     1
 71
     0
 91
        1
 92
        7
 72
     1
 73
     1
 93
        7
 10
89.78384872545959
 20
2.696372937318302
 42
0.7002075382077844
 10
89.78384872545959
 20
2.698064384035716
 42
0.0
 10
89.77501650103219
 20
2.701279050829653
 42
0.5205670505513865
 10
89.77380868290321
 20
2.700433327470946
 42
0.0
 10
89.77380868290321
 20
2.69400399388308
 42
0.5236483174508753
 10
89.77502467727861
 20
2.693161291352696
 42
-0.0024212488493042
 10
89.77501650103219
 20
2.693158270524369
 42
0.0
 97
        0
 75
     0
 76
     1
 47
0.001
 98
        1
 10
89.7775885549696
 20
2.697004449037113
  0
LINE
  5
1AB9
330
A
100
AcDbEntity
  8
001
100
AcDbLine
 10
89.77380868290321
 20
2.620433324835303
 30
0.0
 11
89.77380868290321
 21
2.614003991247437
 31
0.0
  0
LINE
  5
1ABA
330
A
100
AcDbEntity
  8
001
100
AcDbLine
 10
89.77501650103219
 20
2.62127904819401
 30
0.0
 11
89.78384872545959
 21
2.618064381400073
 31
0.0
  0
LINE
  5
1ABB
330
A
100
AcDbEntity
  8
001
100
AcDbLine
 10
89.77501650103219
 20
2.61315826788873
 30
0.0
 11
89.78384872545959
 21
2.616372934682659
 31
0.0
  0
ARC
  5
1ABC
330
A
100
AcDbEntity
  8
001
100
AcDbCircle
 10
89.78354090733061
 20
2.617218658041366
 30
0.0
 40
0.0009000000000004
100
AcDbArc
 50
290.0000000000053
 51
69.99999999999463
  0
ARC
  5
1ABD
330
A
100
AcDbEntity
  8
001
100
AcDbCircle
 10
89.77470868290321
 20
2.620433324835303
 30
0.0
 40
0.0009000000000004
100
AcDbArc
 50
69.99999999999463
 51
180.0
  0
ARC
  5
1ABE
330
A
100
AcDbEntity
  8
001
100
AcDbCircle
 10
89.77470868290321
 20
2.614003991247437
 30
0.0
 40
0.0009000000000033
100
AcDbArc
 50
180.0
 51
290.0000000000053
  0
HATCH
  5
1ABF
330
A
100
AcDbEntity
  8
001
100
AcDbHatch
 10
0.0
 20
0.0
 30
0.0
210
0.0
220
0.0
230
1.0
  2
SOLID
 70
     1
 71
     0
 91
        1
 92
        7
 72
     1
 73
     1
 93
        7
 10
89.78384872545959
 20
2.616372934682659
 42
0.7002075382077844
 10
89.78384872545959
 20
2.618064381400073
 42
0.0
 10
89.77501650103219
 20
2.62127904819401
 42
0.5205670505513865
 10
89.77380868290321
 20
2.620433324835303
 42
0.0
 10
89.77380868290321
 20
2.614003991247437
 42
0.5236483174508753
 10
89.77502467727861
 20
2.613161288717053
 42
-0.0024212488493042
 10
89.77501650103219
 20
2.613158267888727
 42
0.0
 97
        0
 75
     0
 76
     1
 47
0.001
 98
        1
 10
89.7775885549696
 20
2.61700444640147
  0
LINE
  5
1AC0
330
A
100
AcDbEntity
  8
001
100
AcDbLine
 10
89.55004491185322
 20
2.716868474608255
 30
0.0
 11
89.55004491185322
 21
2.711725007737969
 31
0.0
  0
LINE
  5
1AC1
330
A
100
AcDbEntity
  8
001
100
AcDbLine
 10
89.5510111663564
 20
2.717545053295217
 30
0.0
 11
89.55807694589832
 21
2.714973319860074
 31
0.0
  0
LINE
  5
1AC2
330
A
100
AcDbEntity
  8
001
100
AcDbLine
 10
89.5510111663564
 20
2.711048429050998
 30
0.0
 11
89.55807694589832
 21
2.713620162486141
 31
0.0
  0
ARC
  5
1AC3
330
A
100
AcDbEntity
  8
001
100
AcDbCircle
 10
89.55783069139512
 20
2.714296741173112
 30
0.0
 40
0.0007200000000003
100
AcDbArc
 50
290.0000000000053
 51
69.99999999999463
  0
ARC
  5
1AC4
330
A
100
AcDbEntity
  8
001
100
AcDbCircle
 10
89.55076491185321
 20
2.716868474608255
 30
0.0
 40
0.0007200000000003
100
AcDbArc
 50
69.99999999999463
 51
180.0
  0
ARC
  5
1AC5
330
A
100
AcDbEntity
  8
001
100
AcDbCircle
 10
89.55076491185321
 20
2.711725007737969
 30
0.0
 40
0.0007200000000026
100
AcDbArc
 50
180.0
 51
290.0000000000053
  0
HATCH
  5
1AC6
330
A
100
AcDbEntity
  8
001
100
AcDbHatch
 10
0.0
 20
0.0
 30
0.0
210
0.0
220
0.0
230
1.0
  2
SOLID
 70
     1
 71
     0
 91
        1
 92
        7
 72
     1
 73
     1
 93
        8
 10
89.55807694589832
 20
2.713620162486141
 42
0.7002075382029405
 10
89.55807694589832
 20
2.714973319860074
 42
0.0
 10
89.5510111663564
 20
2.717545053295217
 42
0.2060211481439024
 10
89.55044291806444
 20
2.717512462185778
 42
0.284079043841136
 10
89.55004491185322
 20
2.716868474608255
 42
0.0
 10
89.55004491185322
 20
2.711725007737969
 42
0.4879283649269303
 10
89.55093953750326
 20
2.711026505137861
 42
0.0260276718187153
 10
89.5510111663564
 20
2.711048429050998
 42
0.0
 97
        0
 75
     0
 76
     1
 47
0.001
 98
        1
 10
89.55306880950631
 20
2.714125371861192
  0
HATCH
  5
1AC7
330
A
100
AcDbEntity
  8
001
100
AcDbHatch
 10
0.0
 20
0.0
 30
0.0
210
0.0
220
0.0
230
1.0
  2
SOLID
 70
     1
 71
     0
 91
        1
 92
        1
 93
       13
 72
     1
 10
89.58651286535056
 20
2.665229021780515
 11
89.59217760703781
 21
2.665229021780515
 72
     1
 10
89.59217760703779
 20
2.665229021780515
 11
89.59421654594342
 21
2.656224906528833
 72
     1
 10
89.5942165459434
 20
2.656224906528833
 11
89.5972014298006
 21
2.665229021780515
 72
     1
 10
89.59720142980058
 20
2.665229021780515
 11
89.60284565748098
 21
2.665229021780515
 72
     1
 10
89.60284565748098
 20
2.665229021780515
 11
89.60583744324704
 21
2.656237176589011
 72
     1
 10
89.60583744324704
 20
2.656237176589011
 11
89.60787925794798
 21
2.665229021780515
 72
     1
 10
89.60787925794798
 20
2.665229021780515
 11
89.61351447480295
 21
2.665229021780515
 72
     1
 10
89.61351447480295
 20
2.665229021780515
 11
89.60926021487672
 21
2.649145656967076
 72
     1
 10
89.6092602148767
 20
2.649145656967076
 11
89.60341218916559
 21
2.649145656967076
 72
     1
 10
89.60341218916562
 20
2.649145656967076
 11
89.60002641943615
 21
2.659271907565672
 72
     1
 10
89.60002641943615
 20
2.659271907565672
 11
89.59665522040316
 21
2.649145656967076
 72
     1
 10
89.59665522040312
 20
2.649145656967076
 11
89.59080681125264
 21
2.649145656967076
 72
     1
 10
89.59080681125264
 20
2.649145656967076
 11
89.58651286535054
 21
2.665229021780515
 97
        0
 75
     2
 76
     1
 98
        0
  0
HATCH
  5
1AC8
330
A
100
AcDbEntity
  8
001
100
AcDbHatch
 10
0.0
 20
0.0
 30
0.0
210
0.0
220
0.0
230
1.0
  2
SOLID
 70
     1
 71
     0
 91
        1
 92
        1
 93
       12
 72
     1
 10
89.61450758279832
 20
2.665229021780515
 11
89.63049010305471
 21
2.665229021780515
 72
     1
 10
89.63049010305471
 20
2.665229021780515
 11
89.63049010305471
 21
2.6617949386891
 72
     1
 10
89.63049010305471
 20
2.661794938689109
 11
89.62048444414127
 21
2.661794938689109
 72
     1
 10
89.62048444414127
 20
2.661794938689109
 11
89.62048444414127
 21
2.659238931778955
 72
     1
 10
89.62048444414127
 20
2.659238931778946
 11
89.62976559434533
 21
2.659238931778946
 72
     1
 10
89.62976559434533
 20
2.659238931778946
 11
89.62976559434533
 21
2.655958799598785
 72
     1
 10
89.62976559434533
 20
2.655958799598802
 11
89.62048444414127
 21
2.655958799598802
 72
     1
 10
89.62048444414127
 20
2.655958799598802
 11
89.62048444414127
 21
2.652788139361764
 72
     1
 10
89.62048444414127
 20
2.652788139361765
 11
89.63077940806728
 21
2.652788139361765
 72
     1
 10
89.63077940806726
 20
2.652788139361765
 11
89.63077940806726
 21
2.649145656967076
 72
     1
 10
89.63077940806726
 20
2.649145656967076
 11
89.61450758279832
 21
2.649145656967076
 72
     1
 10
89.61450758279832
 20
2.649145656967076
 11
89.61450758279832
 21
2.665229021780515
 97
        0
 75
     2
 76
     1
 98
        0
  0
HATCH
  5
1AC9
330
A
100
AcDbEntity
  8
001
100
AcDbHatch
 10
0.0
 20
0.0
 30
0.0
210
0.0
220
0.0
230
1.0
  2
SOLID
 70
     1
 71
     0
 91
        3
 92
        1
 93
        1
 72
     4
 94
        3
 73
     0
 74
     1
 95
       40
 96
       40
 40
0.0
 40
0.0
 40
0.0
 40
1.0
 40
1.0
 40
1.0
 40
2.0
 40
2.0
 40
2.0
 40
3.0
 40
3.0
 40
3.0
 40
4.0
 40
4.0
 40
4.0
 40
5.0
 40
5.0
 40
5.0
 40
6.0
 40
6.0
 40
6.0
 40
7.0
 40
7.0
 40
7.0
 40
8.0
 40
8.0
 40
8.0
 40
9.0
 40
9.0
 40
9.0
 40
10.0
 40
10.0
 40
10.0
 40
11.0
 40
11.0
 40
11.0
 40
12.0
 40
12.0
 40
12.0
 40
13.0
 10
89.63226907006037
 20
2.665229213500206
 10
89.63226907006037
 20
2.665229213500206
 10
89.64343329106185
 20
2.665229213500206
 10
89.64343329106185
 20
2.665229213500206
 10
89.64529373893586
 20
2.665229213500206
 10
89.64672243406745
 20
2.664845198960675
 10
89.64771860957791
 20
2.664077169881612
 10
89.64871516852772
 20
2.663309140802549
 10
89.64921248940418
 20
2.662358211138999
 10
89.64921248940418
 20
2.661224189171298
 10
89.64921248940418
 20
2.660274026386506
 10
89.64885742453786
 20
2.659458067384885
 10
89.64814614448711
 20
2.658778037643633
 10
89.64767259685224
 20
2.658324620576241
 10
89.64697895501299
 20
2.657966488194898
 10
89.64606636928749
 20
2.65770306534052
 10
89.64745288608723
 20
2.657425071789685
 10
89.64847321827866
 20
2.656947689761
 10
89.64912698242233
 20
2.656271494413559
 10
89.64978074656601
 20
2.655594915626735
 10
89.65010782035754
 20
2.654744447080875
 10
89.65010782035754
 20
2.653720472215355
 10
89.65010782035754
 20
2.652886875002232
 10
89.64987507265361
 20
2.652136867574054
 10
89.64941034412451
 20
2.651471791968643
 10
89.64894484871662
 20
2.650805949484475
 10
89.64830833934504
 20
2.650279295495402
 10
89.64750119944916
 20
2.649891830001452
 10
89.64700081105767
 20
2.649650263191762
 10
89.64624620235692
 20
2.649474839675204
 10
89.64523698990756
 20
2.649365176012389
 10
89.64389418519719
 20
2.649218893888738
 10
89.64300307207698
 20
2.649145848686758
 10
89.64256441742573
 20
2.649145848686758
 10
89.64256441742573
 20
2.649145848686758
 10
89.63226907006037
 20
2.649145848686758
 10
89.63226907006037
 20
2.649145848686758
 10
89.63226907006037
 20
2.649145848686758
 10
89.63226907006037
 20
2.665229213500206
 10
89.63226907006037
 20
2.665229213500206
 97
        0
 92
        1
 93
        1
 72
     4
 94
        3
 73
     0
 74
     1
 95
       22
 96
       22
 40
0.0
 40
0.0
 40
0.0
 40
1.0
 40
1.0
 40
1.0
 40
2.0
 40
2.0
 40
2.0
 40
3.0
 40
3.0
 40
3.0
 40
4.0
 40
4.0
 40
4.0
 40
5.0
 40
5.0
 40
5.0
 40
6.0
 40
6.0
 40
6.0
 40
7.0
 10
89.64282132181066
 20
2.659321179526069
 10
89.64318597266148
 20
2.659588053334865
 10
89.64336733948842
 20
2.659973985071292
 10
89.64336733948842
 20
2.660478591295978
 10
89.64336733948842
 20
2.660946579059837
 10
89.64318597266148
 20
2.661312571948493
 10
89.64282132181066
 20
2.661575611363487
 10
89.64245705439921
 20
2.661838650778482
 10
89.64182284566392
 20
2.661970745645049
 10
89.64091869560482
 20
2.661970745645049
 10
89.64091869560482
 20
2.661970745645049
 10
89.63828600081855
 20
2.661970745645049
 10
89.63828600081855
 20
2.661970745645049
 10
89.63828600081855
 20
2.661970745645049
 10
89.63828600081855
 20
2.658920677093175
 10
89.63828600081855
 20
2.658920677093175
 10
89.63828600081855
 20
2.658920677093175
 10
89.64087920134861
 20
2.658920677093175
 10
89.64087920134861
 20
2.658920677093175
 10
89.64180942528562
 20
2.658920677093175
 10
89.64245705439921
 20
2.659054113997572
 10
89.64282132181066
 20
2.659321179526069
 97
        0
 92
        1
 93
        1
 72
     4
 94
        3
 73
     0
 74
     1
 95
       22
 96
       22
 40
0.0
 40
0.0
 40
0.0
 40
1.0
 40
1.0
 40
1.0
 40
2.0
 40
2.0
 40
2.0
 40
3.0
 40
3.0
 40
3.0
 40
4.0
 40
4.0
 40
4.0
 40
5.0
 40
5.0
 40
5.0
 40
6.0
 40
6.0
 40
6.0
 40
7.0
 10
89.64349924263531
 20
2.653056930367466
 10
89.64392025907505
 20
2.653360422637106
 10
89.64413115073432
 20
2.653768018698529
 10
89.64413115073432
 20
2.654279910271453
 10
89.64413115073432
 20
2.654755566822915
 10
89.64392255971132
 20
2.655137472445849
 10
89.6435053776654
 20
2.655426585738724
 10
89.64308896249821
 20
2.655715507311898
 10
89.64235812703906
 20
2.655859872238635
 10
89.64131363816667
 20
2.655859872238635
 10
89.64131363816667
 20
2.655859872238635
 10
89.63828600081855
 20
2.655859872238635
 10
89.63828600081855
 20
2.655859872238635
 10
89.63828600081855
 20
2.655859872238635
 10
89.63828600081855
 20
2.652601404383477
 10
89.63828600081855
 20
2.652601404383477
 10
89.63828600081855
 20
2.652601404383477
 10
89.64132667510561
 20
2.652601404383477
 10
89.64132667510561
 20
2.652601404383477
 10
89.64235352576649
 20
2.652601404383477
 10
89.64307745931678
 20
2.652753438097825
 10
89.64349924263531
 20
2.653056930367466
 97
        0
 75
     2
 76
     1
 98
        0
  0
HATCH
  5
1ACA
330
A
100
AcDbEntity
  8
001
 48
2.0
370
    -3
100
AcDbHatch
 10
0.0
 20
0.0
 30
0.0
210
0.0
220
0.0
230
1.0
  2
SOLID
 70
     1
 71
     0
 91
        1
 92
        5
 93
       26
 72
     4
 94
        3
 73
     0
 74
     0
 95
        8
 96
        4
 40
9.0
 40
9.0
 40
9.0
 40
9.0
 40
10.0
 40
10.0
 40
10.0
 40
10.0
 10
89.65558985318002
 20
2.664724415555829
 10
89.65391345620863
 20
2.664051096003741
 10
89.6526404374655
 20
2.663066040235335
 10
89.65177156382937
 20
2.661767906212781
 72
     4
 94
        3
 73
     0
 74
     0
 95
        8
 96
        4
 40
8.0
 40
8.0
 40
8.0
 40
8.0
 40
9.0
 40
9.0
 40
9.0
 40
9.0
 10
89.65177156382937
 20
2.661767906212781
 10
89.65090269019325
 20
2.660469388750844
 10
89.65046863681456
 20
2.658942724857543
 10
89.65046863681456
 20
2.657187339373795
 72
     4
 94
        3
 73
     0
 74
     0
 95
        8
 96
        4
 40
7.0
 40
7.0
 40
7.0
 40
7.0
 40
8.0
 40
8.0
 40
8.0
 40
8.0
 10
89.65046863681456
 20
2.657187339373795
 10
89.65046863681456
 20
2.655519761508167
 10
89.65086549657334
 20
2.654042177855563
 10
89.65165959953028
 20
2.652755163575048
 72
     4
 94
        3
 73
     0
 74
     0
 95
        8
 96
        4
 40
6.0
 40
6.0
 40
6.0
 40
6.0
 40
7.0
 40
7.0
 40
7.0
 40
7.0
 10
89.65165959953028
 20
2.652755163575048
 10
89.65245408592659
 20
2.65146776585515
 10
89.65357334547816
 20
2.650498622821033
 10
89.65501699474559
 20
2.649848117912079
 72
     4
 94
        3
 73
     0
 74
     0
 95
        8
 96
        4
 40
5.0
 40
5.0
 40
5.0
 40
5.0
 40
6.0
 40
6.0
 40
6.0
 40
6.0
 10
89.65501699474559
 20
2.649848117912079
 10
89.65646064401303
 20
2.649196654404677
 10
89.65832761035649
 20
2.648871497810042
 10
89.66061827721537
 20
2.648871497810042
 72
     4
 94
        3
 73
     0
 74
     0
 95
        8
 96
        4
 40
4.0
 40
4.0
 40
4.0
 40
4.0
 40
5.0
 40
5.0
 40
5.0
 40
5.0
 10
89.66061827721537
 20
2.648871497810042
 10
89.66247949196812
 20
2.648871497810042
 10
89.66408763672978
 20
2.649052672917314
 10
89.66544347837908
 20
2.649414639692477
 72
     4
 94
        3
 73
     0
 74
     0
 95
        8
 96
        4
 40
3.0
 40
3.0
 40
3.0
 40
3.0
 40
4.0
 40
4.0
 40
4.0
 40
4.0
 10
89.66544347837908
 20
2.649414639692477
 10
89.66679970346778
 20
2.649776606467622
 10
89.6683595348675
 20
2.650458169966387
 10
89.67012373945701
 20
2.651460672226613
 72
     4
 94
        3
 73
     0
 74
     0
 95
       11
 96
        7
 40
1.5
 40
1.5
 40
1.5
 40
1.5
 40
2.5
 40
2.5
 40
2.5
 40
3.0
 40
3.0
 40
3.0
 40
3.0
 10
89.67012373945701
 20
2.651460672226613
 10
89.67012373945701
 20
2.651460672226613
 10
89.67012373945701
 20
2.658317335228021
 10
89.67012373945701
 20
2.658317335228021
 10
89.67012373945701
 20
2.658317335228021
 10
89.66781984393952
 20
2.658317335228021
 10
89.66551594842201
 20
2.658317335228021
 72
     4
 94
        3
 73
     0
 74
     0
 95
       11
 96
        7
 40
0.5
 40
0.5
 40
0.5
 40
0.5
 40
1.0
 40
1.0
 40
1.0
 40
1.5
 40
1.5
 40
1.5
 40
1.5
 10
89.66551594842201
 20
2.658317335228021
 10
89.6632120529045
 20
2.658317335228021
 10
89.660908157387
 20
2.658317335228021
 10
89.660908157387
 20
2.658317335228021
 10
89.660908157387
 20
2.658317335228021
 10
89.660908157387
 20
2.65748081428962
 10
89.660908157387
 20
2.656644293351219
 72
     4
 94
        3
 73
     0
 74
     0
 95
       11
 96
        7
 40
24.749985
 40
24.749985
 40
24.749985
 40
24.749985
 40
25.249985
 40
25.249985
 40
25.249985
 40
25.5
 40
25.5
 40
25.5
 40
25.5
 10
89.660908157387
 20
2.656644293351219
 10
89.660908157387
 20
2.655807772412818
 10
89.660908157387
 20
2.654971251474417
 10
89.660908157387
 20
2.654971251474417
 10
89.660908157387
 20
2.654971251474417
 10
89.66115751876483
 20
2.654971251474417
 10
89.66153155335071
 20
2.654971251474417
 72
     4
 94
        3
 73
     0
 74
     0
 95
        8
 96
        4
 40
24.49999
 40
24.49999
 40
24.49999
 40
24.49999
 40
24.749985
 40
24.749985
 40
24.749985
 40
24.749985
 10
89.66153155335071
 20
2.654971251474417
 10
89.66190555801562
 20
2.654971251474417
 10
89.66240421594289
 20
2.654971251474417
 10
89.66290286888371
 20
2.654971251474417
 72
     4
 94
        3
 73
     0
 74
     0
 95
        8
 96
        4
 40
24.249995
 40
24.249995
 40
24.249995
 40
24.249995
 40
24.3749925
 40
24.3749925
 40
24.3749925
 40
24.3749925
 10
89.66363526227404
 20
2.654971251474417
 10
89.66386900397015
 20
2.654971251474417
 10
89.66408716213853
 20
2.654971251474417
 10
89.66427415449814
 20
2.654971251474417
 72
     4
 94
        3
 73
     0
 74
     0
 95
        8
 96
        4
 40
24.00146481445313
 40
24.00146481445313
 40
24.00146481445313
 40
24.00146481445313
 40
24.0019530859375
 40
24.0019530859375
 40
24.0019530859375
 40
24.0019530859375
 10
89.66489741510864
 20
2.654971251474417
 10
89.66489742270246
 20
2.654971251474417
 10
89.66489742934893
 20
2.654971251474417
 10
89.66489743504707
 20
2.654971251474417
 72
     4
 94
        3
 73
     0
 74
     0
 95
        8
 96
        4
 40
23.00002
 40
23.00002
 40
23.00002
 40
23.00002
 40
24.0
 40
24.0
 40
24.0
 40
24.0
 10
89.66489746070131
 20
2.654971251474417
 10
89.66489746070131
 20
2.654971251474417
 10
89.66489746070131
 20
2.653457301640483
 10
89.66489746070131
 20
2.653457241082488
 72
     4
 94
        3
 73
     0
 74
     0
 95
       11
 96
        7
 40
22.0
 40
22.0
 40
22.0
 40
22.0
 40
22.00002
 40
22.00002
 40
22.00002
 40
23.00002
 40
23.00002
 40
23.00002
 40
23.00002
 10
89.66489746070131
 20
2.653457241082488
 10
89.66489746070131
 20
2.653457241081269
 10
89.66489746070131
 20
2.653457241080669
 10
89.66489746070131
 20
2.653457241080669
 10
89.66411601124393
 20
2.653069200427645
 10
89.66342275284405
 20
2.652795232990311
 10
89.66281691862294
 20
2.652634188450511
 72
     4
 94
        3
 73
     0
 74
     0
 95
        8
 96
        4
 40
21.0
 40
21.0
 40
21.0
 40
21.0
 40
22.0
 40
22.0
 40
22.0
 40
22.0
 10
89.66281691862294
 20
2.652634188450511
 10
89.66221146784119
 20
2.652473719069786
 10
89.661575341909
 20
2.652393196799885
 10
89.660908157387
 20
2.652393196799885
 72
     4
 94
        3
 73
     0
 74
     0
 95
        8
 96
        4
 40
20.0
 40
20.0
 40
20.0
 40
20.0
 40
21.0
 40
21.0
 40
21.0
 40
21.0
 10
89.660908157387
 20
2.652393196799885
 10
89.65950400237575
 20
2.652393196799885
 10
89.65840889950516
 20
2.652766091597387
 10
89.65762361565397
 20
2.653512264631773
 72
     4
 94
        3
 73
     0
 74
     0
 95
        8
 96
        4
 40
19.0
 40
19.0
 40
19.0
 40
19.0
 40
20.0
 40
20.0
 40
20.0
 40
20.0
 10
89.65762361565397
 20
2.653512264631773
 10
89.65683794836342
 20
2.654258245946458
 10
89.65644530643782
 20
2.655501739857291
 10
89.65644530643782
 20
2.65724236292489
 72
     4
 94
        3
 73
     0
 74
     0
 95
        8
 96
        4
 40
18.0
 40
18.0
 40
18.0
 40
18.0
 40
19.0
 40
19.0
 40
19.0
 40
19.0
 10
89.65644530643782
 20
2.65724236292489
 10
89.65644530643782
 20
2.658880415958229
 10
89.65683373053021
 20
2.660078280582784
 10
89.65761057871503
 20
2.6608353816395
 72
     4
 94
        3
 73
     0
 74
     0
 95
        8
 96
        4
 40
17.0
 40
17.0
 40
17.0
 40
17.0
 40
18.0
 40
18.0
 40
18.0
 40
18.0
 10
89.65761057871503
 20
2.6608353816395
 10
89.65838742689985
 20
2.661591907537149
 10
89.65942961513595
 20
2.661970553925367
 10
89.6607371434233
 20
2.661970553925367
 72
     4
 94
        3
 73
     0
 74
     0
 95
        8
 96
        4
 40
16.0
 40
16.0
 40
16.0
 40
16.0
 40
17.0
 40
17.0
 40
17.0
 40
17.0
 10
89.6607371434233
 20
2.661970553925367
 10
89.6616148361652
 20
2.661970553925367
 10
89.66233685251861
 20
2.661809509385566
 10
89.66290280904415
 20
2.661487995465041
 72
     4
 94
        3
 73
     0
 74
     0
 95
        8
 96
        4
 40
15.0
 40
15.0
 40
15.0
 40
15.0
 40
16.0
 40
16.0
 40
16.0
 40
16.0
 10
89.66290280904415
 20
2.661487995465041
 10
89.66346838213034
 20
2.661165906385459
 10
89.66387061004045
 20
2.660701561295719
 10
89.66410757557758
 20
2.660094385036755
 72
     4
 94
        3
 73
     0
 74
     0
 95
       11
 96
        7
 40
13.0
 40
13.0
 40
13.0
 40
13.0
 40
14.0
 40
14.0
 40
14.0
 40
15.0
 40
15.0
 40
15.0
 40
15.0
 10
89.66410757557758
 20
2.660094385036755
 10
89.66410757557758
 20
2.660094385036755
 10
89.66986070004201
 20
2.660950413453639
 10
89.66986070004201
 20
2.660950413453639
 10
89.6695094695695
 20
2.661988959015617
 10
89.66898492449704
 20
2.662846521190022
 10
89.66828706482459
 20
2.663522908257155
 72
     4
 94
        3
 73
     0
 74
     0
 95
        8
 96
        4
 40
12.0
 40
12.0
 40
12.0
 40
12.0
 40
13.0
 40
13.0
 40
13.0
 40
13.0
 10
89.66828706482459
 20
2.663522908257155
 10
89.66758958859154
 20
2.66419948704398
 10
89.66671189584968
 20
2.664698149958276
 10
89.66565437003835
 20
2.665020622477241
 72
     4
 94
        3
 73
     0
 74
     0
 95
        8
 96
        4
 40
11.0
 40
11.0
 40
11.0
 40
11.0
 40
12.0
 40
12.0
 40
12.0
 40
12.0
 10
89.66565437003835
 20
2.665020622477241
 10
89.66459684422703
 20
2.665342519837132
 10
89.66300173640432
 20
2.665502989217857
 10
89.6608690465702
 20
2.665502989217857
 72
     4
 94
        3
 73
     0
 74
     0
 95
        8
 96
        4
 40
10.0
 40
10.0
 40
10.0
 40
10.0
 40
11.0
 40
11.0
 40
11.0
 40
11.0
 10
89.6608690465702
 20
2.665502989217857
 10
89.65865698478431
 20
2.665502989217857
 10
89.65689738146737
 20
2.665243592476982
 10
89.65558985318002
 20
2.664724415555829
 97
        0
 75
     0
 76
     1
 47
0.0602368287933475
 98
        1
 10
89.65729179249322
 20
2.663316107739484
1001
ACAD
1010
0.0
1020
0.0
1030
0.0
  0
HATCH
  5
1ACB
330
A
100
AcDbEntity
  8
001
100
AcDbHatch
 10
0.0
 20
0.0
 30
0.0
210
0.0
220
0.0
230
1.0
  2
SOLID
 70
     1
 71
     0
 91
        2
 92
        1
 93
        8
 72
     1
 10
89.68350884135013
 20
2.651800591237388
 11
89.67673768533058
 21
2.651800591237388
 72
     1
 10
89.67673768533058
 20
2.651800591237388
 11
89.67579710853032
 21
2.649145465247393
 72
     1
 10
89.67579710853032
 20
2.649145465247384
 11
89.6697080911686
 21
2.649145465247384
 72
     1
 10
89.66970809116858
 20
2.649145465247384
 11
89.67696238080753
 21
2.665228830060824
 72
     1
 10
89.67696238080753
 20
2.665228830060833
 11
89.68346666301828
 21
2.665228830060833
 72
     1
 10
89.6834666630183
 20
2.665228830060833
 11
89.69071903546034
 21
2.649145465247393
 72
     1
 10
89.69071903546034
 20
2.649145465247384
 11
89.68447395827075
 21
2.649145465247384
 72
     1
 10
89.68447395827077
 20
2.649145465247384
 11
89.68350884135016
 21
2.651800591237389
 97
        0
 92
        1
 93
        3
 72
     1
 10
89.6822714824694
 20
2.655278578137859
 11
89.68014109327155
 21
2.661060268836145
 72
     1
 10
89.68014109327155
 20
2.661060268836145
 11
89.6780329435578
 21
2.655278578137868
 72
     1
 10
89.67803294355778
 20
2.655278578137859
 11
89.68227148246938
 21
2.655278578137859
 97
        0
 75
     2
 76
     1
 98
        0
  0
HATCH
  5
1ACC
330
A
100
AcDbEntity
  8
001
100
AcDbHatch
 10
0.0
 20
0.0
 30
0.0
210
0.0
220
0.0
230
1.0
  2
SOLID
 70
     1
 71
     0
 91
        1
 92
        1
 93
        8
 72
     1
 10
89.68738042877467
 20
2.665229021780515
 11
89.70550905924348
 21
2.665229021780515
 72
     1
 10
89.70550905924348
 20
2.665229021780515
 11
89.70550905924348
 21
2.661257548397398
 72
     1
 10
89.70550905924348
 20
2.661257548397398
 11
89.69942656035122
 21
2.661257548397398
 72
     1
 10
89.69942656035122
 20
2.661257548397398
 11
89.69942656035122
 21
2.649145656967076
 72
     1
 10
89.69942656035122
 20
2.649145656967076
 11
89.69346292766692
 21
2.649145656967076
 72
     1
 10
89.69346292766692
 20
2.649145656967076
 11
89.69346292766692
 21
2.661257548397398
 72
     1
 10
89.69346292766692
 20
2.661257548397398
 11
89.68738042877467
 21
2.661257548397398
 72
     1
 10
89.68738042877467
 20
2.661257548397398
 11
89.68738042877467
 21
2.665229021780515
 97
        0
 75
     2
 76
     1
 98
        0
  0
HATCH
  5
1ACD
330
A
100
AcDbEntity
  8
001
100
AcDbHatch
 10
0.0
 20
0.0
 30
0.0
210
0.0
220
0.0
230
1.0
  2
SOLID
 70
     1
 71
     0
 91
        1
 92
        1
 93
       12
 72
     1
 10
89.70645922202825
 20
2.665229021780515
 11
89.72244174228464
 21
2.665229021780515
 72
     1
 10
89.72244174228464
 20
2.665229021780515
 11
89.72244174228464
 21
2.6617949386891
 72
     1
 10
89.72244174228464
 20
2.661794938689109
 11
89.71243627509087
 21
2.661794938689109
 72
     1
 10
89.71243627509089
 20
2.661794938689109
 11
89.71243627509089
 21
2.659238931778955
 72
     1
 10
89.71243627509089
 20
2.659238931778946
 11
89.72171704185559
 21
2.659238931778946
 72
     1
 10
89.72171704185557
 20
2.659238931778946
 11
89.72171704185557
 21
2.655958799598785
 72
     1
 10
89.72171704185557
 20
2.655958799598802
 11
89.71243627509087
 21
2.655958799598802
 72
     1
 10
89.71243627509089
 20
2.655958799598802
 11
89.71243627509089
 21
2.652788139361764
 72
     1
 10
89.71243627509089
 20
2.652788139361765
 11
89.72244174228466
 21
2.652788139361765
 72
     1
 10
89.72244174228464
 20
2.652788139361765
 11
89.72244174228464
 21
2.649145656967076
 72
     1
 10
89.72244174228464
 20
2.649145656967076
 11
89.70645922202825
 21
2.649145656967076
 72
     1
 10
89.70645922202825
 20
2.649145656967076
 11
89.70645922202825
 21
2.665229021780515
 97
        0
 75
     2
 76
     1
 98
        0
  0
LINE
  5
1ACE
330
A
100
AcDbEntity
  8
001
  6
Continuous
370
    15
100
AcDbLine
 10
89.19811617175817
 20
2.496437343380094
 30
0.0
 11
89.18811617128321
 21
2.496437343380094
 31
0.0
  0
LINE
  5
1ACF
330
A
100
AcDbEntity
  8
001
  6
Continuous
370
    15
100
AcDbLine
 10
89.18811617128321
 20
2.496437343380094
 30
0.0
 11
89.18811617128321
 21
2.501437353512883
 31
0.0
  0
LINE
  5
1AD0
330
A
100
AcDbEntity
  8
001
  6
Continuous
370
    15
100
AcDbLine
 10
89.18811617128321
 20
2.501437353512883
 30
0.0
 11
89.19811617175817
 21
2.501437353512883
 31
0.0
  0
LINE
  5
1AD1
330
A
100
AcDbEntity
  8
001
  6
Continuous
370
    15
100
AcDbLine
 10
89.19811617175817
 20
2.501437353512883
 30
0.0
 11
89.19811617175817
 21
2.496437343380094
 31
0.0
  0
ARC
  5
1AD2
330
A
100
AcDbEntity
  8
001
  6
Continuous
370
    15
100
AcDbCircle
 10
89.20311617128321
 20
2.787937343320473
 30
0.0
 40
0.005
100
AcDbArc
 50
180.0
 51
270.0
  0
LINE
  5
1AD3
330
A
100
AcDbEntity
  8
001
  6
Continuous
370
    15
100
AcDbLine
 10
89.20311617140194
 20
2.782937343309304
 30
0.0
 11
89.30561669971124
 21
2.782937343309313
 31
0.0
  0
ARC
  5
1AD4
330
A
100
AcDbEntity
  8
001
  6
Continuous
370
    15
100
AcDbCircle
 10
89.30561617128322
 20
2.770437343320482
 30
0.0
 40
0.0125000000000002
100
AcDbArc
 50
0.0
 51
90.0
  0
LINE
  5
1AD5
330
A
100
AcDbEntity
  8
001
  6
Continuous
370
    15
100
AcDbLine
 10
89.3181161739654
 20
2.770437343320482
 30
0.0
 11
89.3181161739654
 21
2.543937346509338
 31
0.0
  0
ARC
  5
1AD6
330
A
100
AcDbEntity
  8
001
  6
Continuous
370
    15
100
AcDbCircle
 10
89.30561617128322
 20
2.543937343320495
 30
0.0
 40
0.0125
100
AcDbArc
 50
270.0
 51
0.0
  0
LINE
  5
1AD7
330
A
100
AcDbEntity
  8
001
  6
Continuous
370
    15
100
AcDbLine
 10
89.20311617140194
 20
2.531437339803815
 30
0.0
 11
89.30561617128322
 21
2.531437339803815
 31
0.0
  0
ARC
  5
1AD8
330
A
100
AcDbEntity
  8
001
  6
Continuous
370
    15
100
AcDbCircle
 10
89.20311617140194
 20
2.543937339803815
 30
0.0
 40
0.0125
100
AcDbArc
 50
180.0
 51
270.0
  0
ARC
  5
1AD9
330
A
100
AcDbEntity
  8
001
  6
Continuous
370
    15
100
AcDbCircle
 10
89.20311617128321
 20
2.526437343320504
 30
0.0
 40
0.005
100
AcDbArc
 50
90.0
 51
180.0
  0
LINE
  5
1ADA
330
A
100
AcDbEntity
  8
001
  6
Continuous
370
    15
100
AcDbLine
 10
89.19811617175817
 20
2.501437353512883
 30
0.0
 11
89.19811617175817
 21
2.526437348297477
 31
0.0
  0
LINE
  5
1ADB
330
A
100
AcDbEntity
  8
001
  6
Continuous
370
    15
100
AcDbLine
 10
89.18811617128321
 20
2.501437353512883
 30
0.0
 11
89.18811617128321
 21
2.50643732639277
 31
0.0
  0
LINE
  5
1ADC
330
A
100
AcDbEntity
  8
001
  6
Continuous
370
    15
100
AcDbLine
 10
89.19061617140194
 20
2.50643732639277
 30
0.0
 11
89.18811617128321
 21
2.50643732639277
 31
0.0
  0
LINE
  5
1ADD
330
A
100
AcDbEntity
  8
001
  6
Continuous
370
    15
100
AcDbLine
 10
89.19061617140194
 20
2.50643732639277
 30
0.0
 11
89.19061617140194
 21
2.545187349042535
 31
0.0
  0
LINE
  5
1ADE
330
A
100
AcDbEntity
  8
001
  6
Continuous
370
    15
100
AcDbLine
 10
89.19061617140194
 20
2.545187349042535
 30
0.0
 11
89.18811617128321
 21
2.545187349042535
 31
0.0
  0
LINE
  5
1ADF
330
A
100
AcDbEntity
  8
001
  6
Continuous
370
    15
100
AcDbLine
 10
89.18811617128321
 20
2.545187349042535
 30
0.0
 11
89.18811617128321
 21
2.556687338820339
 31
0.0
  0
LINE
  5
1AE0
330
A
100
AcDbEntity
  8
001
  6
Continuous
370
    15
100
AcDbLine
 10
89.19061617140194
 20
2.556687338820339
 30
0.0
 11
89.18811617128321
 21
2.556687338820339
 31
0.0
  0
LINE
  5
1AE1
330
A
100
AcDbEntity
  8
001
  6
Continuous
370
    15
100
AcDbLine
 10
89.19061617140194
 20
2.757687341964484
 30
0.0
 11
89.19061617140194
 21
2.556687338820339
 31
0.0
  0
LINE
  5
1AE2
330
A
100
AcDbEntity
  8
001
  6
Continuous
370
    15
100
AcDbLine
 10
89.19061617140194
 20
2.757687341964484
 30
0.0
 11
89.18811617128321
 21
2.757687341964484
 31
0.0
  0
LINE
  5
1AE3
330
A
100
AcDbEntity
  8
001
  6
Continuous
370
    15
100
AcDbLine
 10
89.18811617128321
 20
2.769187341055513
 30
0.0
 11
89.18811617128321
 21
2.757687341964484
 31
0.0
  0
LINE
  5
1AE4
330
A
100
AcDbEntity
  8
001
  6
Continuous
370
    15
100
AcDbLine
 10
89.19061617140194
 20
2.769187341055513
 30
0.0
 11
89.18811617128321
 21
2.769187341055513
 31
0.0
  0
LINE
  5
1AE5
330
A
100
AcDbEntity
  8
001
  6
Continuous
370
    15
100
AcDbLine
 10
89.19061617140194
 20
2.80793734275052
 30
0.0
 11
89.19061617140194
 21
2.769187341055513
 31
0.0
  0
ARC
  5
1AE6
330
A
100
AcDbEntity
  8
001
  6
Continuous
370
    15
100
AcDbCircle
 10
89.20311617140194
 20
2.770437343309304
 30
0.0
 40
0.0125
100
AcDbArc
 50
90.0
 51
180.0
  0
LINE
  5
1AE7
330
A
100
AcDbEntity
  8
001
  6
Continuous
370
    15
100
AcDbLine
 10
89.19061617140194
 20
2.80793734275052
 30
0.0
 11
89.18811617128321
 21
2.80793734275052
 31
0.0
  0
LINE
  5
1AE8
330
A
100
AcDbEntity
  8
001
  6
Continuous
370
    15
100
AcDbLine
 10
89.18811617128321
 20
2.812937343570084
 30
0.0
 11
89.18811617128321
 21
2.80793734275052
 31
0.0
  0
LINE
  5
1AE9
330
A
100
AcDbEntity
  8
001
  6
Continuous
370
    15
100
AcDbLine
 10
89.19811617175817
 20
2.812937343570084
 30
0.0
 11
89.18811617128321
 21
2.812937343570084
 31
0.0
  0
LINE
  5
1AEA
330
A
100
AcDbEntity
  8
001
  6
Continuous
370
    15
100
AcDbLine
 10
89.19811617175817
 20
2.812937343570084
 30
0.0
 11
89.19811617175817
 21
2.787937344128877
 31
0.0
  0
LINE
  5
1AEB
330
A
100
AcDbEntity
  8
001
  6
Continuous
370
    15
100
AcDbLine
 10
89.18811617128321
 20
2.812937343570084
 30
0.0
 11
89.18811617128321
 21
2.817937343371013
 31
0.0
  0
LINE
  5
1AEC
330
A
100
AcDbEntity
  8
001
  6
Continuous
370
    15
100
AcDbLine
 10
89.18811617128321
 20
2.817937343371013
 30
0.0
 11
89.19811617175817
 21
2.817937343371013
 31
0.0
  0
LINE
  5
1AED
330
A
100
AcDbEntity
  8
001
  6
Continuous
370
    15
100
AcDbLine
 10
89.19811617175817
 20
2.817937343371013
 30
0.0
 11
89.19811617175817
 21
2.812937343570084
 31
0.0
  0
ARC
  5
1AEE
330
A
100
AcDbEntity
  8
001
100
AcDbCircle
 10
89.26711617025501
 20
2.712437422720978
 30
0.0
 40
0.0295
100
AcDbArc
 50
120.184963878119
 51
239.8150361218809
  0
ARC
  5
1AEF
330
A
100
AcDbEntity
  8
001
100
AcDbCircle
 10
89.26711617025501
 20
2.712437422720978
 30
0.0
 40
0.0295
100
AcDbArc
 50
300.184963878119
 51
59.81503612188095
  0
LINE
  5
1AF0
330
A
100
AcDbEntity
  8
001
100
AcDbLine
 10
89.25228377327883
 20
2.686937422720967
 30
0.0
 11
89.28194856723122
 21
2.686937422720967
 31
0.0
  0
LINE
  5
1AF1
330
A
100
AcDbEntity
  8
001
100
AcDbLine
 10
89.25228377327881
 20
2.73793742272097
 30
0.0
 11
89.28194856723122
 21
2.73793742272097
 31
0.0
  0
CIRCLE
  5
1AF2
330
A
100
AcDbEntity
  8
001
100
AcDbCircle
 10
89.26711617025501
 20
2.643652317720771
 30
0.0
 40
0.008
  0
CIRCLE
  5
1AF3
330
A
100
AcDbEntity
  8
001
100
AcDbCircle
 10
89.24211617025502
 20
2.643652317720771
 30
0.0
 40
0.008
  0
CIRCLE
  5
1AF4
330
A
100
AcDbEntity
  8
001
100
AcDbCircle
 10
89.25336617128321
 20
2.767437343320462
 30
0.0
 40
0.0125
  0
LINE
  5
1AF5
330
A
100
AcDbEntity
  8
001
100
AcDbLine
 10
89.22811617025503
 20
2.627687312720718
 30
0.0
 11
89.22811617025503
 21
2.569686752720691
 31
0.0
  0
LINE
  5
1AF6
330
A
100
AcDbEntity
  8
001
100
AcDbLine
 10
89.29311617025502
 20
2.626186752720687
 30
0.0
 11
89.29311617025502
 21
2.571186752720696
 31
0.0
  0
LINE
  5
1AF7
330
A
100
AcDbEntity
  8
001
100
AcDbLine
 10
89.27311617025502
 20
2.618686752720696
 30
0.0
 11
89.27311617025504
 21
2.598686752720696
 31
0.0
  0
LINE
  5
1AF8
330
A
100
AcDbEntity
  8
001
100
AcDbLine
 10
89.27161617025502
 20
2.6171867527207
 30
0.0
 11
89.27161617025502
 21
2.600186752720693
 31
0.0
  0
LINE
  5
1AF9
330
A
100
AcDbEntity
  8
001
100
AcDbLine
 10
89.26061617025503
 20
2.618686752720696
 30
0.0
 11
89.26061617025503
 21
2.598686752720696
 31
0.0
  0
LINE
  5
1AFA
330
A
100
AcDbEntity
  8
001
100
AcDbLine
 10
89.26211617025503
 20
2.6171867527207
 30
0.0
 11
89.26211617025503
 21
2.600186752720693
 31
0.0
  0
LINE
  5
1AFB
330
A
100
AcDbEntity
  8
001
100
AcDbLine
 10
89.29661617128322
 20
2.627687312720727
 30
0.0
 11
89.29661617128322
 21
2.569686752720691
 31
0.0
  0
LINE
  5
1AFC
330
A
100
AcDbEntity
  8
001
100
AcDbLine
 10
89.29661617128322
 20
2.627687312720727
 30
0.0
 11
89.22811617025503
 21
2.627687312720718
 31
0.0
  0
LINE
  5
1AFD
330
A
100
AcDbEntity
  8
001
100
AcDbLine
 10
89.29661617128322
 20
2.569686752720691
 30
0.0
 11
89.22811617025503
 21
2.569686752720691
 31
0.0
  0
SPLINE
  5
1AFE
330
A
100
AcDbEntity
  8
001
  6
Continuous
370
    15
100
AcDbSpline
210
0.0
220
0.0
230
1.0
 70
    24
 71
     1
 72
     4
 73
     2
 74
     0
 42
0.0000000001
 43
0.0000000001
 40
0.0
 40
0.0
 40
1.0
 40
1.0
 10
89.97572792753279
 20
2.640909144547313
 30
0.0
 10
89.97572792753279
 20
2.645187640455097
 30
0.0
  0
SPLINE
  5
1AFF
330
A
100
AcDbEntity
  8
001
  6
Continuous
370
    15
100
AcDbSpline
210
0.0
220
0.0
230
1.0
 70
    24
 71
     1
 72
     4
 73
     2
 74
     0
 42
0.0000000001
 43
0.0000000001
 40
0.0
 40
0.0
 40
1.0
 40
1.0
 10
89.96572792589367
 20
2.645187640455097
 30
0.0
 10
89.96572792589367
 20
2.640918262195319
 30
0.0
  0
SPLINE
  5
1B00
330
A
100
AcDbEntity
  8
001
  6
Continuous
370
    15
100
AcDbSpline
210
0.0
220
0.0
230
1.0
 70
    24
 71
     1
 72
     4
 73
     2
 74
     0
 42
0.0000000001
 43
0.0000000001
 40
0.0
 40
0.0
 40
1.0
 40
1.0
 10
89.96572792589367
 20
2.725187644254893
 30
0.0
 10
89.96572792589367
 20
2.720909148347109
 30
0.0
  0
SPLINE
  5
1B01
330
A
100
AcDbEntity
  8
001
  6
Continuous
370
    15
100
AcDbSpline
210
0.0
220
0.0
230
1.0
 70
    24
 71
     1
 72
     4
 73
     2
 74
     0
 42
0.0000000001
 43
0.0000000001
 40
0.0
 40
0.0
 40
1.0
 40
1.0
 10
89.97572792753279
 20
2.720918256681889
 30
0.0
 10
89.97572792753279
 20
2.725187644254893
 30
0.0
  0
SPLINE
  5
1B02
330
A
100
AcDbEntity
  8
001
  6
Continuous
370
    15
100
AcDbSpline
210
0.0
220
0.0
230
1.0
 70
    24
 71
     1
 72
     4
 73
     2
 74
     0
 42
0.0000000001
 43
0.0000000001
 40
0.0
 40
0.0
 40
1.0
 40
1.0
 10
89.96572792589367
 20
2.6744661404607
 30
0.0
 10
89.96572792589367
 20
2.670187644552916
 30
0.0
  0
SPLINE
  5
1B03
330
A
100
AcDbEntity
  8
001
  6
Continuous
370
    15
100
AcDbSpline
210
0.0
220
0.0
230
1.0
 70
    24
 71
     1
 72
     4
 73
     2
 74
     0
 42
0.0000000001
 43
0.0000000001
 40
0.0
 40
0.0
 40
1.0
 40
1.0
 10
89.97572792753279
 20
2.670187644552916
 30
0.0
 10
89.97572792753279
 20
2.674457022812694
 30
0.0
  0
SPLINE
  5
1B04
330
A
100
AcDbEntity
  8
001
  6
Continuous
370
    15
100
AcDbSpline
210
0.0
220
0.0
230
1.0
 70
    24
 71
     1
 72
     4
 73
     2
 74
     0
 42
0.0000000001
 43
0.0000000001
 40
0.0
 40
0.0
 40
1.0
 40
1.0
 10
89.97572792753279
 20
2.590187641917273
 30
0.0
 10
89.97572792753279
 20
2.594457023669511
 30
0.0
  0
SPLINE
  5
1B05
330
A
100
AcDbEntity
  8
001
  6
Continuous
370
    15
100
AcDbSpline
210
0.0
220
0.0
230
1.0
 70
    24
 71
     1
 72
     4
 73
     2
 74
     0
 42
0.0000000001
 43
0.0000000001
 40
0.0
 40
0.0
 40
1.0
 40
1.0
 10
89.96572792589367
 20
2.59446613898921
 30
0.0
 10
89.96572792589367
 20
2.590187641917273
 30
0.0
  0
CIRCLE
  5
1B06
330
A
100
AcDbEntity
  8
001
  6
Continuous
370
    15
100
AcDbCircle
 10
89.97072792560016
 20
2.697687642452474
 30
0.0
 40
0.0206750000000003
  0
CIRCLE
  5
1B07
330
A
100
AcDbEntity
  8
001
  6
Continuous
370
    15
100
AcDbCircle
 10
89.97072792560016
 20
2.697687642452474
 30
0.0
 40
0.0237499999999997
  0
CIRCLE
  5
1B08
330
A
100
AcDbEntity
  8
001
  6
Continuous
370
    15
100
AcDbCircle
 10
89.97072792560016
 20
2.617687642452475
 30
0.0
 40
0.0237500000000003
  0
CIRCLE
  5
1B09
330
A
100
AcDbEntity
  8
001
  6
Continuous
370
    15
100
AcDbCircle
 10
89.97072792560016
 20
2.617687642452475
 30
0.0
 40
0.0207500000000002
  0
LINE
  5
1B0A
330
A
100
AcDbEntity
  8
001
  6
Continuous
370
    15
100
AcDbLine
 10
89.97072792671323
 20
2.645187640455097
 30
0.0
 11
89.96572792589367
 21
2.645187640455097
 31
0.0
  0
LINE
  5
1B0B
330
A
100
AcDbEntity
  8
001
  6
Continuous
370
    15
100
AcDbLine
 10
89.97572792753279
 20
2.645187640455097
 30
0.0
 11
89.97072792671323
 21
2.645187640455097
 31
0.0
  0
LINE
  5
1B0C
330
A
100
AcDbEntity
  8
001
  6
Continuous
370
    15
100
AcDbLine
 10
89.97072792671323
 20
2.725187644254893
 30
0.0
 11
89.96572792589367
 21
2.725187644254893
 31
0.0
  0
LINE
  5
1B0D
330
A
100
AcDbEntity
  8
001
  6
Continuous
370
    15
100
AcDbLine
 10
89.97572792753279
 20
2.725187644254893
 30
0.0
 11
89.97072792671323
 21
2.725187644254893
 31
0.0
  0
LINE
  5
1B0E
330
A
100
AcDbEntity
  8
001
  6
Continuous
370
    15
100
AcDbLine
 10
89.97072792671323
 20
2.670187644552916
 30
0.0
 11
89.96572792589367
 21
2.670187644552916
 31
0.0
  0
LINE
  5
1B0F
330
A
100
AcDbEntity
  8
001
  6
Continuous
370
    15
100
AcDbLine
 10
89.97572792753279
 20
2.670187644552916
 30
0.0
 11
89.97072792671323
 21
2.670187644552916
 31
0.0
  0
LINE
  5
1B10
330
A
100
AcDbEntity
  8
001
  6
Continuous
370
    15
100
AcDbLine
 10
89.97072792671323
 20
2.590187641917273
 30
0.0
 11
89.96572792589367
 21
2.590187641917273
 31
0.0
  0
LINE
  5
1B11
330
A
100
AcDbEntity
  8
001
  6
Continuous
370
    15
100
AcDbLine
 10
89.97572792753279
 20
2.590187641917273
 30
0.0
 11
89.97072792671323
 21
2.590187641917273
 31
0.0
  0
CIRCLE
  5
1B12
330
A
100
AcDbEntity
  8
001
  6
Continuous
370
    15
100
AcDbCircle
 10
89.97072792560016
 20
2.697687642452474
 30
0.0
 40
0.005
  0
CIRCLE
  5
1B13
330
A
100
AcDbEntity
  8
001
  6
Continuous
370
    15
100
AcDbCircle
 10
89.97072792560016
 20
2.617687642452475
 30
0.0
 40
0.005
  0
LINE
  5
1B14
330
A
100
AcDbEntity
  8
001
  6
Continuous
370
    15
100
AcDbLine
 10
89.99440292887092
 20
2.682737914737791
 30
0.0
 11
89.99440292887092
 21
2.695801678937405
 31
0.0
  0
ARC
  5
1B15
330
A
100
AcDbEntity
  8
001
  6
Continuous
370
    15
100
AcDbCircle
 10
89.97072792560016
 20
2.697687642452474
 30
0.0
 40
0.028
100
AcDbArc
 50
212.2706212645898
 51
327.7293787354102
  0
LINE
  5
1B16
330
A
100
AcDbEntity
  8
001
  6
Continuous
370
    15
100
AcDbLine
 10
89.94705292455554
 20
2.695801678937405
 30
0.0
 11
89.94705292455554
 21
2.682737914737791
 31
0.0
  0
LINE
  5
1B17
330
A
100
AcDbEntity
  8
001
  6
Continuous
370
    15
100
AcDbLine
 10
89.94705292455554
 20
2.712637374070018
 30
0.0
 11
89.94705292455554
 21
2.699573609870404
 31
0.0
  0
ARC
  5
1B18
330
A
100
AcDbEntity
  8
001
  6
Continuous
370
    15
100
AcDbCircle
 10
89.97072792560016
 20
2.697687642452474
 30
0.0
 40
0.0280000000000001
100
AcDbArc
 50
32.27062126458979
 51
147.7293787354101
  0
LINE
  5
1B19
330
A
100
AcDbEntity
  8
001
  6
Continuous
370
    15
100
AcDbLine
 10
89.99440292887092
 20
2.699573609870404
 30
0.0
 11
89.99440292887092
 21
2.712637374070018
 31
0.0
  0
LINE
  5
1B1A
330
A
100
AcDbEntity
  8
001
  6
Continuous
370
    15
100
AcDbLine
 10
89.94705292455554
 20
2.632637370270222
 30
0.0
 11
89.94705292455554
 21
2.619573610727221
 31
0.0
  0
ARC
  5
1B1B
330
A
100
AcDbEntity
  8
001
  6
Continuous
370
    15
100
AcDbCircle
 10
89.97072792560016
 20
2.617687642452475
 30
0.0
 40
0.0280000000000001
100
AcDbArc
 50
32.27062126458979
 51
147.7293787354101
  0
LINE
  5
1B1C
330
A
100
AcDbEntity
  8
001
  6
Continuous
370
    15
100
AcDbLine
 10
89.99440292887092
 20
2.619573610727221
 30
0.0
 11
89.99440292887092
 21
2.632637370270222
 31
0.0
  0
LINE
  5
1B1D
330
A
100
AcDbEntity
  8
001
  6
Continuous
370
    15
100
AcDbLine
 10
89.94705292455554
 20
2.615801675137609
 30
0.0
 11
89.94705292455554
 21
2.602737913266301
 31
0.0
  0
LINE
  5
1B1E
330
A
100
AcDbEntity
  8
001
  6
Continuous
370
    15
100
AcDbLine
 10
89.99440292887092
 20
2.602737913266301
 30
0.0
 11
89.99440292887092
 21
2.615801675137609
 31
0.0
  0
ARC
  5
1B1F
330
A
100
AcDbEntity
  8
001
  6
Continuous
370
    15
100
AcDbCircle
 10
89.97072792560016
 20
2.617687642452475
 30
0.0
 40
0.0280000000000001
100
AcDbArc
 50
212.2706212645898
 51
327.7293787354102
  0
ARC
  5
1B20
330
A
100
AcDbEntity
  8
001
  6
Continuous
370
    15
100
AcDbCircle
 10
89.97047792560016
 20
2.697187182452772
 30
0.0
 40
0.0282499999999965
100
AcDbArc
 50
126.4033940225993
 51
270.0
  0
ARC
  5
1B21
330
A
100
AcDbEntity
  8
001
  6
Continuous
370
    15
100
AcDbCircle
 10
89.97047792560016
 20
2.697187182452772
 30
0.0
 40
0.0282499999999965
100
AcDbArc
 50
270.0
 51
32.12363370463839
  0
ARC
  5
1B22
330
A
100
AcDbEntity
  8
001
  6
Continuous
370
    15
100
AcDbCircle
 10
89.97047792560016
 20
2.61718734245269
 30
0.0
 40
0.0282499999999965
100
AcDbArc
 50
126.3889063070538
 51
270.0
  0
ARC
  5
1B23
330
A
100
AcDbEntity
  8
001
  6
Continuous
370
    15
100
AcDbCircle
 10
89.97047792560016
 20
2.61718734245269
 30
0.0
 40
0.0282499999999965
100
AcDbArc
 50
270.0
 51
32.12363370463839
  0
CIRCLE
  5
1B24
330
A
100
AcDbEntity
  8
001
  6
Continuous
370
    15
100
AcDbCircle
 10
89.95047792560013
 20
2.657187342452908
 30
0.0
 40
0.0067500000000018
  0
SPLINE
  5
1B25
330
A
100
AcDbEntity
  8
001
  6
Continuous
370
    15
100
AcDbSpline
210
0.0
220
0.0
230
1.0
 70
    24
 71
     1
 72
     4
 73
     2
 74
     0
 42
0.0000000001
 43
0.0000000001
 40
0.0
 40
0.0
 40
1.0
 40
1.0
 10
89.2396161658339
 20
2.707437423426655
 30
0.0
 10
89.2438845010124
 20
2.707437423426655
 30
0.0
  0
SPLINE
  5
1B26
330
A
100
AcDbEntity
  8
001
  6
Continuous
370
    15
100
AcDbSpline
210
0.0
220
0.0
230
1.0
 70
    24
 71
     1
 72
     4
 73
     2
 74
     0
 42
0.0000000001
 43
0.0000000001
 40
0.0
 40
0.0
 40
1.0
 40
1.0
 10
89.24389845222457
 20
2.717437425065782
 30
0.0
 10
89.2396161658339
 20
2.717437425065782
 30
0.0
  0
SPLINE
  5
1B27
330
A
100
AcDbEntity
  8
001
  6
Continuous
370
    15
100
AcDbSpline
210
0.0
220
0.0
230
1.0
 70
    24
 71
     1
 72
     4
 73
     2
 74
     0
 42
0.0000000001
 43
0.0000000001
 40
0.0
 40
0.0
 40
1.0
 40
1.0
 10
89.29034783967061
 20
2.707437423426655
 30
0.0
 10
89.29461616553588
 20
2.707437423426655
 30
0.0
  0
SPLINE
  5
1B28
330
A
100
AcDbEntity
  8
001
  6
Continuous
370
    15
100
AcDbSpline
210
0.0
220
0.0
230
1.0
 70
    24
 71
     1
 72
     4
 73
     2
 74
     0
 42
0.0000000001
 43
0.0000000001
 40
0.0
 40
0.0
 40
1.0
 40
1.0
 10
89.29461616553588
 20
2.717437425065782
 30
0.0
 10
89.29033388845844
 20
2.717437425065782
 30
0.0
  0
LINE
  5
1B29
330
A
100
AcDbEntity
  8
001
  6
Continuous
370
    15
100
AcDbLine
 10
89.25831385418995
 20
2.686912545371797
 30
0.0
 11
89.27591848649306
 21
2.686912545371797
 31
0.0
  0
LINE
  5
1B2A
330
A
100
AcDbEntity
  8
001
  6
Continuous
370
    15
100
AcDbLine
 10
89.25817089617474
 20
2.737912542555478
 30
0.0
 11
89.27606144450827
 21
2.737912542555478
 31
0.0
  0
CIRCLE
  5
1B2B
330
A
100
AcDbEntity
  8
001
  6
Continuous
370
    15
100
AcDbCircle
 10
89.26711617025501
 20
2.712437422720978
 30
0.0
 40
0.0237499999999997
  0
CIRCLE
  5
1B2C
330
A
100
AcDbEntity
  8
001
  6
Continuous
370
    15
100
AcDbCircle
 10
89.26711617025501
 20
2.712437422720978
 30
0.0
 40
0.0207499999999999
  0
LINE
  5
1B2D
330
A
100
AcDbEntity
  8
001
  6
Continuous
370
    15
100
AcDbLine
 10
89.2396161658339
 20
2.707437423426655
 30
0.0
 11
89.2396161658339
 21
2.717437425065782
 31
0.0
  0
LINE
  5
1B2E
330
A
100
AcDbEntity
  8
001
  6
Continuous
370
    15
100
AcDbLine
 10
89.29461616553588
 20
2.707437423426655
 30
0.0
 11
89.29461616553588
 21
2.717437425065782
 31
0.0
  0
CIRCLE
  5
1B2F
330
A
100
AcDbEntity
  8
001
  6
Continuous
370
    15
100
AcDbCircle
 10
89.26711617025501
 20
2.712437422720978
 30
0.0
 40
0.005
  0
LINE
  5
1B30
330
A
100
AcDbEntity
  8
001
  6
Continuous
370
    15
100
AcDbLine
 10
89.26711616568489
 20
2.736187416497615
 30
0.0
 11
89.25427336707933
 21
2.736187416497615
 31
0.0
  0
ARC
  5
1B31
330
A
100
AcDbEntity
  8
001
  6
Continuous
370
    15
100
AcDbCircle
 10
89.26711617025501
 20
2.712437422720978
 30
0.0
 40
0.0270000000000001
100
AcDbArc
 50
118.4022819014461
 51
169.3280707142826
  0
ARC
  5
1B32
330
A
100
AcDbEntity
  8
001
  6
Continuous
370
    15
100
AcDbCircle
 10
89.26711617025501
 20
2.712437422720978
 30
0.0
 40
0.0270000000000001
100
AcDbArc
 50
190.6719292857173
 51
241.5977180985537
  0
LINE
  5
1B33
330
A
100
AcDbEntity
  8
001
  6
Continuous
370
    15
100
AcDbLine
 10
89.25427336707933
 20
2.688687422681597
 30
0.0
 11
89.26711616568489
 21
2.688687422681597
 31
0.0
  0
LINE
  5
1B34
330
A
100
AcDbEntity
  8
001
  6
Continuous
370
    15
100
AcDbLine
 10
89.27995897360368
 20
2.736187416497615
 30
0.0
 11
89.26711616568489
 21
2.736187416497615
 31
0.0
  0
ARC
  5
1B35
330
A
100
AcDbEntity
  8
001
  6
Continuous
370
    15
100
AcDbCircle
 10
89.26711617025501
 20
2.712437422720978
 30
0.0
 40
0.027
100
AcDbArc
 50
298.4022819014461
 51
349.3280707142826
  0
ARC
  5
1B36
330
A
100
AcDbEntity
  8
001
  6
Continuous
370
    15
100
AcDbCircle
 10
89.26711617025501
 20
2.712437422720978
 30
0.0
 40
0.027
100
AcDbArc
 50
10.67192928571731
 51
61.59771809855381
  0
LINE
  5
1B37
330
A
100
AcDbEntity
  8
001
  6
Continuous
370
    15
100
AcDbLine
 10
89.26711616568489
 20
2.688687422681597
 30
0.0
 11
89.27995897360368
 21
2.688687422681597
 31
0.0
  0
LINE
  5
1B38
330
A
100
AcDbEntity
  8
001
  6
Continuous
370
    15
100
AcDbLine
 10
89.2497752094291
 20
2.74247285667434
 30
0.0
 11
89.23243424386008
 21
2.712437424246219
 31
0.0
  0
LINE
  5
1B39
330
A
100
AcDbEntity
  8
001
  6
Continuous
370
    15
100
AcDbLine
 10
89.23243424386008
 20
2.712437424246219
 30
0.0
 11
89.22666074238939
 21
2.712437424246219
 31
0.0
  0
LINE
  5
1B3A
330
A
100
AcDbEntity
  8
001
  6
Continuous
370
    15
100
AcDbLine
 10
89.22666074238939
 20
2.712437424246219
 30
0.0
 11
89.24688845403714
 21
2.747472848180678
 31
0.0
  0
LINE
  5
1B3B
330
A
100
AcDbEntity
  8
001
  6
Continuous
370
    15
100
AcDbLine
 10
89.2497752094291
 20
2.74247285667434
 30
0.0
 11
89.24688845403714
 21
2.747472848180678
 31
0.0
  0
LINE
  5
1B3C
330
A
100
AcDbEntity
  8
001
  6
Continuous
370
    15
100
AcDbLine
 10
89.23243424386008
 20
2.712437424246219
 30
0.0
 11
89.2497752094291
 21
2.682401991818097
 31
0.0
  0
LINE
  5
1B3D
330
A
100
AcDbEntity
  8
001
  6
Continuous
370
    15
100
AcDbLine
 10
89.2497752094291
 20
2.682401991818097
 30
0.0
 11
89.24688845403714
 21
2.677402000311759
 31
0.0
  0
LINE
  5
1B3E
330
A
100
AcDbEntity
  8
001
  6
Continuous
370
    15
100
AcDbLine
 10
89.24688845403714
 20
2.677402000311759
 30
0.0
 11
89.22666074238939
 21
2.712437424246219
 31
0.0
  0
LINE
  5
1B3F
330
A
100
AcDbEntity
  8
001
  6
Continuous
370
    15
100
AcDbLine
 10
89.30757158898039
 20
2.712437424246219
 30
0.0
 11
89.28734387733264
 21
2.677402000311759
 31
0.0
  0
LINE
  5
1B40
330
A
100
AcDbEntity
  8
001
  6
Continuous
370
    15
100
AcDbLine
 10
89.28734387733264
 20
2.677402000311759
 30
0.0
 11
89.28445713125391
 21
2.682401991818097
 31
0.0
  0
LINE
  5
1B41
330
A
100
AcDbEntity
  8
001
  6
Continuous
370
    15
100
AcDbLine
 10
89.28445713125391
 20
2.682401991818097
 30
0.0
 11
89.30179809682293
 21
2.712437424246219
 31
0.0
  0
LINE
  5
1B42
330
A
100
AcDbEntity
  8
001
  6
Continuous
370
    15
100
AcDbLine
 10
89.30757158898039
 20
2.712437424246219
 30
0.0
 11
89.30179809682293
 21
2.712437424246219
 31
0.0
  0
LINE
  5
1B43
330
A
100
AcDbEntity
  8
001
  6
Continuous
370
    15
100
AcDbLine
 10
89.2497752094291
 20
2.682401991818097
 30
0.0
 11
89.28445713125391
 21
2.682401991818097
 31
0.0
  0
LINE
  5
1B44
330
A
100
AcDbEntity
  8
001
  6
Continuous
370
    15
100
AcDbLine
 10
89.28734387733264
 20
2.677402000311759
 30
0.0
 11
89.24688845403714
 21
2.677402000311759
 31
0.0
  0
LINE
  5
1B45
330
A
100
AcDbEntity
  8
001
  6
Continuous
370
    15
100
AcDbLine
 10
89.28734387733264
 20
2.747472848180678
 30
0.0
 11
89.30757158898039
 21
2.712437424246219
 31
0.0
  0
LINE
  5
1B46
330
A
100
AcDbEntity
  8
001
  6
Continuous
370
    15
100
AcDbLine
 10
89.30179809682293
 20
2.712437424246219
 30
0.0
 11
89.28445713125391
 21
2.74247285667434
 31
0.0
  0
LINE
  5
1B47
330
A
100
AcDbEntity
  8
001
  6
Continuous
370
    15
100
AcDbLine
 10
89.28734387733264
 20
2.747472848180678
 30
0.0
 11
89.28445713125391
 21
2.74247285667434
 31
0.0
  0
LINE
  5
1B48
330
A
100
AcDbEntity
  8
001
  6
Continuous
370
    15
100
AcDbLine
 10
89.28445713125391
 20
2.74247285667434
 30
0.0
 11
89.2497752094291
 21
2.74247285667434
 31
0.0
  0
LINE
  5
1B49
330
A
100
AcDbEntity
  8
001
  6
Continuous
370
    15
100
AcDbLine
 10
89.24688845403714
 20
2.747472848180678
 30
0.0
 11
89.28734387733264
 21
2.747472848180678
 31
0.0
  0
ARC
  5
1B4A
330
A
100
AcDbEntity
  8
001
  6
Continuous
370
    15
100
AcDbCircle
 10
89.26711617025501
 20
2.712437422720978
 30
0.0
 40
0.0269999999999999
100
AcDbArc
 50
270.0
 51
298.4022819014461
  0
ARC
  5
1B4B
330
A
100
AcDbEntity
  8
001
  6
Continuous
370
    15
100
AcDbCircle
 10
89.26711617025501
 20
2.712437422720978
 30
0.0
 40
0.027
100
AcDbArc
 50
61.59771809855381
 51
118.4022819014461
  0
ARC
  5
1B4C
330
A
100
AcDbEntity
  8
001
  6
Continuous
370
    15
100
AcDbCircle
 10
89.26711617025501
 20
2.712437422720978
 30
0.0
 40
0.0269999999999999
100
AcDbArc
 50
241.5977180985537
 51
270.0
  0
LINE
  5
1B4D
330
A
100
AcDbEntity
  8
001
100
AcDbLine
 10
89.22811617025503
 20
2.626186752720687
 30
0.0
 11
89.29311617025502
 21
2.626186752720687
 31
0.0
  0
LINE
  5
1B4E
330
A
100
AcDbEntity
  8
001
100
AcDbLine
 10
89.22811617025503
 20
2.571186752720696
 30
0.0
 11
89.29311617025502
 21
2.571186752720696
 31
0.0
  0
LINE
  5
1B4F
330
A
100
AcDbEntity
  8
001
100
AcDbLine
 10
89.22811617025503
 20
2.621186752720696
 30
0.0
 11
89.29311617025502
 21
2.621186752720696
 31
0.0
  0
LINE
  5
1B50
330
A
100
AcDbEntity
  8
001
100
AcDbLine
 10
89.22811617025503
 20
2.596186752720696
 30
0.0
 11
89.29311617025504
 21
2.596186752720696
 31
0.0
  0
LINE
  5
1B51
330
A
100
AcDbEntity
  8
001
100
AcDbLine
 10
89.26061617025503
 20
2.598686752720696
 30
0.0
 11
89.27311617025504
 21
2.598686752720696
 31
0.0
  0
LINE
  5
1B52
330
A
100
AcDbEntity
  8
001
100
AcDbLine
 10
89.26211617025503
 20
2.600186752720693
 30
0.0
 11
89.27161617025502
 21
2.600186752720693
 31
0.0
  0
LINE
  5
1B53
330
A
100
AcDbEntity
  8
001
100
AcDbLine
 10
89.26061617025503
 20
2.618686752720696
 30
0.0
 11
89.27311617025502
 21
2.618686752720696
 31
0.0
  0
LINE
  5
1B54
330
A
100
AcDbEntity
  8
001
100
AcDbLine
 10
89.26211617025503
 20
2.6171867527207
 30
0.0
 11
89.27161617025502
 21
2.6171867527207
 31
0.0
  0
CIRCLE
  5
1B55
330
A
100
AcDbEntity
  8
001
100
AcDbCircle
 10
89.28061617025502
 20
2.608686752720696
 30
0.0
 40
0.005
  0
CIRCLE
  5
1B56
330
A
100
AcDbEntity
  8
001
100
AcDbCircle
 10
89.28061617025504
 20
2.583686752720696
 30
0.0
 40
0.005
  0
CIRCLE
  5
1B57
330
A
100
AcDbEntity
  8
001
100
AcDbCircle
 10
89.25061617025503
 20
2.608686752720696
 30
0.0
 40
0.00825
  0
LINE
  5
1B58
330
A
100
AcDbEntity
  8
001
100
AcDbLine
 10
89.27311617025504
 20
2.593686752720696
 30
0.0
 11
89.27311617025505
 21
2.573686752720696
 31
0.0
  0
LINE
  5
1B59
330
A
100
AcDbEntity
  8
001
100
AcDbLine
 10
89.27161617025502
 20
2.5921867527207
 30
0.0
 11
89.27161617025506
 21
2.575186752720692
 31
0.0
  0
LINE
  5
1B5A
330
A
100
AcDbEntity
  8
001
100
AcDbLine
 10
89.26061617025503
 20
2.593686752720696
 30
0.0
 11
89.26061617025506
 21
2.573686752720696
 31
0.0
  0
LINE
  5
1B5B
330
A
100
AcDbEntity
  8
001
100
AcDbLine
 10
89.26211617025504
 20
2.5921867527207
 30
0.0
 11
89.26211617025504
 21
2.575186752720692
 31
0.0
  0
LINE
  5
1B5C
330
A
100
AcDbEntity
  8
001
100
AcDbLine
 10
89.26061617025506
 20
2.573686752720696
 30
0.0
 11
89.27311617025505
 21
2.573686752720696
 31
0.0
  0
LINE
  5
1B5D
330
A
100
AcDbEntity
  8
001
100
AcDbLine
 10
89.26211617025504
 20
2.575186752720692
 30
0.0
 11
89.27161617025506
 21
2.575186752720692
 31
0.0
  0
LINE
  5
1B5E
330
A
100
AcDbEntity
  8
001
100
AcDbLine
 10
89.26061617025503
 20
2.593686752720696
 30
0.0
 11
89.27311617025504
 21
2.593686752720696
 31
0.0
  0
LINE
  5
1B5F
330
A
100
AcDbEntity
  8
001
100
AcDbLine
 10
89.26211617025504
 20
2.5921867527207
 30
0.0
 11
89.27161617025502
 21
2.5921867527207
 31
0.0
  0
CIRCLE
  5
1B60
330
A
100
AcDbEntity
  8
001
100
AcDbCircle
 10
89.25061617025503
 20
2.583686752720696
 30
0.0
 40
0.00825
  0
CIRCLE
  5
1B61
330
A
100
AcDbEntity
  8
001
100
AcDbCircle
 10
89.25336617128321
 20
2.546937346509358
 30
0.0
 40
0.0125
  0
CIRCLE
  5
1B62
330
A
100
AcDbEntity
  8
001
100
AcDbCircle
 10
89.25336617128321
 20
2.767437343052234
 30
0.0
 40
0.0075
  0
CIRCLE
  5
1B63
330
A
100
AcDbEntity
  8
001
100
AcDbCircle
 10
89.25336617128321
 20
2.546937346509358
 30
0.0
 40
0.0075
  0
LINE
  5
1B64
330
A
100
AcDbEntity
  8
001
  6
Continuous
370
    15
100
AcDbLine
 10
90.02672792409702
 20
2.496437343380094
 30
0.0
 11
90.036727924572
 21
2.496437343380094
 31
0.0
  0
LINE
  5
1B65
330
A
100
AcDbEntity
  8
001
  6
Continuous
370
    15
100
AcDbLine
 10
90.036727924572
 20
2.496437343380094
 30
0.0
 11
90.036727924572
 21
2.501437353512883
 31
0.0
  0
LINE
  5
1B66
330
A
100
AcDbEntity
  8
001
  6
Continuous
370
    15
100
AcDbLine
 10
90.036727924572
 20
2.501437353512883
 30
0.0
 11
90.02672792409702
 21
2.501437353512883
 31
0.0
  0
LINE
  5
1B67
330
A
100
AcDbEntity
  8
001
  6
Continuous
370
    15
100
AcDbLine
 10
90.02672792409702
 20
2.501437353512883
 30
0.0
 11
90.02672792409702
 21
2.496437343380094
 31
0.0
  0
ARC
  5
1B68
330
A
100
AcDbEntity
  8
001
  6
Continuous
370
    15
100
AcDbCircle
 10
90.02172792457198
 20
2.787937343320473
 30
0.0
 40
0.005
100
AcDbArc
 50
270.0
 51
0.0
  0
LINE
  5
1B69
330
A
100
AcDbEntity
  8
001
  6
Continuous
370
    15
100
AcDbLine
 10
90.02172792445326
 20
2.782937343309304
 30
0.0
 11
89.91922739614393
 21
2.782937343309313
 31
0.0
  0
ARC
  5
1B6A
330
A
100
AcDbEntity
  8
001
  6
Continuous
370
    15
100
AcDbCircle
 10
89.91922792457199
 20
2.770437343320482
 30
0.0
 40
0.0125000000000002
100
AcDbArc
 50
90.0
 51
180.0
  0
LINE
  5
1B6B
330
A
100
AcDbEntity
  8
001
  6
Continuous
370
    15
100
AcDbLine
 10
89.90672792188979
 20
2.770437343320482
 30
0.0
 11
89.90672792188979
 21
2.543937346509338
 31
0.0
  0
ARC
  5
1B6C
330
A
100
AcDbEntity
  8
001
  6
Continuous
370
    15
100
AcDbCircle
 10
89.91922792457199
 20
2.543937343320495
 30
0.0
 40
0.0125
100
AcDbArc
 50
180.0
 51
270.0
  0
LINE
  5
1B6D
330
A
100
AcDbEntity
  8
001
  6
Continuous
370
    15
100
AcDbLine
 10
90.02172792445326
 20
2.531437339803815
 30
0.0
 11
89.91922792457199
 21
2.531437339803815
 31
0.0
  0
ARC
  5
1B6E
330
A
100
AcDbEntity
  8
001
  6
Continuous
370
    15
100
AcDbCircle
 10
90.02172792445326
 20
2.543937339803815
 30
0.0
 40
0.0125
100
AcDbArc
 50
270.0
 51
0.0
  0
ARC
  5
1B6F
330
A
100
AcDbEntity
  8
001
  6
Continuous
370
    15
100
AcDbCircle
 10
90.02172792457198
 20
2.526437343320504
 30
0.0
 40
0.005
100
AcDbArc
 50
0.0
 51
90.0
  0
LINE
  5
1B70
330
A
100
AcDbEntity
  8
001
  6
Continuous
370
    15
100
AcDbLine
 10
90.02672792409702
 20
2.501437353512883
 30
0.0
 11
90.02672792409702
 21
2.526437348297477
 31
0.0
  0
LINE
  5
1B71
330
A
100
AcDbEntity
  8
001
  6
Continuous
370
    15
100
AcDbLine
 10
90.036727924572
 20
2.501437353512883
 30
0.0
 11
90.036727924572
 21
2.50643732639277
 31
0.0
  0
LINE
  5
1B72
330
A
100
AcDbEntity
  8
001
  6
Continuous
370
    15
100
AcDbLine
 10
90.03422792445325
 20
2.50643732639277
 30
0.0
 11
90.036727924572
 21
2.50643732639277
 31
0.0
  0
LINE
  5
1B73
330
A
100
AcDbEntity
  8
001
  6
Continuous
370
    15
100
AcDbLine
 10
90.03422792445325
 20
2.50643732639277
 30
0.0
 11
90.03422792445325
 21
2.545187349042535
 31
0.0
  0
LINE
  5
1B74
330
A
100
AcDbEntity
  8
001
  6
Continuous
370
    15
100
AcDbLine
 10
90.03422792445325
 20
2.545187349042535
 30
0.0
 11
90.036727924572
 21
2.545187349042535
 31
0.0
  0
LINE
  5
1B75
330
A
100
AcDbEntity
  8
001
  6
Continuous
370
    15
100
AcDbLine
 10
90.036727924572
 20
2.545187349042535
 30
0.0
 11
90.036727924572
 21
2.556687338820339
 31
0.0
  0
LINE
  5
1B76
330
A
100
AcDbEntity
  8
001
  6
Continuous
370
    15
100
AcDbLine
 10
90.03422792445325
 20
2.556687338820339
 30
0.0
 11
90.036727924572
 21
2.556687338820339
 31
0.0
  0
LINE
  5
1B77
330
A
100
AcDbEntity
  8
001
  6
Continuous
370
    15
100
AcDbLine
 10
90.03422792445325
 20
2.757687341964484
 30
0.0
 11
90.03422792445325
 21
2.556687338820339
 31
0.0
  0
LINE
  5
1B78
330
A
100
AcDbEntity
  8
001
  6
Continuous
370
    15
100
AcDbLine
 10
90.03422792445325
 20
2.757687341964484
 30
0.0
 11
90.036727924572
 21
2.757687341964484
 31
0.0
  0
LINE
  5
1B79
330
A
100
AcDbEntity
  8
001
  6
Continuous
370
    15
100
AcDbLine
 10
90.036727924572
 20
2.769187341055513
 30
0.0
 11
90.036727924572
 21
2.757687341964484
 31
0.0
  0
LINE
  5
1B7A
330
A
100
AcDbEntity
  8
001
  6
Continuous
370
    15
100
AcDbLine
 10
90.03422792445325
 20
2.769187341055513
 30
0.0
 11
90.036727924572
 21
2.769187341055513
 31
0.0
  0
LINE
  5
1B7B
330
A
100
AcDbEntity
  8
001
  6
Continuous
370
    15
100
AcDbLine
 10
90.03422792445325
 20
2.80793734275052
 30
0.0
 11
90.03422792445325
 21
2.769187341055513
 31
0.0
  0
ARC
  5
1B7C
330
A
100
AcDbEntity
  8
001
  6
Continuous
370
    15
100
AcDbCircle
 10
90.02172792445326
 20
2.770437343309304
 30
0.0
 40
0.0125
100
AcDbArc
 50
0.0
 51
90.0
  0
LINE
  5
1B7D
330
A
100
AcDbEntity
  8
001
  6
Continuous
370
    15
100
AcDbLine
 10
90.03422792445325
 20
2.80793734275052
 30
0.0
 11
90.036727924572
 21
2.80793734275052
 31
0.0
  0
LINE
  5
1B7E
330
A
100
AcDbEntity
  8
001
  6
Continuous
370
    15
100
AcDbLine
 10
90.036727924572
 20
2.812937343570084
 30
0.0
 11
90.036727924572
 21
2.80793734275052
 31
0.0
  0
LINE
  5
1B7F
330
A
100
AcDbEntity
  8
001
  6
Continuous
370
    15
100
AcDbLine
 10
90.02672792409702
 20
2.812937343570084
 30
0.0
 11
90.036727924572
 21
2.812937343570084
 31
0.0
  0
LINE
  5
1B80
330
A
100
AcDbEntity
  8
001
  6
Continuous
370
    15
100
AcDbLine
 10
90.02672792409702
 20
2.812937343570084
 30
0.0
 11
90.02672792409702
 21
2.787937344128877
 31
0.0
  0
LINE
  5
1B81
330
A
100
AcDbEntity
  8
001
  6
Continuous
370
    15
100
AcDbLine
 10
90.036727924572
 20
2.812937343570084
 30
0.0
 11
90.036727924572
 21
2.817937343371013
 31
0.0
  0
LINE
  5
1B82
330
A
100
AcDbEntity
  8
001
  6
Continuous
370
    15
100
AcDbLine
 10
90.036727924572
 20
2.817937343371013
 30
0.0
 11
90.02672792409702
 21
2.817937343371013
 31
0.0
  0
LINE
  5
1B83
330
A
100
AcDbEntity
  8
001
  6
Continuous
370
    15
100
AcDbLine
 10
90.02672792409702
 20
2.817937343371013
 30
0.0
 11
90.02672792409702
 21
2.812937343570084
 31
0.0
  0
CIRCLE
  5
1B84
330
A
100
AcDbEntity
  8
001
100
AcDbCircle
 10
89.97147792457196
 20
2.767437343320462
 30
0.0
 40
0.0125
  0
CIRCLE
  5
1B85
330
A
100
AcDbEntity
  8
001
100
AcDbCircle
 10
89.97147792457196
 20
2.546937346509358
 30
0.0
 40
0.0125
  0
CIRCLE
  5
1B86
330
A
100
AcDbEntity
  8
001
100
AcDbCircle
 10
89.97147792457196
 20
2.767437343052234
 30
0.0
 40
0.0075
  0
CIRCLE
  5
1B87
330
A
100
AcDbEntity
  8
001
100
AcDbCircle
 10
89.97147792457196
 20
2.546937346509358
 30
0.0
 40
0.0075
  0
LINE
  5
1B8E
330
A
100
AcDbEntity
  8
001
100
AcDbLine
 10
89.86477729861411
 20
2.588437335909257
 30
0.0
 11
89.86477729861411
 21
2.384712945750877
 31
0.0
  0
LINE
  5
1B8F
330
A
100
AcDbEntity
  8
001
100
AcDbLine
 10
89.40947730091187
 20
2.684587336954574
 30
0.0
 11
89.40947730091187
 21
2.384712945750877
 31
0.0
  0
LINE
  5
1B9A
330
A
100
AcDbEntity
  8
001
100
AcDbLine
 10
89.40947730091187
 20
2.684587336954574
 30
0.0
 11
89.40947730091187
 21
2.414084326243044
 31
0.0
  0
LINE
  5
1BA0
330
A
100
AcDbEntity
  8
001
100
AcDbLine
 10
89.86477729861411
 20
2.588437335909257
 30
0.0
 11
89.86477729861411
 21
2.413987533041884
 31
0.0
  0
LINE
  5
1BA8
330
A
100
AcDbEntity
  8
001
100
AcDbLine
 10
89.80447730046483
 20
2.524437335197727
 30
0.0
 11
89.80447730046483
 21
2.434762856690853
 31
0.0
  0
LINE
  5
1BA9
330
A
100
AcDbEntity
  8
001
100
AcDbLine
 10
89.50447730717035
 20
2.524437335197727
 30
0.0
 11
89.50447730717035
 21
2.434762856690853
 31
0.0
  0
LINE
  5
1BAE
330
A
100
AcDbEntity
  8
001
370
     0
100
AcDbLine
 10
89.70645922202825
 20
2.665229021780497
 30
0.0
 11
89.72244174228464
 21
2.665229021780497
 31
0.0
  0
LINE
  5
1BAF
330
A
100
AcDbEntity
  8
001
370
     0
100
AcDbLine
 10
89.72244174228464
 20
2.665229021780497
 30
0.0
 11
89.72244174228464
 21
2.661794938689091
 31
0.0
  0
LINE
  5
1BB0
330
A
100
AcDbEntity
  8
001
370
     0
100
AcDbLine
 10
89.72244174228464
 20
2.661794938689091
 30
0.0
 11
89.71243627509089
 21
2.661794938689091
 31
0.0
  0
LINE
  5
1BB1
330
A
100
AcDbEntity
  8
001
370
     0
100
AcDbLine
 10
89.71243627509089
 20
2.661794938689091
 30
0.0
 11
89.71243627509089
 21
2.659238931778928
 31
0.0
  0
LINE
  5
1BB2
330
A
100
AcDbEntity
  8
001
370
     0
100
AcDbLine
 10
89.71243627509089
 20
2.659238931778928
 30
0.0
 11
89.72171704185557
 21
2.659238931778928
 31
0.0
  0
LINE
  5
1BB3
330
A
100
AcDbEntity
  8
001
370
     0
100
AcDbLine
 10
89.72171704185557
 20
2.659238931778928
 30
0.0
 11
89.72171704185557
 21
2.655958799598784
 31
0.0
  0
LINE
  5
1BB4
330
A
100
AcDbEntity
  8
001
370
     0
100
AcDbLine
 10
89.72171704185557
 20
2.655958799598784
 30
0.0
 11
89.71243627509089
 21
2.655958799598784
 31
0.0
  0
LINE
  5
1BB5
330
A
100
AcDbEntity
  8
001
370
     0
100
AcDbLine
 10
89.71243627509089
 20
2.655958799598784
 30
0.0
 11
89.71243627509089
 21
2.652788139361747
 31
0.0
  0
LINE
  5
1BB6
330
A
100
AcDbEntity
  8
001
370
     0
100
AcDbLine
 10
89.71243627509089
 20
2.652788139361747
 30
0.0
 11
89.72244174228464
 21
2.652788139361747
 31
0.0
  0
LINE
  5
1BB7
330
A
100
AcDbEntity
  8
001
370
     0
100
AcDbLine
 10
89.72244174228464
 20
2.652788139361747
 30
0.0
 11
89.72244174228464
 21
2.649145656967057
 31
0.0
  0
LINE
  5
1BB8
330
A
100
AcDbEntity
  8
001
370
     0
100
AcDbLine
 10
89.72244174228464
 20
2.649145656967057
 30
0.0
 11
89.70645922202825
 21
2.649145656967057
 31
0.0
  0
LINE
  5
1BB9
330
A
100
AcDbEntity
  8
001
370
     0
100
AcDbLine
 10
89.70645922202825
 20
2.649145656967057
 30
0.0
 11
89.70645922202825
 21
2.665229021780497
 31
0.0
  0
LINE
  5
1BBA
330
A
100
AcDbEntity
  8
001
370
     0
100
AcDbLine
 10
89.68738042877467
 20
2.665229021780497
 30
0.0
 11
89.70550905924348
 21
2.665229021780497
 31
0.0
  0
LINE
  5
1BBB
330
A
100
AcDbEntity
  8
001
370
     0
100
AcDbLine
 10
89.70550905924348
 20
2.665229021780497
 30
0.0
 11
89.70550905924348
 21
2.66125754839738
 31
0.0
  0
LINE
  5
1BBC
330
A
100
AcDbEntity
  8
001
370
     0
100
AcDbLine
 10
89.70550905924348
 20
2.66125754839738
 30
0.0
 11
89.69942656035122
 21
2.66125754839738
 31
0.0
  0
LINE
  5
1BBD
330
A
100
AcDbEntity
  8
001
370
     0
100
AcDbLine
 10
89.69942656035122
 20
2.66125754839738
 30
0.0
 11
89.69942656035122
 21
2.649145656967057
 31
0.0
  0
LINE
  5
1BBE
330
A
100
AcDbEntity
  8
001
370
     0
100
AcDbLine
 10
89.69942656035122
 20
2.649145656967057
 30
0.0
 11
89.69346292766692
 21
2.649145656967057
 31
0.0
  0
LINE
  5
1BBF
330
A
100
AcDbEntity
  8
001
370
     0
100
AcDbLine
 10
89.69346292766692
 20
2.649145656967057
 30
0.0
 11
89.69346292766692
 21
2.66125754839738
 31
0.0
  0
LINE
  5
1BC0
330
A
100
AcDbEntity
  8
001
370
     0
100
AcDbLine
 10
89.69346292766692
 20
2.66125754839738
 30
0.0
 11
89.68738042877467
 21
2.66125754839738
 31
0.0
  0
LINE
  5
1BC1
330
A
100
AcDbEntity
  8
001
370
     0
100
AcDbLine
 10
89.68738042877467
 20
2.66125754839738
 30
0.0
 11
89.68738042877467
 21
2.665229021780497
 31
0.0
  0
LINE
  5
1BC2
330
A
100
AcDbEntity
  8
001
370
     0
100
AcDbLine
 10
89.6822714824694
 20
2.655278578137841
 30
0.0
 11
89.68014109327155
 21
2.661060268836127
 31
0.0
  0
LINE
  5
1BC3
330
A
100
AcDbEntity
  8
001
370
     0
100
AcDbLine
 10
89.68014109327155
 20
2.661060268836127
 30
0.0
 11
89.67803294355778
 21
2.655278578137841
 31
0.0
  0
LINE
  5
1BC4
330
A
100
AcDbEntity
  8
001
370
     0
100
AcDbLine
 10
89.67803294355778
 20
2.655278578137841
 30
0.0
 11
89.6822714824694
 21
2.655278578137841
 31
0.0
  0
LINE
  5
1BC5
330
A
100
AcDbEntity
  8
001
370
     0
100
AcDbLine
 10
89.68350884135013
 20
2.65180059123737
 30
0.0
 11
89.67673768533058
 21
2.65180059123737
 31
0.0
  0
LINE
  5
1BC6
330
A
100
AcDbEntity
  8
001
370
     0
100
AcDbLine
 10
89.67673768533058
 20
2.65180059123737
 30
0.0
 11
89.67579710853032
 21
2.649145465247366
 31
0.0
  0
LINE
  5
1BC7
330
A
100
AcDbEntity
  8
001
370
     0
100
AcDbLine
 10
89.67579710853032
 20
2.649145465247366
 30
0.0
 11
89.66970809116858
 21
2.649145465247366
 31
0.0
  0
LINE
  5
1BC8
330
A
100
AcDbEntity
  8
001
370
     0
100
AcDbLine
 10
89.66970809116858
 20
2.649145465247366
 30
0.0
 11
89.67696238080753
 21
2.665228830060815
 31
0.0
  0
LINE
  5
1BC9
330
A
100
AcDbEntity
  8
001
370
     0
100
AcDbLine
 10
89.67696238080753
 20
2.665228830060815
 30
0.0
 11
89.6834666630183
 21
2.665228830060815
 31
0.0
  0
LINE
  5
1BCA
330
A
100
AcDbEntity
  8
001
370
     0
100
AcDbLine
 10
89.6834666630183
 20
2.665228830060815
 30
0.0
 11
89.69071903546034
 21
2.649145465247366
 31
0.0
  0
LINE
  5
1BCB
330
A
100
AcDbEntity
  8
001
370
     0
100
AcDbLine
 10
89.69071903546034
 20
2.649145465247366
 30
0.0
 11
89.68447395827077
 21
2.649145465247366
 31
0.0
  0
LINE
  5
1BCC
330
A
100
AcDbEntity
  8
001
370
     0
100
AcDbLine
 10
89.68447395827077
 20
2.649145465247366
 30
0.0
 11
89.68350884135013
 21
2.65180059123737
 31
0.0
  0
SPLINE
  5
1BCD
330
A
100
AcDbEntity
  8
001
370
     0
100
AcDbSpline
210
0.0
220
0.0
230
1.0
 70
    24
 71
     3
 72
     8
 73
     4
 74
     0
 42
0.0000000001
 43
0.0000000001
 40
0.0
 40
0.0
 40
0.0
 40
0.0
 40
1.0
 40
1.0
 40
1.0
 40
1.0
 10
89.660908157387
 20
2.654971251474399
 30
0.0
 10
89.660908157387
 20
2.654971251474399
 30
0.0
 10
89.660908157387
 20
2.658317335228003
 30
0.0
 10
89.660908157387
 20
2.658317335228003
 30
0.0
  0
SPLINE
  5
1BCE
330
A
100
AcDbEntity
  8
001
370
     0
100
AcDbSpline
210
0.0
220
0.0
230
1.0
 70
    24
 71
     3
 72
     8
 73
     4
 74
     0
 42
0.0000000001
 43
0.0000000001
 40
1.0
 40
1.0
 40
1.0
 40
1.0
 40
2.0
 40
2.0
 40
2.0
 40
2.0
 10
89.660908157387
 20
2.658317335228003
 30
0.0
 10
89.660908157387
 20
2.658317335228003
 30
0.0
 10
89.67012373945701
 20
2.658317335228003
 30
0.0
 10
89.67012373945701
 20
2.658317335228003
 30
0.0
  0
SPLINE
  5
1BCF
330
A
100
AcDbEntity
  8
001
370
     0
100
AcDbSpline
210
0.0
220
0.0
230
1.0
 70
    24
 71
     3
 72
     8
 73
     4
 74
     0
 42
0.0000000001
 43
0.0000000001
 40
2.0
 40
2.0
 40
2.0
 40
2.0
 40
3.0
 40
3.0
 40
3.0
 40
3.0
 10
89.67012373945701
 20
2.658317335228003
 30
0.0
 10
89.67012373945701
 20
2.658317335228003
 30
0.0
 10
89.67012373945701
 20
2.651460672226586
 30
0.0
 10
89.67012373945701
 20
2.651460672226586
 30
0.0
  0
SPLINE
  5
1BD0
330
A
100
AcDbEntity
  8
001
370
     0
100
AcDbSpline
210
0.0
220
0.0
230
1.0
 70
     8
 71
     3
 72
     8
 73
     4
 74
     0
 42
0.0000000001
 43
0.0000000001
 40
3.0
 40
3.0
 40
3.0
 40
3.0
 40
4.0
 40
4.0
 40
4.0
 40
4.0
 10
89.67012373945701
 20
2.651460672226586
 30
0.0
 10
89.6683595348675
 20
2.650458169966369
 30
0.0
 10
89.66679970346778
 20
2.649776606467604
 30
0.0
 10
89.66544347837908
 20
2.649414639692441
 30
0.0
  0
SPLINE
  5
1BD1
330
A
100
AcDbEntity
  8
001
370
     0
100
AcDbSpline
210
0.0
220
0.0
230
1.0
 70
     8
 71
     3
 72
    11
 73
     7
 74
     0
 42
0.0000000001
 43
0.0000000001
 40
4.0
 40
4.0
 40
4.0
 40
4.0
 40
5.0
 40
5.0
 40
5.0
 40
6.0
 40
6.0
 40
6.0
 40
6.0
 10
89.66544347837908
 20
2.649414639692441
 30
0.0
 10
89.66408763672978
 20
2.649052672917296
 30
0.0
 10
89.66247949196812
 20
2.648871497810024
 30
0.0
 10
89.66061827721537
 20
2.648871497810024
 30
0.0
 10
89.65832761035649
 20
2.648871497810024
 30
0.0
 10
89.65646064401303
 20
2.649196654404659
 30
0.0
 10
89.65501699474559
 20
2.649848117912061
 30
0.0
  0
SPLINE
  5
1BD2
330
A
100
AcDbEntity
  8
001
370
     0
100
AcDbSpline
210
0.0
220
0.0
230
1.0
 70
     8
 71
     3
 72
     8
 73
     4
 74
     0
 42
0.0000000001
 43
0.0000000001
 40
6.0
 40
6.0
 40
6.0
 40
6.0
 40
7.0
 40
7.0
 40
7.0
 40
7.0
 10
89.65501699474559
 20
2.649848117912061
 30
0.0
 10
89.65357334547816
 20
2.650498622821015
 30
0.0
 10
89.65245408592659
 20
2.651467765855132
 30
0.0
 10
89.65165959953028
 20
2.65275516357503
 30
0.0
  0
SPLINE
  5
1BD3
330
A
100
AcDbEntity
  8
001
370
     0
100
AcDbSpline
210
0.0
220
0.0
230
1.0
 70
     8
 71
     3
 72
    11
 73
     7
 74
     0
 42
0.0000000001
 43
0.0000000001
 40
7.0
 40
7.0
 40
7.0
 40
7.0
 40
8.0
 40
8.0
 40
8.0
 40
9.0
 40
9.0
 40
9.0
 40
9.0
 10
89.65165959953028
 20
2.65275516357503
 30
0.0
 10
89.65086549657334
 20
2.654042177855545
 30
0.0
 10
89.65046863681456
 20
2.655519761508149
 30
0.0
 10
89.65046863681456
 20
2.657187339373777
 30
0.0
 10
89.65046863681456
 20
2.658942724857525
 30
0.0
 10
89.65090269019325
 20
2.660469388750844
 30
0.0
 10
89.65177156382937
 20
2.661767906212763
 30
0.0
  0
SPLINE
  5
1BD4
330
A
100
AcDbEntity
  8
001
370
     0
100
AcDbSpline
210
0.0
220
0.0
230
1.0
 70
     8
 71
     3
 72
     8
 73
     4
 74
     0
 42
0.0000000001
 43
0.0000000001
 40
9.0
 40
9.0
 40
9.0
 40
9.0
 40
10.0
 40
10.0
 40
10.0
 40
10.0
 10
89.65177156382937
 20
2.661767906212763
 30
0.0
 10
89.6526404374655
 20
2.663066040235317
 30
0.0
 10
89.65391345620863
 20
2.664051096003714
 30
0.0
 10
89.65558985318002
 20
2.664724415555811
 30
0.0
  0
SPLINE
  5
1BD5
330
A
100
AcDbEntity
  8
001
370
     0
100
AcDbSpline
210
0.0
220
0.0
230
1.0
 70
     8
 71
     3
 72
    11
 73
     7
 74
     0
 42
0.0000000001
 43
0.0000000001
 40
10.0
 40
10.0
 40
10.0
 40
10.0
 40
11.0
 40
11.0
 40
11.0
 40
12.0
 40
12.0
 40
12.0
 40
12.0
 10
89.65558985318002
 20
2.664724415555811
 30
0.0
 10
89.65689738146737
 20
2.665243592476964
 30
0.0
 10
89.65865698478431
 20
2.665502989217839
 30
0.0
 10
89.6608690465702
 20
2.665502989217839
 30
0.0
 10
89.66300173640432
 20
2.665502989217839
 30
0.0
 10
89.66459684422703
 20
2.665342519837114
 30
0.0
 10
89.66565437003835
 20
2.665020622477223
 30
0.0
  0
SPLINE
  5
1BD6
330
A
100
AcDbEntity
  8
001
370
     0
100
AcDbSpline
210
0.0
220
0.0
230
1.0
 70
     8
 71
     3
 72
     8
 73
     4
 74
     0
 42
0.0000000001
 43
0.0000000001
 40
12.0
 40
12.0
 40
12.0
 40
12.0
 40
13.0
 40
13.0
 40
13.0
 40
13.0
 10
89.66565437003835
 20
2.665020622477223
 30
0.0
 10
89.66671189584968
 20
2.66469814995824
 30
0.0
 10
89.66758958859154
 20
2.664199487043962
 30
0.0
 10
89.66828706482459
 20
2.663522908257137
 30
0.0
  0
SPLINE
  5
1BD7
330
A
100
AcDbEntity
  8
001
370
     0
100
AcDbSpline
210
0.0
220
0.0
230
1.0
 70
     8
 71
     3
 72
     8
 73
     4
 74
     0
 42
0.0000000001
 43
0.0000000001
 40
13.0
 40
13.0
 40
13.0
 40
13.0
 40
14.0
 40
14.0
 40
14.0
 40
14.0
 10
89.66828706482459
 20
2.663522908257137
 30
0.0
 10
89.66898492449704
 20
2.662846521190013
 30
0.0
 10
89.6695094695695
 20
2.661988959015598
 30
0.0
 10
89.66986070004201
 20
2.66095041345362
 30
0.0
  0
SPLINE
  5
1BD8
330
A
100
AcDbEntity
  8
001
370
     0
100
AcDbSpline
210
0.0
220
0.0
230
1.0
 70
    24
 71
     3
 72
     8
 73
     4
 74
     0
 42
0.0000000001
 43
0.0000000001
 40
14.0
 40
14.0
 40
14.0
 40
14.0
 40
15.0
 40
15.0
 40
15.0
 40
15.0
 10
89.66986070004201
 20
2.66095041345362
 30
0.0
 10
89.66986070004201
 20
2.66095041345362
 30
0.0
 10
89.66410757557758
 20
2.660094385036737
 30
0.0
 10
89.66410757557758
 20
2.660094385036737
 30
0.0
  0
SPLINE
  5
1BD9
330
A
100
AcDbEntity
  8
001
370
     0
100
AcDbSpline
210
0.0
220
0.0
230
1.0
 70
     8
 71
     3
 72
     8
 73
     4
 74
     0
 42
0.0000000001
 43
0.0000000001
 40
15.0
 40
15.0
 40
15.0
 40
15.0
 40
16.0
 40
16.0
 40
16.0
 40
16.0
 10
89.66410757557758
 20
2.660094385036737
 30
0.0
 10
89.66387061004045
 20
2.660701561295701
 30
0.0
 10
89.66346838213034
 20
2.66116590638544
 30
0.0
 10
89.66290280904415
 20
2.661487995465023
 30
0.0
  0
SPLINE
  5
1BDA
330
A
100
AcDbEntity
  8
001
370
     0
100
AcDbSpline
210
0.0
220
0.0
230
1.0
 70
     8
 71
     3
 72
    11
 73
     7
 74
     0
 42
0.0000000001
 43
0.0000000001
 40
16.0
 40
16.0
 40
16.0
 40
16.0
 40
17.0
 40
17.0
 40
17.0
 40
18.0
 40
18.0
 40
18.0
 40
18.0
 10
89.66290280904415
 20
2.661487995465023
 30
0.0
 10
89.66233685251861
 20
2.661809509385548
 30
0.0
 10
89.6616148361652
 20
2.661970553925348
 30
0.0
 10
89.6607371434233
 20
2.661970553925348
 30
0.0
 10
89.65942961513595
 20
2.661970553925348
 30
0.0
 10
89.65838742689985
 20
2.661591907537132
 30
0.0
 10
89.65761057871503
 20
2.660835381639481
 30
0.0
  0
SPLINE
  5
1BDB
330
A
100
AcDbEntity
  8
001
370
     0
100
AcDbSpline
210
0.0
220
0.0
230
1.0
 70
     8
 71
     3
 72
    11
 73
     7
 74
     0
 42
0.0000000001
 43
0.0000000001
 40
18.0
 40
18.0
 40
18.0
 40
18.0
 40
19.0
 40
19.0
 40
19.0
 40
20.0
 40
20.0
 40
20.0
 40
20.0
 10
89.65761057871503
 20
2.660835381639481
 30
0.0
 10
89.65683373053021
 20
2.660078280582757
 30
0.0
 10
89.65644530643782
 20
2.658880415958211
 30
0.0
 10
89.65644530643782
 20
2.657242362924872
 30
0.0
 10
89.65644530643782
 20
2.655501739857273
 30
0.0
 10
89.65683794836342
 20
2.65425824594644
 30
0.0
 10
89.65762361565397
 20
2.653512264631754
 30
0.0
  0
SPLINE
  5
1BDC
330
A
100
AcDbEntity
  8
001
370
     0
100
AcDbSpline
210
0.0
220
0.0
230
1.0
 70
     8
 71
     3
 72
    11
 73
     7
 74
     0
 42
0.0000000001
 43
0.0000000001
 40
20.0
 40
20.0
 40
20.0
 40
20.0
 40
21.0
 40
21.0
 40
21.0
 40
22.0
 40
22.0
 40
22.0
 40
22.0
 10
89.65762361565397
 20
2.653512264631754
 30
0.0
 10
89.65840889950516
 20
2.652766091597368
 30
0.0
 10
89.65950400237575
 20
2.652393196799867
 30
0.0
 10
89.660908157387
 20
2.652393196799867
 30
0.0
 10
89.661575341909
 20
2.652393196799867
 30
0.0
 10
89.66221146784119
 20
2.652473719069776
 30
0.0
 10
89.66281691862294
 20
2.652634188450493
 30
0.0
  0
SPLINE
  5
1BDD
330
A
100
AcDbEntity
  8
001
370
     0
100
AcDbSpline
210
0.0
220
0.0
230
1.0
 70
     8
 71
     3
 72
     8
 73
     4
 74
     0
 42
0.0000000001
 43
0.0000000001
 40
22.0
 40
22.0
 40
22.0
 40
22.0
 40
23.0
 40
23.0
 40
23.0
 40
23.0
 10
89.66281691862294
 20
2.652634188450493
 30
0.0
 10
89.66342275284405
 20
2.652795232990293
 30
0.0
 10
89.66411601124393
 20
2.653069200427626
 30
0.0
 10
89.66489746070131
 20
2.65345724108065
 30
0.0
  0
SPLINE
  5
1BDE
330
A
100
AcDbEntity
  8
001
370
     0
100
AcDbSpline
210
0.0
220
0.0
230
1.0
 70
    24
 71
     3
 72
     8
 73
     4
 74
     0
 42
0.0000000001
 43
0.0000000001
 40
23.0
 40
23.0
 40
23.0
 40
23.0
 40
24.0
 40
24.0
 40
24.0
 40
24.0
 10
89.66489746070131
 20
2.65345724108065
 30
0.0
 10
89.66489746070131
 20
2.65345724108065
 30
0.0
 10
89.66489746070131
 20
2.654971251474399
 30
0.0
 10
89.66489746070131
 20
2.654971251474399
 30
0.0
  0
SPLINE
  5
1BDF
330
A
100
AcDbEntity
  8
001
370
     0
100
AcDbSpline
210
0.0
220
0.0
230
1.0
 70
    24
 71
     3
 72
     8
 73
     4
 74
     0
 42
0.0000000001
 43
0.0000000001
 40
24.0
 40
24.0
 40
24.0
 40
24.0
 40
25.0
 40
25.0
 40
25.0
 40
25.0
 10
89.66489746070131
 20
2.654971251474399
 30
0.0
 10
89.66489746070131
 20
2.654971251474399
 30
0.0
 10
89.660908157387
 20
2.654971251474399
 30
0.0
 10
89.660908157387
 20
2.654971251474399
 30
0.0
  0
SPLINE
  5
1BE0
330
A
100
AcDbEntity
  8
001
370
     0
100
AcDbSpline
210
0.0
220
0.0
230
1.0
 70
    24
 71
     3
 72
     8
 73
     4
 74
     0
 42
0.0000000001
 43
0.0000000001
 40
0.0
 40
0.0
 40
0.0
 40
0.0
 40
1.0
 40
1.0
 40
1.0
 40
1.0
 10
89.63828600081855
 20
2.652601404383459
 30
0.0
 10
89.63828600081855
 20
2.652601404383459
 30
0.0
 10
89.64132667510561
 20
2.652601404383459
 30
0.0
 10
89.64132667510561
 20
2.652601404383459
 30
0.0
  0
SPLINE
  5
1BE1
330
A
100
AcDbEntity
  8
001
370
     0
100
AcDbSpline
210
0.0
220
0.0
230
1.0
 70
     8
 71
     3
 72
     8
 73
     4
 74
     0
 42
0.0000000001
 43
0.0000000001
 40
1.0
 40
1.0
 40
1.0
 40
1.0
 40
2.0
 40
2.0
 40
2.0
 40
2.0
 10
89.64132667510561
 20
2.652601404383459
 30
0.0
 10
89.64235352576649
 20
2.652601404383459
 30
0.0
 10
89.64307745931678
 20
2.652753438097825
 30
0.0
 10
89.64349924263531
 20
2.653056930367448
 30
0.0
  0
SPLINE
  5
1BE2
330
A
100
AcDbEntity
  8
001
370
     0
100
AcDbSpline
210
0.0
220
0.0
230
1.0
 70
     8
 71
     3
 72
    11
 73
     7
 74
     0
 42
0.0000000001
 43
0.0000000001
 40
2.0
 40
2.0
 40
2.0
 40
2.0
 40
3.0
 40
3.0
 40
3.0
 40
4.0
 40
4.0
 40
4.0
 40
4.0
 10
89.64349924263531
 20
2.653056930367448
 30
0.0
 10
89.64392025907505
 20
2.653360422637088
 30
0.0
 10
89.64413115073432
 20
2.653768018698511
 30
0.0
 10
89.64413115073432
 20
2.654279910271434
 30
0.0
 10
89.64413115073432
 20
2.654755566822896
 30
0.0
 10
89.64392255971132
 20
2.655137472445831
 30
0.0
 10
89.6435053776654
 20
2.655426585738696
 30
0.0
  0
SPLINE
  5
1BE3
330
A
100
AcDbEntity
  8
001
370
     0
100
AcDbSpline
210
0.0
220
0.0
230
1.0
 70
     8
 71
     3
 72
     8
 73
     4
 74
     0
 42
0.0000000001
 43
0.0000000001
 40
4.0
 40
4.0
 40
4.0
 40
4.0
 40
5.0
 40
5.0
 40
5.0
 40
5.0
 10
89.6435053776654
 20
2.655426585738696
 30
0.0
 10
89.64308896249821
 20
2.655715507311879
 30
0.0
 10
89.64235812703906
 20
2.655859872238616
 30
0.0
 10
89.64131363816667
 20
2.655859872238616
 30
0.0
  0
SPLINE
  5
1BE4
330
A
100
AcDbEntity
  8
001
370
     0
100
AcDbSpline
210
0.0
220
0.0
230
1.0
 70
    24
 71
     3
 72
     8
 73
     4
 74
     0
 42
0.0000000001
 43
0.0000000001
 40
5.0
 40
5.0
 40
5.0
 40
5.0
 40
6.0
 40
6.0
 40
6.0
 40
6.0
 10
89.64131363816667
 20
2.655859872238616
 30
0.0
 10
89.64131363816667
 20
2.655859872238616
 30
0.0
 10
89.63828600081855
 20
2.655859872238616
 30
0.0
 10
89.63828600081855
 20
2.655859872238616
 30
0.0
  0
SPLINE
  5
1BE5
330
A
100
AcDbEntity
  8
001
370
     0
100
AcDbSpline
210
0.0
220
0.0
230
1.0
 70
    24
 71
     3
 72
     8
 73
     4
 74
     0
 42
0.0000000001
 43
0.0000000001
 40
6.0
 40
6.0
 40
6.0
 40
6.0
 40
7.0
 40
7.0
 40
7.0
 40
7.0
 10
89.63828600081855
 20
2.655859872238616
 30
0.0
 10
89.63828600081855
 20
2.655859872238616
 30
0.0
 10
89.63828600081855
 20
2.652601404383459
 30
0.0
 10
89.63828600081855
 20
2.652601404383459
 30
0.0
  0
SPLINE
  5
1BE6
330
A
100
AcDbEntity
  8
001
370
     0
100
AcDbSpline
210
0.0
220
0.0
230
1.0
 70
    24
 71
     3
 72
     8
 73
     4
 74
     0
 42
0.0000000001
 43
0.0000000001
 40
0.0
 40
0.0
 40
0.0
 40
0.0
 40
1.0
 40
1.0
 40
1.0
 40
1.0
 10
89.63828600081855
 20
2.658920677093156
 30
0.0
 10
89.63828600081855
 20
2.658920677093156
 30
0.0
 10
89.64087920134863
 20
2.658920677093156
 30
0.0
 10
89.64087920134863
 20
2.658920677093156
 30
0.0
  0
SPLINE
  5
1BE7
330
A
100
AcDbEntity
  8
001
370
     0
100
AcDbSpline
210
0.0
220
0.0
230
1.0
 70
     8
 71
     3
 72
     8
 73
     4
 74
     0
 42
0.0000000001
 43
0.0000000001
 40
1.0
 40
1.0
 40
1.0
 40
1.0
 40
2.0
 40
2.0
 40
2.0
 40
2.0
 10
89.64087920134863
 20
2.658920677093156
 30
0.0
 10
89.64180942528562
 20
2.658920677093156
 30
0.0
 10
89.64245705439921
 20
2.659054113997554
 30
0.0
 10
89.64282132181066
 20
2.659321179526032
 30
0.0
  0
SPLINE
  5
1BE8
330
A
100
AcDbEntity
  8
001
370
     0
100
AcDbSpline
210
0.0
220
0.0
230
1.0
 70
     8
 71
     3
 72
    11
 73
     7
 74
     0
 42
0.0000000001
 43
0.0000000001
 40
2.0
 40
2.0
 40
2.0
 40
2.0
 40
3.0
 40
3.0
 40
3.0
 40
4.0
 40
4.0
 40
4.0
 40
4.0
 10
89.64282132181066
 20
2.659321179526032
 30
0.0
 10
89.64318597266148
 20
2.659588053334847
 30
0.0
 10
89.64336733948842
 20
2.659973985071284
 30
0.0
 10
89.64336733948842
 20
2.66047859129596
 30
0.0
 10
89.64336733948842
 20
2.66094657905981
 30
0.0
 10
89.64318597266148
 20
2.661312571948474
 30
0.0
 10
89.64282132181066
 20
2.661575611363469
 30
0.0
  0
SPLINE
  5
1BE9
330
A
100
AcDbEntity
  8
001
370
     0
100
AcDbSpline
210
0.0
220
0.0
230
1.0
 70
     8
 71
     3
 72
     8
 73
     4
 74
     0
 42
0.0000000001
 43
0.0000000001
 40
4.0
 40
4.0
 40
4.0
 40
4.0
 40
5.0
 40
5.0
 40
5.0
 40
5.0
 10
89.64282132181066
 20
2.661575611363469
 30
0.0
 10
89.64245705439921
 20
2.661838650778464
 30
0.0
 10
89.64182284566392
 20
2.661970745645031
 30
0.0
 10
89.64091869560482
 20
2.661970745645031
 30
0.0
  0
SPLINE
  5
1BEA
330
A
100
AcDbEntity
  8
001
370
     0
100
AcDbSpline
210
0.0
220
0.0
230
1.0
 70
    24
 71
     3
 72
     8
 73
     4
 74
     0
 42
0.0000000001
 43
0.0000000001
 40
5.0
 40
5.0
 40
5.0
 40
5.0
 40
6.0
 40
6.0
 40
6.0
 40
6.0
 10
89.64091869560482
 20
2.661970745645031
 30
0.0
 10
89.64091869560482
 20
2.661970745645031
 30
0.0
 10
89.63828600081855
 20
2.661970745645031
 30
0.0
 10
89.63828600081855
 20
2.661970745645031
 30
0.0
  0
SPLINE
  5
1BEB
330
A
100
AcDbEntity
  8
001
370
     0
100
AcDbSpline
210
0.0
220
0.0
230
1.0
 70
    24
 71
     3
 72
     8
 73
     4
 74
     0
 42
0.0000000001
 43
0.0000000001
 40
6.0
 40
6.0
 40
6.0
 40
6.0
 40
7.0
 40
7.0
 40
7.0
 40
7.0
 10
89.63828600081855
 20
2.661970745645031
 30
0.0
 10
89.63828600081855
 20
2.661970745645031
 30
0.0
 10
89.63828600081855
 20
2.658920677093156
 30
0.0
 10
89.63828600081855
 20
2.658920677093156
 30
0.0
  0
SPLINE
  5
1BEC
330
A
100
AcDbEntity
  8
001
370
     0
100
AcDbSpline
210
0.0
220
0.0
230
1.0
 70
    24
 71
     3
 72
     8
 73
     4
 74
     0
 42
0.0000000001
 43
0.0000000001
 40
0.0
 40
0.0
 40
0.0
 40
0.0
 40
1.0
 40
1.0
 40
1.0
 40
1.0
 10
89.63226907006037
 20
2.665229213500198
 30
0.0
 10
89.63226907006037
 20
2.665229213500198
 30
0.0
 10
89.64343329106185
 20
2.665229213500198
 30
0.0
 10
89.64343329106185
 20
2.665229213500198
 30
0.0
  0
SPLINE
  5
1BED
330
A
100
AcDbEntity
  8
001
370
     0
100
AcDbSpline
210
0.0
220
0.0
230
1.0
 70
     8
 71
     3
 72
     8
 73
     4
 74
     0
 42
0.0000000001
 43
0.0000000001
 40
1.0
 40
1.0
 40
1.0
 40
1.0
 40
2.0
 40
2.0
 40
2.0
 40
2.0
 10
89.64343329106185
 20
2.665229213500198
 30
0.0
 10
89.64529373893586
 20
2.665229213500198
 30
0.0
 10
89.64672243406745
 20
2.664845198960657
 30
0.0
 10
89.64771860957791
 20
2.664077169881593
 30
0.0
  0
SPLINE
  5
1BEE
330
A
100
AcDbEntity
  8
001
370
     0
100
AcDbSpline
210
0.0
220
0.0
230
1.0
 70
     8
 71
     3
 72
    11
 73
     7
 74
     0
 42
0.0000000001
 43
0.0000000001
 40
2.0
 40
2.0
 40
2.0
 40
2.0
 40
3.0
 40
3.0
 40
3.0
 40
4.0
 40
4.0
 40
4.0
 40
4.0
 10
89.64771860957791
 20
2.664077169881593
 30
0.0
 10
89.64871516852772
 20
2.66330914080253
 30
0.0
 10
89.64921248940418
 20
2.66235821113899
 30
0.0
 10
89.64921248940418
 20
2.661224189171281
 30
0.0
 10
89.64921248940418
 20
2.660274026386487
 30
0.0
 10
89.64885742453786
 20
2.659458067384867
 30
0.0
 10
89.64814614448711
 20
2.658778037643624
 30
0.0
  0
SPLINE
  5
1BEF
330
A
100
AcDbEntity
  8
001
370
     0
100
AcDbSpline
210
0.0
220
0.0
230
1.0
 70
     8
 71
     3
 72
     8
 73
     4
 74
     0
 42
0.0000000001
 43
0.0000000001
 40
4.0
 40
4.0
 40
4.0
 40
4.0
 40
5.0
 40
5.0
 40
5.0
 40
5.0
 10
89.64814614448711
 20
2.658778037643624
 30
0.0
 10
89.64767259685224
 20
2.658324620576223
 30
0.0
 10
89.64697895501299
 20
2.65796648819488
 30
0.0
 10
89.64606636928749
 20
2.657703065340502
 30
0.0
  0
SPLINE
  5
1BF0
330
A
100
AcDbEntity
  8
001
370
     0
100
AcDbSpline
210
0.0
220
0.0
230
1.0
 70
     8
 71
     3
 72
     8
 73
     4
 74
     0
 42
0.0000000001
 43
0.0000000001
 40
5.0
 40
5.0
 40
5.0
 40
5.0
 40
6.0
 40
6.0
 40
6.0
 40
6.0
 10
89.64606636928749
 20
2.657703065340502
 30
0.0
 10
89.64745288608723
 20
2.657425071789667
 30
0.0
 10
89.64847321827866
 20
2.656947689760982
 30
0.0
 10
89.64912698242233
 20
2.656271494413541
 30
0.0
  0
SPLINE
  5
1BF1
330
A
100
AcDbEntity
  8
001
370
     0
100
AcDbSpline
210
0.0
220
0.0
230
1.0
 70
     8
 71
     3
 72
    11
 73
     7
 74
     0
 42
0.0000000001
 43
0.0000000001
 40
6.0
 40
6.0
 40
6.0
 40
6.0
 40
7.0
 40
7.0
 40
7.0
 40
8.0
 40
8.0
 40
8.0
 40
8.0
 10
89.64912698242233
 20
2.656271494413541
 30
0.0
 10
89.64978074656603
 20
2.655594915626716
 30
0.0
 10
89.65010782035754
 20
2.654744447080857
 30
0.0
 10
89.65010782035754
 20
2.653720472215337
 30
0.0
 10
89.65010782035754
 20
2.652886875002214
 30
0.0
 10
89.64987507265361
 20
2.652136867574036
 30
0.0
 10
89.64941034412449
 20
2.651471791968625
 30
0.0
  0
SPLINE
  5
1BF2
330
A
100
AcDbEntity
  8
001
370
     0
100
AcDbSpline
210
0.0
220
0.0
230
1.0
 70
     8
 71
     3
 72
     8
 73
     4
 74
     0
 42
0.0000000001
 43
0.0000000001
 40
8.0
 40
8.0
 40
8.0
 40
8.0
 40
9.0
 40
9.0
 40
9.0
 40
9.0
 10
89.64941034412449
 20
2.651471791968625
 30
0.0
 10
89.64894484871662
 20
2.650805949484457
 30
0.0
 10
89.64830833934504
 20
2.650279295495384
 30
0.0
 10
89.64750119944916
 20
2.649891830001434
 30
0.0
  0
SPLINE
  5
1BF3
330
A
100
AcDbEntity
  8
001
370
     0
100
AcDbSpline
210
0.0
220
0.0
230
1.0
 70
     8
 71
     3
 72
     8
 73
     4
 74
     0
 42
0.0000000001
 43
0.0000000001
 40
9.0
 40
9.0
 40
9.0
 40
9.0
 40
10.0
 40
10.0
 40
10.0
 40
10.0
 10
89.64750119944916
 20
2.649891830001434
 30
0.0
 10
89.64700081105767
 20
2.649650263191743
 30
0.0
 10
89.64624620235692
 20
2.649474839675186
 30
0.0
 10
89.64523698990756
 20
2.64936517601237
 30
0.0
  0
SPLINE
  5
1BF4
330
A
100
AcDbEntity
  8
001
370
     0
100
AcDbSpline
210
0.0
220
0.0
230
1.0
 70
     8
 71
     3
 72
     8
 73
     4
 74
     0
 42
0.0000000001
 43
0.0000000001
 40
10.0
 40
10.0
 40
10.0
 40
10.0
 40
11.0
 40
11.0
 40
11.0
 40
11.0
 10
89.64523698990756
 20
2.64936517601237
 30
0.0
 10
89.64389418519719
 20
2.64921889388872
 30
0.0
 10
89.64300307207698
 20
2.64914584868674
 30
0.0
 10
89.64256441742573
 20
2.64914584868674
 30
0.0
  0
SPLINE
  5
1BF5
330
A
100
AcDbEntity
  8
001
370
     0
100
AcDbSpline
210
0.0
220
0.0
230
1.0
 70
    24
 71
     3
 72
     8
 73
     4
 74
     0
 42
0.0000000001
 43
0.0000000001
 40
11.0
 40
11.0
 40
11.0
 40
11.0
 40
12.0
 40
12.0
 40
12.0
 40
12.0
 10
89.64256441742573
 20
2.64914584868674
 30
0.0
 10
89.64256441742573
 20
2.64914584868674
 30
0.0
 10
89.63226907006037
 20
2.64914584868674
 30
0.0
 10
89.63226907006037
 20
2.64914584868674
 30
0.0
  0
SPLINE
  5
1BF6
330
A
100
AcDbEntity
  8
001
370
     0
100
AcDbSpline
210
0.0
220
0.0
230
1.0
 70
    24
 71
     3
 72
     8
 73
     4
 74
     0
 42
0.0000000001
 43
0.0000000001
 40
12.0
 40
12.0
 40
12.0
 40
12.0
 40
13.0
 40
13.0
 40
13.0
 40
13.0
 10
89.63226907006037
 20
2.64914584868674
 30
0.0
 10
89.63226907006037
 20
2.64914584868674
 30
0.0
 10
89.63226907006037
 20
2.665229213500198
 30
0.0
 10
89.63226907006037
 20
2.665229213500198
 30
0.0
  0
LINE
  5
1BF7
330
A
100
AcDbEntity
  8
001
370
     0
100
AcDbLine
 10
89.61450758279832
 20
2.665229021780497
 30
0.0
 11
89.63049010305471
 21
2.665229021780497
 31
0.0
  0
LINE
  5
1BF8
330
A
100
AcDbEntity
  8
001
370
     0
100
AcDbLine
 10
89.63049010305471
 20
2.665229021780497
 30
0.0
 11
89.63049010305471
 21
2.661794938689091
 31
0.0
  0
LINE
  5
1BF9
330
A
100
AcDbEntity
  8
001
370
     0
100
AcDbLine
 10
89.63049010305471
 20
2.661794938689091
 30
0.0
 11
89.62048444414127
 21
2.661794938689091
 31
0.0
  0
LINE
  5
1BFA
330
A
100
AcDbEntity
  8
001
370
     0
100
AcDbLine
 10
89.62048444414127
 20
2.661794938689091
 30
0.0
 11
89.62048444414127
 21
2.659238931778928
 31
0.0
  0
LINE
  5
1BFB
330
A
100
AcDbEntity
  8
001
370
     0
100
AcDbLine
 10
89.62048444414127
 20
2.659238931778928
 30
0.0
 11
89.62976559434533
 21
2.659238931778928
 31
0.0
  0
LINE
  5
1BFC
330
A
100
AcDbEntity
  8
001
370
     0
100
AcDbLine
 10
89.62976559434533
 20
2.659238931778928
 30
0.0
 11
89.62976559434533
 21
2.655958799598784
 31
0.0
  0
LINE
  5
1BFD
330
A
100
AcDbEntity
  8
001
370
     0
100
AcDbLine
 10
89.62976559434533
 20
2.655958799598784
 30
0.0
 11
89.62048444414127
 21
2.655958799598784
 31
0.0
  0
LINE
  5
1BFE
330
A
100
AcDbEntity
  8
001
370
     0
100
AcDbLine
 10
89.62048444414127
 20
2.655958799598784
 30
0.0
 11
89.62048444414127
 21
2.652788139361747
 31
0.0
  0
LINE
  5
1BFF
330
A
100
AcDbEntity
  8
001
370
     0
100
AcDbLine
 10
89.62048444414127
 20
2.652788139361747
 30
0.0
 11
89.63077940806726
 21
2.652788139361747
 31
0.0
  0
LINE
  5
1C00
330
A
100
AcDbEntity
  8
001
370
     0
100
AcDbLine
 10
89.63077940806726
 20
2.652788139361747
 30
0.0
 11
89.63077940806726
 21
2.649145656967057
 31
0.0
  0
LINE
  5
1C01
330
A
100
AcDbEntity
  8
001
370
     0
100
AcDbLine
 10
89.63077940806726
 20
2.649145656967057
 30
0.0
 11
89.61450758279832
 21
2.649145656967057
 31
0.0
  0
LINE
  5
1C02
330
A
100
AcDbEntity
  8
001
370
     0
100
AcDbLine
 10
89.61450758279832
 20
2.649145656967057
 30
0.0
 11
89.61450758279832
 21
2.665229021780497
 31
0.0
  0
LINE
  5
1C03
330
A
100
AcDbEntity
  8
001
370
     0
100
AcDbLine
 10
89.58651286535056
 20
2.665229021780497
 30
0.0
 11
89.59217760703779
 21
2.665229021780497
 31
0.0
  0
LINE
  5
1C04
330
A
100
AcDbEntity
  8
001
370
     0
100
AcDbLine
 10
89.59217760703779
 20
2.665229021780497
 30
0.0
 11
89.5942165459434
 21
2.656224906528815
 31
0.0
  0
LINE
  5
1C05
330
A
100
AcDbEntity
  8
001
370
     0
100
AcDbLine
 10
89.5942165459434
 20
2.656224906528815
 30
0.0
 11
89.59720142980058
 21
2.665229021780497
 31
0.0
  0
LINE
  5
1C06
330
A
100
AcDbEntity
  8
001
370
     0
100
AcDbLine
 10
89.59720142980058
 20
2.665229021780497
 30
0.0
 11
89.60284565748098
 21
2.665229021780497
 31
0.0
  0
LINE
  5
1C07
330
A
100
AcDbEntity
  8
001
370
     0
100
AcDbLine
 10
89.60284565748098
 20
2.665229021780497
 30
0.0
 11
89.60583744324704
 21
2.656237176588993
 31
0.0
  0
LINE
  5
1C08
330
A
100
AcDbEntity
  8
001
370
     0
100
AcDbLine
 10
89.60583744324704
 20
2.656237176588993
 30
0.0
 11
89.60787925794798
 21
2.665229021780497
 31
0.0
  0
LINE
  5
1C09
330
A
100
AcDbEntity
  8
001
370
     0
100
AcDbLine
 10
89.60787925794798
 20
2.665229021780497
 30
0.0
 11
89.61351447480295
 21
2.665229021780497
 31
0.0
  0
LINE
  5
1C0A
330
A
100
AcDbEntity
  8
001
370
     0
100
AcDbLine
 10
89.61351447480295
 20
2.665229021780497
 30
0.0
 11
89.6092602148767
 21
2.649145656967057
 31
0.0
  0
LINE
  5
1C0B
330
A
100
AcDbEntity
  8
001
370
     0
100
AcDbLine
 10
89.6092602148767
 20
2.649145656967057
 30
0.0
 11
89.60341218916562
 21
2.649145656967057
 31
0.0
  0
LINE
  5
1C0C
330
A
100
AcDbEntity
  8
001
370
     0
100
AcDbLine
 10
89.60341218916562
 20
2.649145656967057
 30
0.0
 11
89.60002641943615
 21
2.659271907565654
 31
0.0
  0
LINE
  5
1C0D
330
A
100
AcDbEntity
  8
001
370
     0
100
AcDbLine
 10
89.60002641943615
 20
2.659271907565654
 30
0.0
 11
89.59665522040312
 21
2.649145656967057
 31
0.0
  0
LINE
  5
1C0E
330
A
100
AcDbEntity
  8
001
370
     0
100
AcDbLine
 10
89.59665522040312
 20
2.649145656967057
 30
0.0
 11
89.59080681125264
 21
2.649145656967057
 31
0.0
  0
LINE
  5
1C0F
330
A
100
AcDbEntity
  8
001
370
     0
100
AcDbLine
 10
89.59080681125264
 20
2.649145656967057
 30
0.0
 11
89.58651286535056
 21
2.665229021780497
 31
0.0
  0
TEXT
  5
1C10
330
A
100
AcDbEntity
  8
001
  6
Continuous
100
AcDbText
 10
89.49806609774759
 20
2.613130913534883
 30
0.0
 40
0.01
  1
         HD-SDI Repeater
100
AcDbText
1001
ACAD
1000
MTEXTBEGIN
1070
    73
1070
     1
1070
    44
1040
1.0
1070
    74
1070
     0
1000
MTEXTEND
  0
TEXT
  5
1C11
330
A
100
AcDbEntity
  8
001
  6
Continuous
100
AcDbText
 10
89.52556903752226
 20
2.589509946707345
 30
0.0
 40
0.00525
  1
_
100
AcDbText
1001
ACAD
1000
MTEXTBEGIN
1070
    73
1070
     1
1070
    44
1040
1.0
1070
    74
1070
     0
1000
MTEXTEND
  0
ARC
  5
1C12
330
A
100
AcDbEntity
  8
001
100
AcDbCircle
 10
89.5277651390579
 20
2.587965826698952
 30
0.0
 40
0.0044450516358863
100
AcDbArc
 50
19.11365284010281
 51
160.8863471598971
  0
ARC
  5
1C13
330
A
100
AcDbEntity
  8
001
100
AcDbCircle
 10
89.5277651390579
 20
2.587965826698952
 30
0.0
 40
0.0044450516358863
100
AcDbArc
 50
160.8863471598971
 51
19.11365284010281
  0
TEXT
  5
1C14
330
A
100
AcDbEntity
  8
001
  6
Continuous
100
AcDbText
 10
89.52557130005875
 20
2.605297516839388
 30
0.0
 40
0.00525
  1
+
100
AcDbText
1001
ACAD
1000
MTEXTBEGIN
1070
    73
1070
     1
1070
    44
1040
1.0
1070
    74
1070
     0
1000
MTEXTEND
  0
ARC
  5
1C15
330
A
100
AcDbEntity
  8
001
100
AcDbCircle
 10
89.5277651390579
 20
2.607963024547931
 30
0.0
 40
0.0044450516358863
100
AcDbArc
 50
19.11365284010281
 51
160.8863471598971
  0
ARC
  5
1C16
330
A
100
AcDbEntity
  8
001
100
AcDbCircle
 10
89.5277651390579
 20
2.607963024547931
 30
0.0
 40
0.0044450516358863
100
AcDbArc
 50
160.8863471598971
 51
19.11365284010281
  0
TEXT
  5
1C17
330
A
100
AcDbEntity
  8
001
  6
Continuous
100
AcDbText
 10
89.55070764169072
 20
2.641133980269836
 30
0.0
 40
0.00525
  1
G
100
AcDbText
1001
ACAD
1000
MTEXTBEGIN
1070
    73
1070
     1
1070
    44
1040
1.0
1070
    74
1070
     0
1000
MTEXTEND
  0
TEXT
  5
1C18
330
A
100
AcDbEntity
  8
001
  6
Continuous
100
AcDbText
 10
89.52567464819578
 20
2.641151586634557
 30
0.0
 40
0.00525
  1
R
100
AcDbText
1001
ACAD
1000
MTEXTBEGIN
1070
    73
1070
     1
1070
    44
1040
1.0
1070
    74
1070
     0
1000
MTEXTEND
  0
ARC
  5
1C19
330
A
100
AcDbEntity
  8
001
100
AcDbCircle
 10
89.55316246575566
 20
2.64381709434311
 30
0.0
 40
0.0044450516358815
100
AcDbArc
 50
19.11365284010281
 51
160.8863471598971
  0
ARC
  5
1C1A
330
A
100
AcDbEntity
  8
001
100
AcDbCircle
 10
89.55316246575566
 20
2.64381709434311
 30
0.0
 40
0.0044450516358815
100
AcDbArc
 50
160.8863471598971
 51
19.11365284010281
  0
ARC
  5
1C1B
330
A
100
AcDbEntity
  8
001
100
AcDbCircle
 10
89.52768495627925
 20
2.64381709434311
 30
0.0
 40
0.0044450516358815
100
AcDbArc
 50
19.11365284010281
 51
160.8863471598971
  0
ARC
  5
1C1C
330
A
100
AcDbEntity
  8
001
100
AcDbCircle
 10
89.52768495627925
 20
2.64381709434311
 30
0.0
 40
0.0044450516358815
100
AcDbArc
 50
160.8863471598971
 51
19.11365284010281
  0
TEXT
  5
1C1D
330
A
100
AcDbEntity
  8
001
  6
Continuous
100
AcDbText
 10
89.5220256947851
 20
2.627915189648499
 30
0.0
 40
0.0065
  1
PWR
100
AcDbText
1001
ACAD
1000
MTEXTBEGIN
1070
    73
1070
     1
1070
    44
1040
1.0
1070
    74
1070
     0
1000
MTEXTEND
  0
TEXT
  5
1C1E
330
A
100
AcDbEntity
  8
001
  6
Continuous
100
AcDbText
 10
89.54734779582079
 20
2.627914392764367
 30
0.0
 40
0.0065
  1
Link
100
AcDbText
1001
ACAD
1000
MTEXTBEGIN
1070
    73
1070
     1
1070
    44
1040
1.0
1070
    74
1070
     0
1000
MTEXTEND
  0
TEXT
  5
1C1F
330
A
100
AcDbEntity
  8
001
  6
Continuous
100
AcDbText
 10
89.52261122283632
 20
2.710308588930929
 30
0.0
 40
0.008
  1
SDI
100
AcDbText
1001
ACAD
1000
MTEXTBEGIN
1070
    73
1070
     1
1070
    44
1040
1.0
1070
    74
1070
     0
1000
MTEXTEND
  0
TEXT
  5
1C20
330
A
100
AcDbEntity
  8
001
  6
Continuous
100
AcDbText
 10
89.53617705819233
 20
2.59375740527289
 30
0.0
 40
0.008
  1
DC12V
100
AcDbText
1001
ACAD
1000
MTEXTBEGIN
1070
    73
1070
     1
1070
    44
1040
1.0
1070
    74
1070
     0
1000
MTEXTEND
  0
TEXT
  5
1C21
330
A
100
AcDbEntity
  8
001
  6
Continuous
100
AcDbText
 10
89.73346401883553
 20
2.613276249508144
 30
0.0
 40
0.008
  1
SDI 2
100
AcDbText
1001
ACAD
1000
MTEXTBEGIN
1070
    73
1070
     1
1070
    44
1040
1.0
1070
    74
1070
     0
1000
MTEXTEND
  0
TEXT
  5
1C22
330
A
100
AcDbEntity
  8
001
  6
Continuous
100
AcDbText
 10
89.73420129500363
 20
2.693238559886959
 30
0.0
 40
0.008
  1
SDI 1
100
AcDbText
1001
ACAD
1000
MTEXTBEGIN
1070
    73
1070
     1
1070
    44
1040
1.0
1070
    74
1070
     0
1000
MTEXTEND
  0
LINE
  5
1C2D
330
A
100
AcDbEntity
  8
001
100
AcDbLine
 10
89.31811617396542
 20
2.538937346509338
 30
0.0
 11
89.3181161739654
 21
2.454904936597066
 31
0.0
  0
LINE
  5
1C2E
330
A
100
AcDbEntity
  8
001
100
AcDbLine
 10
89.18811617128321
 20
2.491124843380094
 30
0.0
 11
89.18811617128321
 21
2.454904936597066
 31
0.0
  0
LINE
  5
1C33
330
A
100
AcDbEntity
  8
001
100
AcDbLine
 10
89.20311617175817
 20
2.817937343371013
 30
0.0
 11
89.35970476930787
 21
2.817937343371013
 31
0.0
  0
LINE
  5
1C34
330
A
100
AcDbEntity
  8
001
100
AcDbLine
 10
89.20311617175817
 20
2.496437343380094
 30
0.0
 11
89.35970476930787
 21
2.496437343380094
 31
0.0
  0
TEXT
  5
1C3E
330
A
100
AcDbEntity
  8
001
  6
Continuous
100
AcDbText
 10
89.24267970062599
 20
2.464164484472781
 30
0.0
 40
0.0250053502430098
  1
26
 41
0.6
 72
     1
 11
89.25518237574751
 21
2.464164484472781
 31
0.0
100
AcDbText
  0
LINE
  5
1C3F
330
A
100
AcDbEntity
  8
001
100
AcDbLine
 10
89.18811617128321
 20
2.457913405034671
 30
0.0
 11
89.3181161739654
 21
2.457913405034687
 31
0.0
  0
LINE
  5
1C40
330
A
100
AcDbEntity
  8
001
100
AcDbLine
 10
89.18811617128321
 20
2.457913405034671
 30
0.0
 11
89.19796608150617
 21
2.459649815989701
 31
0.0
  0
LINE
  5
1C41
330
A
100
AcDbEntity
  8
001
100
AcDbLine
 10
89.18811617128321
 20
2.457913405034671
 30
0.0
 11
89.19796608150617
 21
2.45617699407964
 31
0.0
  0
LINE
  5
1C42
330
A
100
AcDbEntity
  8
001
100
AcDbLine
 10
89.3181161739654
 20
2.457913405034687
 30
0.0
 11
89.30826626374244
 21
2.456176994079656
 31
0.0
  0
LINE
  5
1C43
330
A
100
AcDbEntity
  8
001
100
AcDbLine
 10
89.3181161739654
 20
2.457913405034687
 30
0.0
 11
89.30826626374244
 21
2.459649815989718
 31
0.0
  0
LINE
  5
1C44
330
A
100
AcDbEntity
  8
001
100
AcDbLine
 10
89.35300288338725
 20
2.817937343371013
 30
0.0
 11
89.35138547850453
 21
2.80876748009523
 31
0.0
  0
LINE
  5
1C45
330
A
100
AcDbEntity
  8
001
100
AcDbLine
 10
89.35300288338725
 20
2.817937343371013
 30
0.0
 11
89.35461948198639
 21
2.80876748009523
 31
0.0
  0
LINE
  5
1C46
330
A
100
AcDbEntity
  8
001
100
AcDbLine
 10
89.35300288338725
 20
2.496437343380094
 30
0.0
 11
89.35300288338725
 21
2.817937343371013
 31
0.0
  0
LINE
  5
1C47
330
A
100
AcDbEntity
  8
001
100
AcDbLine
 10
89.35300288338725
 20
2.496437343380094
 30
0.0
 11
89.35461948198639
 21
2.505607206655878
 31
0.0
  0
LINE
  5
1C48
330
A
100
AcDbEntity
  8
001
100
AcDbLine
 10
89.35300288338725
 20
2.496437343380094
 30
0.0
 11
89.35138547850453
 21
2.505607206655878
 31
0.0
  0
TEXT
  5
1C49
330
A
100
AcDbEntity
  8
001
  6
Continuous
100
AcDbText
 10
89.38331971707087
 20
2.638978256498881
 30
0.0
 40
0.0232799810762421
  1
64.3
 50
90.0
 41
0.6
 72
     1
 11
89.38331971707087
 21
2.659930239467498
 31
0.0
100
AcDbText
  0
LINE
  5
1C4A
330
A
100
AcDbEntity
  8
001
100
AcDbLine
 10
89.40947730091187
 20
2.445152282554968
 30
0.0
 11
89.50447730717035
 21
2.445152282554985
 31
0.0
  0
TEXT
  5
1C4B
330
A
100
AcDbEntity
  8
001
  6
Continuous
100
AcDbText
 10
89.44680153139175
 20
2.451403361993079
 30
0.0
 40
0.0250053502430098
  1
19
 41
0.6
 72
     1
 11
89.45680367148895
 21
2.451403361993079
 31
0.0
100
AcDbText
  0
LINE
  5
1C4C
330
A
100
AcDbEntity
  8
001
100
AcDbLine
 10
89.50447730717035
 20
2.445152282554985
 30
0.0
 11
89.49462739694739
 21
2.446888693510016
 31
0.0
  0
LINE
  5
1C4D
330
A
100
AcDbEntity
  8
001
100
AcDbLine
 10
89.50447730717035
 20
2.445152282554985
 30
0.0
 11
89.49462739694739
 21
2.443415871599954
 31
0.0
  0
LINE
  5
1C4E
330
A
100
AcDbEntity
  8
001
100
AcDbLine
 10
89.40947730091187
 20
2.445152282554968
 30
0.0
 11
89.41932721113483
 21
2.443415871599938
 31
0.0
  0
LINE
  5
1C4F
330
A
100
AcDbEntity
  8
001
100
AcDbLine
 10
89.40947730091187
 20
2.445152282554968
 30
0.0
 11
89.41932721113483
 21
2.446888693509999
 31
0.0
  0
LINE
  5
1C50
330
A
100
AcDbEntity
  8
001
100
AcDbLine
 10
89.50447730717035
 20
2.445152282554968
 30
0.0
 11
89.51432721739331
 21
2.446888693509999
 31
0.0
  0
LINE
  5
1C51
330
A
100
AcDbEntity
  8
001
100
AcDbLine
 10
89.50447730717035
 20
2.445152282554968
 30
0.0
 11
89.51432721739331
 21
2.443415871599938
 31
0.0
  0
LINE
  5
1C52
330
A
100
AcDbEntity
  8
001
100
AcDbLine
 10
89.80447730046471
 20
2.445152282554968
 30
0.0
 11
89.79462739024175
 21
2.443415871599938
 31
0.0
  0
LINE
  5
1C53
330
A
100
AcDbEntity
  8
001
100
AcDbLine
 10
89.80447730046471
 20
2.445152282554968
 30
0.0
 11
89.79462739024175
 21
2.446888693509999
 31
0.0
  0
TEXT
  5
1C54
330
A
100
AcDbEntity
  8
001
  6
Continuous
100
AcDbText
 10
89.6422532583713
 20
2.451403361993079
 30
0.0
 40
0.0250053502430098
  1
60
 41
0.6
 72
     1
 11
89.65350566598065
 21
2.451403361993079
 31
0.0
100
AcDbText
  0
LINE
  5
1C55
330
A
100
AcDbEntity
  8
001
100
AcDbLine
 10
89.50447730717035
 20
2.445152282554968
 30
0.0
 11
89.80447730046471
 21
2.445152282554968
 31
0.0
  0
LINE
  5
1C56
330
A
100
AcDbEntity
  8
001
100
AcDbLine
 10
89.80447730046471
 20
2.445152282554968
 30
0.0
 11
89.86477729861411
 21
2.445152282554985
 31
0.0
  0
TEXT
  5
1C57
330
A
100
AcDbEntity
  8
001
  6
Continuous
100
AcDbText
 10
89.82650898862784
 20
2.451403361993079
 30
0.0
 40
0.0250053502430098
  1
12
 41
0.6
 72
     1
 11
89.83651112872506
 21
2.451403361993079
 31
0.0
100
AcDbText
  0
LINE
  5
1C58
330
A
100
AcDbEntity
  8
001
100
AcDbLine
 10
89.86477729861411
 20
2.445152282554985
 30
0.0
 11
89.85492738839113
 21
2.446888693510016
 31
0.0
  0
LINE
  5
1C59
330
A
100
AcDbEntity
  8
001
100
AcDbLine
 10
89.86477729861411
 20
2.445152282554985
 30
0.0
 11
89.85492738839113
 21
2.443415871599954
 31
0.0
  0
LINE
  5
1C5A
330
A
100
AcDbEntity
  8
001
100
AcDbLine
 10
89.80447730046471
 20
2.445152282554968
 30
0.0
 11
89.81432721068768
 21
2.443415871599938
 31
0.0
  0
LINE
  5
1C5B
330
A
100
AcDbEntity
  8
001
100
AcDbLine
 10
89.80447730046471
 20
2.445152282554968
 30
0.0
 11
89.81432721068768
 21
2.446888693509999
 31
0.0
  0
LINE
  5
1C5D
330
A
100
AcDbEntity
  8
001
100
AcDbLine
 10
89.40947730091187
 20
2.394386780996765
 30
0.0
 11
89.86477729861411
 21
2.394386780996765
 31
0.0
  0
LINE
  5
1C5E
330
A
100
AcDbEntity
  8
001
100
AcDbLine
 10
89.40947730091187
 20
2.394386780996765
 30
0.0
 11
89.41932721113483
 21
2.392650370041735
 31
0.0
  0
LINE
  5
1C5F
330
A
100
AcDbEntity
  8
001
100
AcDbLine
 10
89.40947730091187
 20
2.394386780996765
 30
0.0
 11
89.41932721113483
 21
2.396123191951796
 31
0.0
  0
TEXT
  5
1C60
330
A
100
AcDbEntity
  8
001
  6
Continuous
100
AcDbText
 10
89.61708968391018
 20
2.400637860434876
 30
0.0
 40
0.0250053502430098
  1
91.06
 41
0.6
 72
     1
 11
89.64334530166533
 21
2.400637860434876
 31
0.0
100
AcDbText
  0
LINE
  5
1C61
330
A
100
AcDbEntity
  8
001
100
AcDbLine
 10
89.86477729861411
 20
2.394386780996765
 30
0.0
 11
89.85492738839113
 21
2.396123191951796
 31
0.0
  0
LINE
  5
1C62
330
A
100
AcDbEntity
  8
001
100
AcDbLine
 10
89.86477729861411
 20
2.394386780996765
 30
0.0
 11
89.85492738839113
 21
2.392650370041735
 31
0.0
  0
ENDSEC
  0
SECTION
  2
OBJECTS
  0
DICTIONARY
  5
19
330
0
100
AcDbDictionary
281
     1
  3
ACAD_COLOR
350
7BF
  3
ACAD_GROUP
350
1A
  3
ACAD_LAYOUT
350
105
  3
ACAD_MATERIAL
350
7AA
  3
ACAD_MLINESTYLE
350
1B
  3
ACAD_PLOTSETTINGS
350
106
  3
ACAD_PLOTSTYLENAME
350
76F
  3
ACAD_TABLESTYLE
350
7C0
  3
ACAD_VISUALSTYLE
350
7AE
  3
AcDbVariableDictionary
350
7A7
  3
DWGPROPS
350
83C
1001
ACAD
1000
TREAT_AS_HARD
1070
     0
  0
DICTIONARY
  5
802
330
7
100
AcDbDictionary
280
     1
281
     1
  3
ACAD_XREC_ROUNDTRIP
360
803
  0
DICTIONARY
  5
C88
330
2
100
AcDbDictionary
280
     1
281
     1
  3
ACAD_LAYERFILTERS
360
C93
  3
ACAD_LAYERSTATES
360
C89
  0
DICTIONARY
  5
806
330
14
100
AcDbDictionary
280
     1
281
     1
  3
ACAD_XREC_ROUNDTRIP
360
807
  0
DICTIONARY
  5
767
330
A
100
AcDbDictionary
280
     1
281
     1
  3
ACAD_LAYOUTSELFREF
360
804
  0
DICTIONARY
  5
769
330
B
100
AcDbDictionary
280
     1
281
     1
  3
ACAD_LAYOUTSELFREF
360
805
  0
DICTIONARY
  5
7BF
102
{ACAD_REACTORS
330
19
102
}
330
19
100
AcDbDictionary
281
     1
  0
DICTIONARY
  5
1A
102
{ACAD_REACTORS
330
19
102
}
330
19
100
AcDbDictionary
281
     1
1001
ACAD
1000
TREAT_AS_HARD
1070
     0
  0
DICTIONARY
  5
105
102
{ACAD_REACTORS
330
19
102
}
330
19
100
AcDbDictionary
281
     1
  3
Model
350
771
  3
ﾚｲｱｳﾄ1
350
772
1001
ACAD
1000
TREAT_AS_HARD
1070
     0
  0
DICTIONARY
  5
7AA
102
{ACAD_REACTORS
330
19
102
}
330
19
100
AcDbDictionary
281
     1
  3
ByBlock
350
7AC
  3
ByLayer
350
7AB
  3
Global
350
7AD
  0
DICTIONARY
  5
1B
102
{ACAD_REACTORS
330
19
102
}
330
19
100
AcDbDictionary
281
     1
  3
STANDARD
350
1C
1001
ACAD
1000
TREAT_AS_HARD
1070
     0
  0
DICTIONARY
  5
106
102
{ACAD_REACTORS
330
19
102
}
330
19
100
AcDbDictionary
281
     1
1001
ACAD
1000
TREAT_AS_HARD
1070
     0
  0
ACDBDICTIONARYWDFLT
  5
76F
102
{ACAD_REACTORS
330
19
102
}
330
19
100
AcDbDictionary
281
     1
  3
Normal
350
770
100
AcDbDictionaryWithDefault
340
770
1001
ACAD
1000
TREAT_AS_HARD
1070
     0
  0
DICTIONARY
  5
7C0
102
{ACAD_REACTORS
330
19
102
}
330
19
100
AcDbDictionary
281
     1
  3
Standard
350
7C1
  0
DICTIONARY
  5
7AE
102
{ACAD_REACTORS
330
19
102
}
330
19
100
AcDbDictionary
281
     1
  3
2dWireframe
350
7B4
  3
3D Hidden
350
7B6
  3
3dWireframe
350
7B5
  3
Basic
350
7B3
  3
Brighten
350
7BA
  3
ColorChange
350
7BE
  3
Conceptual
350
7B7
  3
Dim
350
7B9
  3
Facepattern
350
7BD
  3
Flat
350
7AF
  3
FlatWithEdges
350
7B0
  3
Gouraud
350
7B1
  3
GouraudWithEdges
350
7B2
  3
Linepattern
350
7BC
  3
Realistic
350
7B8
  3
Thicken
350
7BB
  0
DICTIONARY
  5
7A7
102
{ACAD_REACTORS
330
19
102
}
330
19
100
AcDbDictionary
281
     1
  3
CTABLESTYLE
350
824
  3
DIMASSOC
350
7A8
  3
INDEXCTL
350
826
  3
PROJECTNAME
350
835
  3
SORTENTS
350
825
  0
XRECORD
  5
83C
102
{ACAD_REACTORS
330
19
102
}
330
19
100
AcDbXrecord
280
     1
  1
DWGPROPS COOKIE
  2

  3

  4

  6

  7

  8
sendai
  9

300
=
301
=
302
=
303
=
304
=
305
=
306
=
307
=
308
=
309
=
 40
0.0323558217592593
 41
2444972.375
 42
2455449.586781504
  1

 90
        0
  0
XRECORD
  5
803
102
{ACAD_REACTORS
330
802
102
}
330
802
100
AcDbXrecord
280
     1
102
VTR_0.000_0.000_1.000_1.000_VISUALSTYLE
340
7B4
102
VTR_0.000_0.000_1.000_1.000_GRIDDISPLAY
 70
     3
102
VTR_0.000_0.000_1.000_1.000_GRIDMAJOR
 70
     5
102
VTR_0.000_0.000_1.000_1.000_DEFAULTLIGHTING
280
     1
102
VTR_0.000_0.000_1.000_1.000_DEFAULTLIGHTINGTYPE
 70
     1
102
VTR_0.000_0.000_1.000_1.000_BRIGHTNESS
141
0.0
102
VTR_0.000_0.000_1.000_1.000_CONTRAST
142
0.0
  0
DICTIONARY
  5
C93
102
{ACAD_REACTORS
330
C88
102
}
330
C88
100
AcDbDictionary
280
     1
281
     1
  0
DICTIONARY
  5
C89
102
{ACAD_REACTORS
330
C88
102
}
330
C88
100
AcDbDictionary
281
     1
  0
XRECORD
  5
807
102
{ACAD_REACTORS
330
806
102
}
330
806
100
AcDbXrecord
280
     1
102
MATERIAL
340
7AD
  0
XRECORD
  5
804
102
{ACAD_REACTORS
330
767
102
}
330
767
100
AcDbXrecord
280
     1
340
A
  0
XRECORD
  5
805
102
{ACAD_REACTORS
330
769
102
}
330
769
100
AcDbXrecord
280
     1
340
B
  0
LAYOUT
  5
771
102
{ACAD_XDICTIONARY
360
83E
102
}
102
{ACAD_REACTORS
330
105
102
}
330
105
100
AcDbPlotSettings
  1

  2
SHARP MX-2311FN SPDL2-c
  4
A4
  6
OLE1
 40
5.027083396911621
 41
5.027085304260253
 42
5.027084350585937
 43
5.027069091796875
 44
209.9733276367187
 45
296.9259948730469
 46
48.92
 47
94.09
 48
6721.381288999999
 49
13504.610177
140
86528.90362899999
141
70232.64859
142
100.0
143
1.0
 70
 11940
 72
     1
 73
     0
 74
     1
  7
プリンタ.ctb
 75
     0
147
100.0
148
-89.08970509874649
149
-1.999871682487906
100
AcDbLayout
  1
Model
 70
     1
 71
     0
 10
0.0
 20
0.0
 11
12.0
 21
9.0
 12
0.0
 22
0.0
 32
0.0
 14
0.0
 24
0.0
 34
0.0
 15
0.0
 25
0.0
 35
0.0
146
0.0
 13
0.0
 23
0.0
 33
0.0
 16
1.0
 26
0.0
 36
0.0
 17
0.0
 27
1.0
 37
0.0
 76
     0
330
A
  0
LAYOUT
  5
772
102
{ACAD_XDICTIONARY
360
840
102
}
102
{ACAD_REACTORS
330
105
102
}
330
105
100
AcDbPlotSettings
  1

  2
なし
  4

  6

 40
0.0
 41
0.0
 42
0.0
 43
0.0
 44
0.0
 45
0.0
 46
0.0
 47
0.0
 48
0.0
 49
0.0
140
0.0
141
0.0
142
1.0
143
1.0
 70
   688
 72
     0
 73
     0
 74
     5
  7
京セラレーザー.ctb
 75
    16
147
1.0
148
0.0
149
0.0
100
AcDbLayout
  1
ﾚｲｱｳﾄ1
 70
     0
 71
     1
 10
0.0
 20
0.0
 11
12.0
 21
9.0
 12
0.0
 22
0.0
 32
0.0
 14
1.000000000000000E+20
 24
1.000000000000000E+20
 34
1.000000000000000E+20
 15
-1.000000000000000E+20
 25
-1.000000000000000E+20
 35
-1.000000000000000E+20
146
0.0
 13
0.0
 23
0.0
 33
0.0
 16
1.0
 26
0.0
 36
0.0
 17
0.0
 27
1.0
 37
0.0
 76
     0
330
B
  0
ACAD_PROXY_OBJECT
  5
7AC
102
{ACAD_XDICTIONARY
360
81A
102
}
102
{ACAD_REACTORS
330
7AA
102
}
330
7AA
100
AcDbProxyObject
 90
      499
 91
      532
 95
   655383
 70
     0
 93
      574
310
41D096509313D0D2E004014040405AA6A9AA4060050101016A9AA6A9018000000000000E03F4040405AA6A9AA40650101016A9AA6A90190101016A9AA6A90194040405AA6A9AA400
 94
        0
  0
ACAD_PROXY_OBJECT
  5
7AB
102
{ACAD_XDICTIONARY
360
818
102
}
102
{ACAD_REACTORS
330
7AA
102
}
330
7AA
100
AcDbProxyObject
 90
      499
 91
      532
 95
   655383
 70
     0
 93
      574
310
41D0965310565154A004014040405AA6A9AA4060050101016A9AA6A9018000000000000E03F4040405AA6A9AA40650101016A9AA6A90190101016A9AA6A90194040405AA6A9AA400
 94
        0
  0
ACAD_PROXY_OBJECT
  5
7AD
102
{ACAD_XDICTIONARY
360
81C
102
}
102
{ACAD_REACTORS
330
7AA
102
}
330
7AA
100
AcDbProxyObject
 90
      499
 91
      532
 95
   655383
 70
     0
 93
      566
310
4191D313D090532004014040405AA6A9AA4060050101016A9AA6A9018000000000000E03F4040405AA6A9AA40650101016A9AA6A90190101016A9AA6A90194040405AA6A9AA400
 94
        0
  0
MLINESTYLE
  5
1C
102
{ACAD_REACTORS
330
1B
102
}
330
1B
100
AcDbMlineStyle
  2
STANDARD
 70
     0
  3

 62
     0
 51
90.00000000000019
 52
90.00000000000019
 71
     2
 49
0.5
 62
   256
  6
BYLAYER
 49
-0.5
 62
   256
  6
BYLAYER
  0
ACDBPLACEHOLDER
  5
770
102
{ACAD_REACTORS
330
76F
102
}
330
76F
  0
ACAD_PROXY_OBJECT
  5
7C1
102
{ACAD_XDICTIONARY
360
822
102
}
102
{ACAD_REACTORS
330
7C0
102
}
330
7C0
100
AcDbProxyObject
 90
      499
 91
      534
 95
   655383
 70
     0
 93
     1841
310
4214DD185B99185C9928B81E85EB51B8AE3F2E07A17AD46E2B8FC02B5E8DC0F42B1CFD028000000C1008070000C3001FDFF8000000C1003FBFF000000182007F7FE00000030400FEFFC00000060801FDFF8000000C1003FBFF00000018200000000000000681FA0B0000001820100E000186003FBFF000000182007F7FE000
310
00030400FEFFC00000060801FDFF8000000C1003FBFF000000182007F7FE000000304000AD7A3703D0AC73F4160000003040201C00030C007F7FE00000030400FEFFC00000060801FDFF8000000C1003FBFF000000182007F7FE00000030400FEFFC000000608000
340
17
340
17
340
17
 94
        0
  0
ACAD_PROXY_OBJECT
  5
7B4
102
{ACAD_REACTORS
330
7AE
102
}
330
7AE
100
AcDbProxyObject
 90
      499
 91
      533
 95
   655381
 70
     0
 93
      444
310
430C9915DA5C99599C985B59401049028333333333333E3BF0000000000000FB0107901411070040501600405405064090741402480A0340
 94
        0
1001
ACAD
1000
AcDbSavedByObjectVersion
1070
     0
1000
AcRTDxfName
1000
VISUALSTYLE
1000
AcRTDxfName
1000
VISUALSTYLE
  0
ACAD_PROXY_OBJECT
  5
7B6
102
{ACAD_REACTORS
330
7AE
102
}
330
7AE
100
AcDbProxyObject
 90
      499
 91
      533
 95
   655381
 70
     0
 93
      508
310
428CD108121A5919195B8010640502408333333333333E3BF0000000000000FB01079024090700405020000000000001110200405405064090740C02480A0340
 94
        0
1001
ACAD
1000
AcDbSavedByObjectVersion
1070
     0
1000
AcRTDxfName
1000
VISUALSTYLE
1000
AcRTDxfName
1000
VISUALSTYLE
  0
ACAD_PROXY_OBJECT
  5
7B5
102
{ACAD_REACTORS
330
7AE
102
}
330
7AE
100
AcDbProxyObject
 90
      499
 91
      533
 95
   655381
 70
     0
 93
      444
310
430CD915DA5C99599C985B59401059028333333333333E3BF0000000000000FB0107901411070040501600405405064090741402480A0340
 94
        0
1001
ACAD
1000
AcDbSavedByObjectVersion
1070
     0
1000
AcRTDxfName
1000
VISUALSTYLE
1000
AcRTDxfName
1000
VISUALSTYLE
  0
ACAD_PROXY_OBJECT
  5
7B3
102
{ACAD_REACTORS
330
7AE
102
}
330
7AE
100
AcDbProxyObject
 90
      499
 91
      533
 95
   655381
 70
     0
 93
      396
310
4190985CDA58C0107406404333333333333E3BF0000000000000FB0107A41107004050150841D405064090741402480A0356
 94
        0
1001
ACAD
1000
AcDbSavedByObjectVersion
1070
     0
1000
AcRTDxfName
1000
VISUALSTYLE
1000
AcRTDxfName
1000
VISUALSTYLE
  0
ACAD_PROXY_OBJECT
  5
7BA
102
{ACAD_REACTORS
330
7AE
102
}
330
7AE
100
AcDbProxyObject
 90
      499
 91
      533
 95
   655381
 70
     0
 93
      436
310
42509C9A59DA1D195B8010C409028333333333333E3BF0000000000000FB010790141107004050150841D405064090741402480A029956
 94
        0
1001
ACAD
1000
AcDbSavedByObjectVersion
1070
     0
1000
AcRTDxfName
1000
VISUALSTYLE
1000
AcRTDxfName
1000
VISUALSTYLE
  0
ACAD_PROXY_OBJECT
  5
7BE
102
{ACAD_REACTORS
330
7AE
102
}
330
7AE
100
AcDbProxyObject
 90
      499
 91
      533
 95
   655381
 70
     0
 93
      460
310
4310DBDB1BDC90DA185B99D9401104090240C333333333333E3BF0000000000000FB0108901411070040501508421405064090741402480A0354
 94
        0
1001
ACAD
1000
AcDbSavedByObjectVersion
1070
     0
1000
AcRTDxfName
1000
VISUALSTYLE
1000
AcRTDxfName
1000
VISUALSTYLE
  0
ACAD_PROXY_OBJECT
  5
7B7
102
{ACAD_REACTORS
330
7AE
102
}
330
7AE
100
AcDbProxyObject
 90
      499
 91
      533
 95
   655381
 70
     0
 93
      508
310
42D0DBDB98D95C1D1D585B0010940D028333333333333E3BF0000000000000FB0107902409070040501000000000000111010841D405064090740C02480A0340
 94
        0
1001
ACAD
1000
AcDbSavedByObjectVersion
1070
     0
1000
AcRTDxfName
1000
VISUALSTYLE
1000
AcRTDxfName
1000
VISUALSTYLE
  0
ACAD_PROXY_OBJECT
  5
7B9
102
{ACAD_REACTORS
330
7AE
102
}
330
7AE
100
AcDbProxyObject
 90
      499
 91
      533
 95
   655381
 70
     0
 93
      420
310
41111A5B4010B409028333333333333E3BF0000000000000FB010790141107004050150841D405064090741402480A02677FFFFFDB
 94
        0
1001
ACAD
1000
AcDbSavedByObjectVersion
1070
     0
1000
AcRTDxfName
1000
VISUALSTYLE
1000
AcRTDxfName
1000
VISUALSTYLE
  0
ACAD_PROXY_OBJECT
  5
7BD
102
{ACAD_REACTORS
330
7AE
102
}
330
7AE
100
AcDbProxyObject
 90
      499
 91
      533
 95
   655381
 70
     0
 93
      452
310
43119858D95C185D1D195C9B8010F409028333333333333E3BF0000000000000FB010790141107004050150841D405064090741402480A0350
 94
        0
1001
ACAD
1000
AcDbSavedByObjectVersion
1070
     0
1000
AcRTDxfName
1000
VISUALSTYLE
1000
AcRTDxfName
1000
VISUALSTYLE
  0
ACAD_PROXY_OBJECT
  5
7AF
102
{ACAD_REACTORS
330
7AE
102
}
330
7AE
100
AcDbProxyObject
 90
      499
 91
      533
 95
   655381
 70
     0
 93
      396
310
41519B185D00240901404333333333333E3BF0000000000000F9010740A41107004050150841D405064090741402480A1B50
 94
        0
1001
ACAD
1000
AcDbSavedByObjectVersion
1070
     0
1000
AcRTDxfName
1000
VISUALSTYLE
1000
AcRTDxfName
1000
VISUALSTYLE
  0
ACAD_PROXY_OBJECT
  5
7B0
102
{ACAD_REACTORS
330
7AE
102
}
330
7AE
100
AcDbProxyObject
 90
      499
 91
      533
 95
   655381
 70
     0
 93
      484
310
43919B185D15DA5D1A115919D95CC010140901404333333333333E3BF0000000000000F9010740901411070040501600405405064090741402480A1B50
 94
        0
1001
ACAD
1000
AcDbSavedByObjectVersion
1070
     0
1000
AcRTDxfName
1000
VISUALSTYLE
1000
AcRTDxfName
1000
VISUALSTYLE
  0
ACAD_PROXY_OBJECT
  5
7B1
102
{ACAD_REACTORS
330
7AE
102
}
330
7AE
100
AcDbProxyObject
 90
      499
 91
      533
 95
   655381
 70
     0
 93
      420
310
4211DBDD5C985D590010240902404333333333333E3BF0000000000000F9010740A411070040501641D405064090741402480A1B50
 94
        0
1001
ACAD
1000
AcDbSavedByObjectVersion
1070
     0
1000
AcRTDxfName
1000
VISUALSTYLE
1000
AcRTDxfName
1000
VISUALSTYLE
  0
ACAD_PROXY_OBJECT
  5
7B2
102
{ACAD_REACTORS
330
7AE
102
}
330
7AE
100
AcDbProxyObject
 90
      499
 91
      533
 95
   655381
 70
     0
 93
      508
310
4451DBDD5C985D5915DA5D1A115919D95CC010340902404333333333333E3BF0000000000000F9010740901411070040501600405405064090741402480A1B50
 94
        0
1001
ACAD
1000
AcDbSavedByObjectVersion
1070
     0
1000
AcRTDxfName
1000
VISUALSTYLE
1000
AcRTDxfName
1000
VISUALSTYLE
  0
ACAD_PROXY_OBJECT
  5
7BC
102
{ACAD_REACTORS
330
7AE
102
}
330
7AE
100
AcDbProxyObject
 90
      499
 91
      533
 95
   655381
 70
     0
 93
      452
310
43131A5B995C185D1D195C9B8010E409028333333333333E3BF0000000000000FB010790141107004050750841D405064090741402483A0350
 94
        0
1001
ACAD
1000
AcDbSavedByObjectVersion
1070
     0
1000
AcRTDxfName
1000
VISUALSTYLE
1000
AcRTDxfName
1000
VISUALSTYLE
  0
ACAD_PROXY_OBJECT
  5
7B8
102
{ACAD_REACTORS
330
7AE
102
}
330
7AE
100
AcDbProxyObject
 90
      499
 91
      533
 95
   655381
 70
     0
 93
      428
310
429499585B1A5CDD1A58C0108409028333333333333E3BF0000000000000FB01079019070040501508421405064090741402480A1B45
 94
        0
1001
ACAD
1000
AcDbSavedByObjectVersion
1070
     0
1000
AcRTDxfName
1000
VISUALSTYLE
1000
AcRTDxfName
1000
VISUALSTYLE
  0
ACAD_PROXY_OBJECT
  5
7BB
102
{ACAD_REACTORS
330
7AE
102
}
330
7AE
100
AcDbProxyObject
 90
      499
 91
      533
 95
   655381
 70
     0
 93
      420
310
42151A1A58DAD95B8010D409028333333333333E3BF0000000000000FB010790141107004050150C41D405064090741402480A0352
 94
        0
1001
ACAD
1000
AcDbSavedByObjectVersion
1070
     0
1000
AcRTDxfName
1000
VISUALSTYLE
1000
AcRTDxfName
1000
VISUALSTYLE
  0
DICTIONARYVAR
  5
824
102
{ACAD_REACTORS
330
7A7
102
}
330
7A7
100
DictionaryVariables
280
     0
  1
STANDARD
  0
DICTIONARYVAR
  5
7A8
102
{ACAD_REACTORS
330
7A7
102
}
330
7A7
100
DictionaryVariables
280
     0
  1
1
  0
DICTIONARYVAR
  5
826
102
{ACAD_REACTORS
330
7A7
102
}
330
7A7
100
DictionaryVariables
280
     0
  1
0
  0
DICTIONARYVAR
  5
835
102
{ACAD_REACTORS
330
7A7
102
}
330
7A7
100
DictionaryVariables
280
     0
  1

  0
DICTIONARYVAR
  5
825
102
{ACAD_REACTORS
330
7A7
102
}
330
7A7
100
DictionaryVariables
280
     0
  1
127
  0
DICTIONARY
  5
83E
330
771
100
AcDbDictionary
280
     1
281
     1
  3
ACAD_XREC_ROUNDTRIP
360
83F
  0
DICTIONARY
  5
840
330
772
100
AcDbDictionary
280
     1
281
     1
  3
ACAD_XREC_ROUNDTRIP
360
841
  0
DICTIONARY
  5
81A
330
7AC
100
AcDbDictionary
280
     1
281
     1
  3
ACAD_XREC_ROUNDTRIP
360
81B
  0
DICTIONARY
  5
818
330
7AB
100
AcDbDictionary
280
     1
281
     1
  3
ACAD_XREC_ROUNDTRIP
360
819
  0
DICTIONARY
  5
81C
330
7AD
100
AcDbDictionary
280
     1
281
     1
  3
ACAD_XREC_ROUNDTRIP
360
81D
  0
DICTIONARY
  5
822
330
7C1
100
AcDbDictionary
280
     1
281
     1
  3
ACAD_XREC_ROUNDTRIP
360
823
  0
XRECORD
  5
83F
102
{ACAD_REACTORS
330
83E
102
}
330
83E
100
AcDbXrecord
280
     1
102
SHADEPLOT
 70
     0
102
SHADEPLOTRESLEVEL
 70
     2
102
SHADEPLOTCUSTOMDPI
 70
   300
  0
XRECORD
  5
841
102
{ACAD_REACTORS
330
840
102
}
330
840
100
AcDbXrecord
280
     1
102
SHADEPLOT
 70
     0
102
SHADEPLOTRESLEVEL
 70
     2
102
SHADEPLOTCUSTOMDPI
 70
   300
  0
XRECORD
  5
81B
102
{ACAD_REACTORS
330
81A
102
}
330
81A
100
AcDbXrecord
280
     1
102
MATERIAL
148
0.0
149
0.0
149
0.0
 93
        0
 94
       63
282
     0
 72
     1
 77
     1
171
     1
175
     1
179
     1
273
     0
  0
XRECORD
  5
819
102
{ACAD_REACTORS
330
818
102
}
330
818
100
AcDbXrecord
280
     1
102
MATERIAL
148
0.0
149
0.0
149
0.0
 93
        0
 94
       63
282
     0
 72
     1
 77
     1
171
     1
175
     1
179
     1
273
     0
  0
XRECORD
  5
81D
102
{ACAD_REACTORS
330
81C
102
}
330
81C
100
AcDbXrecord
280
     1
102
MATERIAL
148
0.0
149
0.0
149
0.0
 93
        0
 94
       63
282
     0
 72
     1
 77
     1
171
     1
175
     1
179
     1
273
     0
  0
XRECORD
  5
823
102
{ACAD_REACTORS
330
822
102
}
330
822
100
AcDbXrecord
280
     1
102
ACAD_ROUNDTRIP_PRE2007_TABLESTYLE
 90
      512
 91
        0
  1

 92
      512
 93
        0
  2

 94
      512
 95
        0
  3

  0
ENDSEC
  0
EOF
