  0
SECTION
  2
HEADER
  9
$ACADVER
  1
AC1015
  9
$ACADMAINTVER
 70
    10
  9
$DWGCODEPAGE
  3
ANSI_932
  9
$INSBASE
 10
0.0
 20
0.0
 30
0.0
  9
$EXTMIN
 10
89.10006857570342
 20
1.99995835141285
 30
0.0
  9
$EXTMAX
 10
90.10006857570344
 20
2.979951997007609
 30
0.0
  9
$LIMMIN
 10
0.0
 20
0.0
  9
$LIMMAX
 10
100.0
 20
100.0
  9
$ORTHOMODE
 70
     1
  9
$REGENMODE
 70
     1
  9
$FILLMODE
 70
     1
  9
$QTEXTMODE
 70
     0
  9
$MIRRTEXT
 70
     1
  9
$LTSCALE
 40
1.0
  9
$ATTMODE
 70
     1
  9
$TEXTSIZE
 40
0.0
  9
$TRACEWID
 40
0.05
  9
$TEXTSTYLE
  7
STANDARD
  9
$CLAYER
  8
DIM
  9
$CELTYPE
  6
CONTINUOUS
  9
$CECOLOR
 62
   256
  9
$CELTSCALE
 40
1.0
  9
$DISPSILH
 70
     0
  9
$DIMSCALE
 40
1.0
  9
$DIMASZ
 40
0.18
  9
$DIMEXO
 40
0.0625
  9
$DIMDLI
 40
0.38
  9
$DIMRND
 40
0.0
  9
$DIMDLE
 40
0.0
  9
$DIMEXE
 40
0.18
  9
$DIMTP
 40
0.0
  9
$DIMTM
 40
0.0
  9
$DIMTXT
 40
0.18
  9
$DIMCEN
 40
0.09
  9
$DIMTSZ
 40
0.0
  9
$DIMTOL
 70
     0
  9
$DIMLIM
 70
     0
  9
$DIMTIH
 70
     1
  9
$DIMTOH
 70
     1
  9
$DIMSE1
 70
     0
  9
$DIMSE2
 70
     0
  9
$DIMTAD
 70
     0
  9
$DIMZIN
 70
     0
  9
$DIMBLK
  1

  9
$DIMASO
 70
     1
  9
$DIMSHO
 70
     1
  9
$DIMPOST
  1

  9
$DIMAPOST
  1

  9
$DIMALT
 70
     0
  9
$DIMALTD
 70
     2
  9
$DIMALTF
 40
25.4
  9
$DIMLFAC
 40
1.0
  9
$DIMTOFL
 70
     0
  9
$DIMTVP
 40
0.0
  9
$DIMTIX
 70
     0
  9
$DIMSOXD
 70
     0
  9
$DIMSAH
 70
     0
  9
$DIMBLK1
  1

  9
$DIMBLK2
  1

  9
$DIMSTYLE
  2
STANDARD
  9
$DIMCLRD
 70
     0
  9
$DIMCLRE
 70
     0
  9
$DIMCLRT
 70
     0
  9
$DIMTFAC
 40
1.0
  9
$DIMGAP
 40
0.09
  9
$DIMJUST
 70
     0
  9
$DIMSD1
 70
     0
  9
$DIMSD2
 70
     0
  9
$DIMTOLJ
 70
     1
  9
$DIMTZIN
 70
     0
  9
$DIMALTZ
 70
     0
  9
$DIMALTTZ
 70
     0
  9
$DIMUPT
 70
     0
  9
$DIMDEC
 70
     4
  9
$DIMTDEC
 70
     4
  9
$DIMALTU
 70
     2
  9
$DIMALTTD
 70
     2
  9
$DIMTXSTY
  7
STANDARD
  9
$DIMAUNIT
 70
     0
  9
$DIMADEC
 70
     0
  9
$DIMALTRND
 40
0.0
  9
$DIMAZIN
 70
     0
  9
$DIMDSEP
 70
    46
  9
$DIMATFIT
 70
     3
  9
$DIMFRAC
 70
     0
  9
$DIMLDRBLK
  1

  9
$DIMLUNIT
 70
     2
  9
$DIMLWD
 70
    -2
  9
$DIMLWE
 70
    -2
  9
$DIMTMOVE
 70
     0
  9
$LUNITS
 70
     2
  9
$LUPREC
 70
     4
  9
$SKETCHINC
 40
0.1
  9
$FILLETRAD
 40
0.0
  9
$AUNITS
 70
     0
  9
$AUPREC
 70
     0
  9
$MENU
  1
acad
  9
$ELEVATION
 40
0.0
  9
$PELEVATION
 40
0.0
  9
$THICKNESS
 40
0.0
  9
$LIMCHECK
 70
     0
  9
$CHAMFERA
 40
0.0
  9
$CHAMFERB
 40
0.0
  9
$CHAMFERC
 40
0.0
  9
$CHAMFERD
 40
0.0
  9
$SKPOLY
 70
     0
  9
$TDCREATE
 40
2444972.375000000
  9
$TDUCREATE
 40
2444972.000000000
  9
$TDUPDATE
 40
2456436.762067199
  9
$TDUUPDATE
 40
2456436.387067199
  9
$TDINDWG
 40
0.0737571644
  9
$TDUSRTIMER
 40
0.0737571644
  9
$USRTIMER
 70
     1
  9
$ANGBASE
 50
0.0
  9
$ANGDIR
 70
     0
  9
$PDMODE
 70
     0
  9
$PDSIZE
 40
0.0
  9
$PLINEWID
 40
0.0
  9
$SPLFRAME
 70
     0
  9
$SPLINETYPE
 70
     6
  9
$SPLINESEGS
 70
     8
  9
$HANDSEED
  5
1B37
  9
$SURFTAB1
 70
     6
  9
$SURFTAB2
 70
     6
  9
$SURFTYPE
 70
     6
  9
$SURFU
 70
     6
  9
$SURFV
 70
     6
  9
$UCSBASE
  2

  9
$UCSNAME
  2

  9
$UCSORG
 10
0.0
 20
0.0
 30
0.0
  9
$UCSXDIR
 10
1.0
 20
0.0
 30
0.0
  9
$UCSYDIR
 10
0.0
 20
1.0
 30
0.0
  9
$UCSORTHOREF
  2

  9
$UCSORTHOVIEW
 70
     0
  9
$UCSORGTOP
 10
0.0
 20
0.0
 30
0.0
  9
$UCSORGBOTTOM
 10
0.0
 20
0.0
 30
0.0
  9
$UCSORGLEFT
 10
0.0
 20
0.0
 30
0.0
  9
$UCSORGRIGHT
 10
0.0
 20
0.0
 30
0.0
  9
$UCSORGFRONT
 10
0.0
 20
0.0
 30
0.0
  9
$UCSORGBACK
 10
0.0
 20
0.0
 30
0.0
  9
$PUCSBASE
  2

  9
$PUCSNAME
  2

  9
$PUCSORG
 10
0.0
 20
0.0
 30
0.0
  9
$PUCSXDIR
 10
1.0
 20
0.0
 30
0.0
  9
$PUCSYDIR
 10
0.0
 20
1.0
 30
0.0
  9
$PUCSORTHOREF
  2

  9
$PUCSORTHOVIEW
 70
     0
  9
$PUCSORGTOP
 10
0.0
 20
0.0
 30
0.0
  9
$PUCSORGBOTTOM
 10
0.0
 20
0.0
 30
0.0
  9
$PUCSORGLEFT
 10
0.0
 20
0.0
 30
0.0
  9
$PUCSORGRIGHT
 10
0.0
 20
0.0
 30
0.0
  9
$PUCSORGFRONT
 10
0.0
 20
0.0
 30
0.0
  9
$PUCSORGBACK
 10
0.0
 20
0.0
 30
0.0
  9
$USERI1
 70
     0
  9
$USERI2
 70
     0
  9
$USERI3
 70
     0
  9
$USERI4
 70
     0
  9
$USERI5
 70
     0
  9
$USERR1
 40
0.0
  9
$USERR2
 40
0.0
  9
$USERR3
 40
0.0
  9
$USERR4
 40
0.0
  9
$USERR5
 40
0.0
  9
$WORLDVIEW
 70
     1
  9
$SHADEDGE
 70
     3
  9
$SHADEDIF
 70
    70
  9
$TILEMODE
 70
     1
  9
$MAXACTVP
 70
    16
  9
$PINSBASE
 10
0.0
 20
0.0
 30
0.0
  9
$PLIMCHECK
 70
     0
  9
$PEXTMIN
 10
1.000000000000000E+20
 20
1.000000000000000E+20
 30
1.000000000000000E+20
  9
$PEXTMAX
 10
-1.000000000000000E+20
 20
-1.000000000000000E+20
 30
-1.000000000000000E+20
  9
$PLIMMIN
 10
0.0
 20
0.0
  9
$PLIMMAX
 10
12.0
 20
9.0
  9
$UNITMODE
 70
     0
  9
$VISRETAIN
 70
     0
  9
$PLINEGEN
 70
     1
  9
$PSLTSCALE
 70
     0
  9
$TREEDEPTH
 70
  3020
  9
$CMLSTYLE
  2
STANDARD
  9
$CMLJUST
 70
     0
  9
$CMLSCALE
 40
1.0
  9
$PROXYGRAPHICS
 70
     1
  9
$MEASUREMENT
 70
     0
  9
$CELWEIGHT
370
    -1
  9
$ENDCAPS
280
     0
  9
$JOINSTYLE
280
     0
  9
$LWDISPLAY
290
     0
  9
$INSUNITS
 70
     0
  9
$HYPERLINKBASE
  1

  9
$STYLESHEET
  1
プリンタ.ctb
  9
$XEDIT
290
     1
  9
$CEPSNTYPE
380
     0
  9
$PSTYLEMODE
290
     1
  9
$FINGERPRINTGUID
  2
{7E5E7D33-40A8-4612-AA41-990508750287}
  9
$VERSIONGUID
  2
{DA1F8736-8F13-4060-B7A1-8F1DADE5304A}
  9
$EXTNAMES
290
     1
  9
$PSVPSCALE
 40
0.0
  9
$OLESTARTUP
290
     0
  0
ENDSEC
  0
SECTION
  2
CLASSES
  0
CLASS
  1
LWPOLYLINE
  2
AcDbPolyline
  3
AutoCAD 2000
 90
    32768
280
     0
281
     1
  0
CLASS
  1
IMAGE
  2
AcDbRasterImage
  3
ISM
 90
    32895
280
     0
281
     1
  0
CLASS
  1
OLE2FRAME
  2
AcDbOle2Frame
  3
AutoCAD 2000
 90
    32768
280
     0
281
     1
  0
CLASS
  1
HATCH
  2
AcDbHatch
  3
AutoCAD 2000
 90
    32768
280
     0
281
     1
  0
CLASS
  1
DICTIONARYVAR
  2
AcDbDictionaryVar
  3
AutoCAD 2000
 90
        0
280
     0
281
     0
  0
CLASS
  1
RASTERVARIABLES
  2
AcDbRasterVariables
  3
ISM
 90
    32768
280
     0
281
     0
  0
CLASS
  1
IMAGEDEF
  2
AcDbRasterImageDef
  3
ISM
 90
    32768
280
     0
281
     0
  0
CLASS
  1
IMAGEDEF_REACTOR
  2
AcDbRasterImageDefReactor
  3
ISM
 90
    32769
280
     0
281
     0
  0
CLASS
  1
IDBUFFER
  2
AcDbIdBuffer
  3
AutoCAD 2000
 90
    32768
280
     0
281
     0
  0
CLASS
  1
SPATIAL_FILTER
  2
AcDbSpatialFilter
  3
AutoCAD 2000
 90
    32768
280
     0
281
     0
  0
CLASS
  1
XRECORD
  2
AcDbXrecord
  3
AutoCAD 2000
 90
    32768
280
     0
281
     0
  0
CLASS
  1
SORTENTSTABLE
  2
AcDbSortentsTable
  3
AutoCAD 2000
 90
    32768
280
     0
281
     0
  0
CLASS
  1
LAYER_INDEX
  2
AcDbLayerIndex
  3
AutoCAD 2000
 90
    32768
280
     0
281
     0
  0
CLASS
  1
SPATIAL_INDEX
  2
AcDbSpatialIndex
  3
AutoCAD 2000
 90
    32768
280
     0
281
     0
  0
CLASS
  1
OBJECT_PTR
  2
CAseDLPNTableRecord
  3
"ASE-LPNTableRecord"
 90
    32768
280
     0
281
     0
  0
CLASS
  1
LAYOUT
  2
AcDbLayout
  3
AutoCAD 2000
 90
        0
280
     0
281
     0
  0
CLASS
  1
PLOTSETTINGS
  2
AcDbPlotSettings
  3
AutoCAD 2000
 90
    32768
280
     0
281
     0
  0
CLASS
  1
ACDBDICTIONARYWDFLT
  2
AcDbDictionaryWithDefault
  3
AutoCAD 2000
 90
        0
280
     0
281
     0
  0
CLASS
  1
ACDBPLACEHOLDER
  2
AcDbPlaceHolder
  3
AutoCAD 2000
 90
        0
280
     0
281
     0
  0
CLASS
  1
VBA_PROJECT
  2
AcDbVbaProject
  3
acad
 90
    32768
280
     0
281
     0
  0
CLASS
  1
WIPEOUT
  2
AcDbWipeout
  3
"WipeOut|Product Desc: Object Enabler for WipeOut entity^I^I^I^I^I^I|Company: Autodesk, Inc.^I^I^I^I^I^I|WEB Address: www.autodesk.com"
 90
    32895
280
     0
281
     1
  0
CLASS
  1
WIPEOUTVARIABLES
  2
AcDbWipeoutVariables
  3
"WipeOut|Product Desc:     WipeOut Dbx Application|Company:          Autodesk, Inc.|WEB Address:      www.autodesk.com"
 90
    32768
280
     0
281
     0
  0
CLASS
  1
RTEXT
  2
RText
  3
RText|AutoCAD Express Tool|expresstools@autodesk.com
 90
    32768
280
     0
281
     1
  0
CLASS
  1
ARCALIGNEDTEXT
  2
AcDbArcAlignedText
  3
ATEXT|AutoCAD Express Tool|expresstools@autodesk.com
 90
    32768
280
     0
281
     1
  0
CLASS
  1
LONG_TRANSACTION
  2
AcDbLongTransaction
  3
AutoCAD 2000
 90
    32768
280
     0
281
     0
  0
CLASS
  1
LWPOLYLINE
  2
AcDbPolyline
  3
AutoCAD 2000
 90
    32768
280
     0
281
     1
  0
CLASS
  1
HATCH
  2
AcDbHatch
  3
AutoCAD 2000
 90
    32768
280
     0
281
     1
  0
CLASS
  1
XRECORD
  2
AcDbXrecord
  3
AutoCAD 2000
 90
    32768
280
     0
281
     0
  0
CLASS
  1
LONG_TRANSACTION
  2
AcDbLongTransaction
  3
AutoCAD 2000
 90
    32768
280
     0
281
     0
  0
CLASS
  1
LWPOLYLINE
  2
AcDbPolyline
  3
AutoCAD 2000
 90
    32768
280
     0
281
     1
  0
CLASS
  1
HATCH
  2
AcDbHatch
  3
AutoCAD 2000
 90
    32768
280
     0
281
     1
  0
CLASS
  1
XRECORD
  2
AcDbXrecord
  3
AutoCAD 2000
 90
    32768
280
     0
281
     0
  0
CLASS
  1
MATERIAL
  2
AcDbMaterial
  3
ObjectDBX Classes
 90
        0
280
     0
281
     0
  0
CLASS
  1
VISUALSTYLE
  2
AcDbVisualStyle
  3
ObjectDBX Classes
 90
     4095
280
     0
281
     0
  0
CLASS
  1
TABLESTYLE
  2
AcDbTableStyle
  3
ObjectDBX Classes
 90
     2047
280
     0
281
     0
  0
ENDSEC
  0
SECTION
  2
TABLES
  0
TABLE
  2
VPORT
  5
7
102
{ACAD_XDICTIONARY
360
802
102
}
330
0
100
AcDbSymbolTable
 70
     2
  0
VPORT
  5
1B36
330
7
100
AcDbSymbolTableRecord
100
AcDbViewportTableRecord
  2
*Active
 70
     0
 10
0.0
 20
0.0
 11
1.0
 21
1.0
 12
89.5965578961146
 22
2.48794573415995
 13
0.0
 23
0.0
 14
1.0
 24
1.0
 15
0.0
 25
0.0
 16
0.0
 26
0.0
 36
1.0
 17
0.0
 27
0.0
 37
0.0
 40
0.9931080374179696
 41
1.883233532934131
 42
50.0
 43
0.0
 44
0.0
 50
0.0
 51
0.0
 71
     0
 72
   100
 73
     1
 74
     0
 75
     0
 76
     0
 77
     0
 78
     0
281
     0
 65
     1
110
0.0
120
0.0
130
0.0
111
1.0
121
0.0
131
0.0
112
0.0
122
1.0
132
0.0
 79
     0
146
0.0
  0
ENDTAB
  0
TABLE
  2
LTYPE
  5
4
330
0
100
AcDbSymbolTable
 70
     1
  0
LTYPE
  5
11
330
4
100
AcDbSymbolTableRecord
100
AcDbLinetypeTableRecord
  2
BYBLOCK
 70
     0
  3

 72
    65
 73
     0
 40
0.0
  0
LTYPE
  5
12
330
4
100
AcDbSymbolTableRecord
100
AcDbLinetypeTableRecord
  2
BYLAYER
 70
     0
  3

 72
    65
 73
     0
 40
0.0
  0
LTYPE
  5
13
330
4
100
AcDbSymbolTableRecord
100
AcDbLinetypeTableRecord
  2
CONTINUOUS
 70
     0
  3
Solid line
 72
    65
 73
     0
 40
0.0
  0
ENDTAB
  0
TABLE
  2
LAYER
  5
2
102
{ACAD_XDICTIONARY
360
C88
102
}
330
0
100
AcDbSymbolTable
 70
     5
  0
LAYER
  5
14
102
{ACAD_XDICTIONARY
360
806
102
}
330
2
100
AcDbSymbolTableRecord
100
AcDbLayerTableRecord
  2
0
 70
     0
 62
     7
  6
CONTINUOUS
370
    -3
390
770
  0
LAYER
  5
8A5
330
2
100
AcDbSymbolTableRecord
100
AcDbLayerTableRecord
  2
DIM
 70
     0
 62
     3
  6
CONTINUOUS
370
    -3
390
770
  0
LAYER
  5
8A6
330
2
100
AcDbSymbolTableRecord
100
AcDbLayerTableRecord
  2
DEFPOINTS
 70
     0
 62
     7
  6
CONTINUOUS
290
     0
370
    -3
390
770
  0
LAYER
  5
C95
330
2
100
AcDbSymbolTableRecord
100
AcDbLayerTableRecord
  2
002
 70
     0
 62
     7
  6
CONTINUOUS
370
    -3
390
770
  0
LAYER
  5
CC0
330
2
100
AcDbSymbolTableRecord
100
AcDbLayerTableRecord
  2
001
 70
     0
 62
     7
  6
CONTINUOUS
370
    -3
390
770
  0
ENDTAB
  0
TABLE
  2
STYLE
  5
3
330
0
100
AcDbSymbolTable
 70
     1
  0
STYLE
  5
17
330
3
100
AcDbSymbolTableRecord
100
AcDbTextStyleTableRecord
  2
STANDARD
 70
     0
 40
0.0
 41
0.8
 50
0.0
 71
     0
 42
0.0
  3
txt.shx
  4
extfont.shx
  0
ENDTAB
  0
TABLE
  2
VIEW
  5
5
330
0
100
AcDbSymbolTable
 70
     0
  0
ENDTAB
  0
TABLE
  2
UCS
  5
6
330
0
100
AcDbSymbolTable
 70
     0
  0
ENDTAB
  0
TABLE
  2
APPID
  5
8
330
0
100
AcDbSymbolTable
 70
    17
  0
APPID
  5
16
330
8
100
AcDbSymbolTableRecord
100
AcDbRegAppTableRecord
  2
ACAD
 70
     0
  0
APPID
  5
8AA
330
8
100
AcDbSymbolTableRecord
100
AcDbRegAppTableRecord
  2
ACAD_DSTYLE_DIMRADIAL_EXTENSION
 70
     0
  0
APPID
  5
CC4
330
8
100
AcDbSymbolTableRecord
100
AcDbRegAppTableRecord
  2
ACAD_PSEXT
 70
     0
  0
APPID
  5
CC5
330
8
100
AcDbSymbolTableRecord
100
AcDbRegAppTableRecord
  2
DCO15
 70
     0
  0
APPID
  5
CC6
330
8
100
AcDbSymbolTableRecord
100
AcDbRegAppTableRecord
  2
ACAD_EXEMPT_FROM_CAD_STANDARDS
 70
     0
  0
APPID
  5
1222
330
8
100
AcDbSymbolTableRecord
100
AcDbRegAppTableRecord
  2
ACAD_DSTYLE_DIMTEXT_FILL
 70
     0
  0
APPID
  5
1223
330
8
100
AcDbSymbolTableRecord
100
AcDbRegAppTableRecord
  2
ACAD_DSTYLE_DIMEXT_LENGTH
 70
     0
  0
APPID
  5
1224
330
8
100
AcDbSymbolTableRecord
100
AcDbRegAppTableRecord
  2
ACAD_DSTYLE_DIMEXT_ENABLED
 70
     0
  0
APPID
  5
1225
330
8
100
AcDbSymbolTableRecord
100
AcDbRegAppTableRecord
  2
ACAD_DSTYLE_DIM_LINETYPE
 70
     0
  0
APPID
  5
1226
330
8
100
AcDbSymbolTableRecord
100
AcDbRegAppTableRecord
  2
ACAD_DSTYLE_DIM_EXT1_LINETYPE
 70
     0
  0
APPID
  5
1227
330
8
100
AcDbSymbolTableRecord
100
AcDbRegAppTableRecord
  2
ACAD_DSTYLE_DIM_EXT2_LINETYPE
 70
     0
  0
APPID
  5
1228
330
8
100
AcDbSymbolTableRecord
100
AcDbRegAppTableRecord
  2
ACAD_DSTYLE_DIMJOGGED_JOGANGLE_SYMBOL
 70
     0
  0
APPID
  5
1229
330
8
100
AcDbSymbolTableRecord
100
AcDbRegAppTableRecord
  2
ACAD_DSTYLE_DIMARC_LENGTH_SYMBOL
 70
     0
  0
APPID
  5
122A
330
8
100
AcDbSymbolTableRecord
100
AcDbRegAppTableRecord
  2
ACAD_MLEADERVER
 70
     0
  0
APPID
  5
122B
330
8
100
AcDbSymbolTableRecord
100
AcDbRegAppTableRecord
  2
ACAD_DSTYLE_DIMJAG
 70
     0
  0
APPID
  5
122C
330
8
100
AcDbSymbolTableRecord
100
AcDbRegAppTableRecord
  2
ACAD_DSTYLE_DIMTALN
 70
     0
  0
APPID
  5
122D
330
8
100
AcDbSymbolTableRecord
100
AcDbRegAppTableRecord
  2
AcadStringInfo
 70
     0
  0
ENDTAB
  0
TABLE
  2
DIMSTYLE
  5
9
330
0
100
AcDbSymbolTable
 70
     1
100
AcDbDimStyleTable
 71
     0
  0
DIMSTYLE
105
18
330
9
100
AcDbSymbolTableRecord
100
AcDbDimStyleTableRecord
  2
STANDARD
 70
     0
340
17
  0
ENDTAB
  0
TABLE
  2
BLOCK_RECORD
  5
1
330
0
100
AcDbSymbolTable
 70
     0
  0
BLOCK_RECORD
  5
A
102
{ACAD_XDICTIONARY
360
767
102
}
330
1
100
AcDbSymbolTableRecord
100
AcDbBlockTableRecord
  2
*MODEL_SPACE
340
771
  0
BLOCK_RECORD
  5
B
102
{ACAD_XDICTIONARY
360
769
102
}
330
1
100
AcDbSymbolTableRecord
100
AcDbBlockTableRecord
  2
*PAPER_SPACE
340
772
  0
ENDTAB
  0
ENDSEC
  0
SECTION
  2
BLOCKS
  0
BLOCK
  5
D
330
A
100
AcDbEntity
  8
0
100
AcDbBlockBegin
  2
*MODEL_SPACE
 70
     0
 10
0.0
 20
0.0
 30
0.0
  3
*MODEL_SPACE
  1

  0
ENDBLK
  5
E
330
A
100
AcDbEntity
  8
0
100
AcDbBlockEnd
  0
BLOCK
  5
F
330
B
100
AcDbEntity
 67
     1
  8
0
100
AcDbBlockBegin
  2
*PAPER_SPACE
 70
     0
 10
0.0
 20
0.0
 30
0.0
  3
*PAPER_SPACE
  1

  0
ENDBLK
  5
10
330
B
100
AcDbEntity
 67
     1
  8
0
100
AcDbBlockEnd
  0
ENDSEC
  0
SECTION
  2
ENTITIES
  0
LINE
  5
A6
330
A
100
AcDbEntity
  8
002
100
AcDbLine
 10
89.10006857570342
 20
2.89995133895793
 30
0.0
 11
90.10006857570344
 21
2.89995133895793
 31
0.0
  0
LINE
  5
A5
330
A
100
AcDbEntity
  8
002
100
AcDbLine
 10
89.30006892204536
 20
2.979951997007609
 30
0.0
 11
89.30006892204536
 21
2.89995133895793
 31
0.0
  0
LINE
  5
A4
330
A
100
AcDbEntity
  8
002
100
AcDbLine
 10
89.20006874887439
 20
2.239957727997364
 30
0.0
 11
90.00006926838731
 21
2.239957727997364
 31
0.0
  0
LINE
  5
A3
330
A
100
AcDbEntity
  8
002
100
AcDbLine
 10
90.00006926838731
 20
2.239957727997364
 30
0.0
 11
90.00006926838731
 21
1.99995835141285
 31
0.0
  0
LINE
  5
A2
330
A
100
AcDbEntity
  8
002
100
AcDbLine
 10
89.20006874887439
 20
2.239957727997364
 30
0.0
 11
89.20006874887441
 21
1.99995835141285
 31
0.0
  0
LINE
  5
A1
330
A
100
AcDbEntity
  8
002
100
AcDbLine
 10
89.20006874887439
 20
2.199958697754786
 30
0.0
 11
90.00006926838731
 21
2.199958697754786
 31
0.0
  0
LINE
  5
A0
330
A
100
AcDbEntity
  8
002
100
AcDbLine
 10
89.20006874887439
 20
2.119957173850266
 30
0.0
 11
90.00006926838731
 21
2.119957173850266
 31
0.0
  0
LINE
  5
9F
330
A
100
AcDbEntity
  8
002
100
AcDbLine
 10
89.35506888741116
 20
2.079958143607688
 30
0.0
 11
90.00006926838731
 21
2.079958143607688
 31
0.0
  0
LINE
  5
9E
330
A
100
AcDbEntity
  8
002
100
AcDbLine
 10
89.20006874887443
 20
2.039957381655428
 30
0.0
 11
90.00006926838731
 21
2.039957381655428
 31
0.0
  0
LINE
  5
9D
330
A
100
AcDbEntity
  8
002
100
AcDbLine
 10
89.35506888741118
 20
2.239957727997364
 30
0.0
 11
89.35506888741118
 21
1.99995835141285
 31
0.0
  0
LINE
  5
9C
330
A
100
AcDbEntity
  8
002
100
AcDbLine
 10
89.35506888741116
 20
2.159957935802527
 30
0.0
 11
90.00006926838731
 21
2.159957935802527
 31
0.0
  0
TEXT
  5
26B
330
A
100
AcDbEntity
  8
002
  6
Continuous
100
AcDbText
 10
89.37657066068188
 20
2.16745797043672
 30
0.0
 40
0.024999993243562
  1
データ入力：Ｎｏｎ　ｓｔａｎｄａｒｄ（Ａｌｗａｙｓ－ｏｎ）
 41
0.7
100
AcDbText
  0
TEXT
  5
4D4
330
A
100
AcDbEntity
  8
002
  6
Continuous
100
AcDbText
 10
89.87437323149265
 20
2.85745171993406
 30
0.0
 40
0.024999993243562
  1
SC-IPEUP
 41
0.8
100
AcDbText
  0
TEXT
  5
4D5
330
A
100
AcDbEntity
  8
002
  6
Continuous
100
AcDbText
 10
89.35933786733865
 20
2.91995171993406
 30
0.0
 40
0.0399999901963199
  1
ＵＴＰ延長装置
 41
0.8
100
AcDbText
  0
TEXT
  5
4D7
330
A
100
AcDbEntity
  8
002
  6
Continuous
100
AcDbText
 10
89.37173486139398
 20
2.207457000679298
 30
0.0
 40
0.024999993243562
  1
１００Ｍｂｐｓ（Ｆｕｌｌ　Ｄｕｐｌｅｘ）
 41
0.8
100
AcDbText
  0
TEXT
  5
4D9
330
A
100
AcDbEntity
  8
002
  6
Continuous
100
AcDbText
 10
89.37618102600337
 20
2.12745720848446
 30
0.0
 40
0.024999993243562
  1
データ出力：ＩＥＥＥ８０２．３ａｆ／８０２．３ａｔ
 41
0.7
100
AcDbText
  0
TEXT
  5
4DA
330
A
100
AcDbEntity
  8
002
  6
Continuous
100
AcDbText
 10
89.2191954823158
 20
2.16745797043672
 30
0.0
 40
0.024999993243562
  1
ＰｏＥ規格
 41
0.8
100
AcDbText
  0
TEXT
  5
4DD
330
A
100
AcDbEntity
  8
002
  6
Continuous
100
AcDbText
 10
89.2191954823158
 20
2.207457000679298
 30
0.0
 40
0.024999993243562
  1
伝送帯域幅（最大）
 41
0.5
100
AcDbText
  0
TEXT
  5
67A
330
A
100
AcDbEntity
  8
002
  6
Continuous
100
AcDbText
 10
89.37618143309117
 20
2.087458199447514
 30
0.0
 40
0.024999993243562
  1
ＩＥＥＥ８０２．３ａｆ　Ｃｌａｓｓ　３　Ｐｏｗｅｒ　Ｄｅｖｉｃｅ
 41
0.65
100
AcDbText
  0
TEXT
  5
67B
330
A
100
AcDbEntity
  8
002
  6
Continuous
100
AcDbText
 10
89.37618143309117
 20
2.047455714648967
 30
0.0
 40
0.024999993243562
  1
（６．４９Ｗ～１２．９５Ｗ）
 41
0.7
100
AcDbText
  0
TEXT
  5
67D
330
A
100
AcDbEntity
  8
002
  6
Continuous
100
AcDbText
 10
89.21919599183686
 20
2.087457333593238
 30
0.0
 40
0.0249999769310372
  1
供給可能電力
 41
0.7
100
AcDbText
  0
LINE
  5
74E
330
A
100
AcDbEntity
  8
002
100
AcDbLine
 10
89.20006874887439
 20
1.99995835141285
 30
0.0
 11
90.00006926838731
 21
1.99995835141285
 31
0.0
  0
TEXT
  5
74F
330
A
100
AcDbEntity
  8
002
  6
Continuous
100
AcDbText
 10
89.37618143309117
 20
2.007456710505804
 30
0.0
 40
0.024999993243562
  1
１００ｍ＠ＣＡＴ．５
 41
0.7
100
AcDbText
  0
TEXT
  5
CAC
330
A
100
AcDbEntity
  8
002
  6
Continuous
100
AcDbText
 10
89.2191954823158
 20
2.007456654337361
 30
0.0
 40
0.0249999769310372
  1
最大延長距離
 41
0.7
100
AcDbText
  0
LINE
  5
16AE
330
A
100
AcDbEntity
  8
001
100
AcDbLine
 10
89.23776181177554
 20
2.960461503906528
 30
0.0
 11
89.23776181177554
 21
2.920461503906695
 31
0.0
  0
LINE
  5
16AF
330
A
100
AcDbEntity
  8
001
100
AcDbLine
 10
89.16919038320262
 20
2.960461503906528
 30
0.0
 11
89.16919038320262
 21
2.920461503906695
 31
0.0
  0
LINE
  5
16B0
330
A
100
AcDbEntity
  8
001
100
AcDbLine
 10
89.23776181177554
 20
2.920461503906695
 30
0.0
 11
89.16919038320262
 21
2.920461503906695
 31
0.0
  0
TEXT
  5
16B1
330
A
100
AcDbEntity
  8
001
100
AcDbText
 10
89.17909514511022
 20
2.925223408666438
 30
0.0
 40
0.0285714285714286
  1
ＵＰ
 41
0.8
 72
     4
 11
89.20347609749116
 21
2.940461503904533
 31
0.0
100
AcDbText
  0
LINE
  5
16B2
330
A
100
AcDbEntity
  8
001
100
AcDbLine
 10
89.16919038320262
 20
2.960461503906528
 30
0.0
 11
89.23776181177554
 21
2.960461503906528
 31
0.0
  0
LWPOLYLINE
  5
18E7
330
A
100
AcDbEntity
  8
001
100
AcDbPolyline
 90
        6
 70
     0
 43
0.0
 10
89.41328493870008
 20
2.537119057606219
 10
89.41328493870008
 20
2.533953779828441
 10
89.41328493870008
 20
2.533953779828441
 10
89.38695160536674
 20
2.533953779828441
 10
89.38695160536674
 20
2.533953779828441
 10
89.38695160536674
 20
2.537119057606219
  0
LWPOLYLINE
  5
18E8
330
A
100
AcDbEntity
  8
001
100
AcDbPolyline
 90
        6
 70
     0
 43
0.0
 10
89.41328493870008
 20
2.405452668717329
 10
89.41328493870008
 20
2.408786002050663
 10
89.41328493870008
 20
2.408786002050663
 10
89.38695160536674
 20
2.408786002050663
 10
89.38695160536674
 20
2.408786002050663
 10
89.38695160536674
 20
2.405452668717329
  0
LWPOLYLINE
  5
18E9
330
A
100
AcDbEntity
  8
001
100
AcDbPolyline
 90
        2
 70
     0
 43
0.0
 10
89.4246184109223
 20
2.537119057606219
 10
89.3456184109223
 20
2.537119057606219
  0
LWPOLYLINE
  5
18EA
330
A
100
AcDbEntity
  8
001
100
AcDbPolyline
 90
        2
 70
     0
 43
0.0
 10
89.4246184109223
 20
2.405452668717329
 10
89.3456184109223
 20
2.405452668717329
  0
LWPOLYLINE
  5
18EB
330
A
100
AcDbEntity
  8
001
100
AcDbPolyline
 90
        2
 70
     0
 43
0.0
 10
89.4246184109223
 20
2.402285585383995
 10
89.4246184109223
 20
2.540452252050663
  0
LWPOLYLINE
  5
18EC
330
A
100
AcDbEntity
  8
001
100
AcDbPolyline
 90
        6
 70
     0
 43
0.0
 10
89.4246184109223
 20
2.402285585383995
 10
89.3456184109223
 20
2.402285585383995
 10
89.3456184109223
 20
2.402285585383995
 10
89.3456184109223
 20
2.540452252050663
 10
89.3456184109223
 20
2.540452252050663
 10
89.4246184109223
 20
2.540452252050663
  0
LWPOLYLINE
  5
18ED
330
A
100
AcDbEntity
  8
001
100
AcDbPolyline
 90
        8
 70
     0
 43
0.0
 10
89.40611827203341
 20
2.497619474272885
 10
89.3616182720334
 20
2.497619474272885
 10
89.3616182720334
 20
2.497619474272885
 10
89.3616182720334
 20
2.444952807606219
 10
89.3616182720334
 20
2.444952807606219
 10
89.40611827203341
 20
2.444952807606219
 10
89.40611827203341
 20
2.444952807606219
 10
89.40611827203341
 20
2.497619474272885
  0
LWPOLYLINE
  5
18EE
330
A
100
AcDbEntity
  8
001
100
AcDbPolyline
 90
        2
 70
     0
 43
0.0
 10
89.34878493870007
 20
2.533953363161773
 10
89.34878493870007
 20
2.408786696495107
  0
LWPOLYLINE
  5
18EF
330
A
100
AcDbEntity
  8
001
100
AcDbPolyline
 90
        2
 70
     0
 43
0.0
 10
89.4277847998112
 20
2.540452946495107
 10
89.4277847998112
 20
2.402286279828441
  0
LWPOLYLINE
  5
18F0
330
A
100
AcDbEntity
  8
001
100
AcDbPolyline
 90
        4
 70
     0
 43
0.0
 10
89.36195160536675
 20
2.408786557606219
 10
89.36195160536675
 20
2.405453224272885
 10
89.36195160536675
 20
2.405453224272885
 10
89.35211827203341
 20
2.405453224272885
  0
LWPOLYLINE
  5
18F1
330
A
100
AcDbEntity
  8
001
100
AcDbPolyline
 90
        4
 70
     0
 43
0.0
 10
89.36861799425562
 20
2.405452668717329
 10
89.36861799425562
 20
2.408786002050663
 10
89.36861799425562
 20
2.408786002050663
 10
89.36195132758896
 20
2.408786002050663
  0
LWPOLYLINE
  5
18F2
330
A
100
AcDbEntity
  8
001
100
AcDbPolyline
 90
        8
 70
     0
 43
0.0
 10
89.36861799425562
 20
2.405452668717329
 10
89.40145132758898
 20
2.405452668717329
 10
89.40145132758898
 20
2.405452668717329
 10
89.40145132758898
 20
2.408786002050663
 10
89.40145132758898
 20
2.408786002050663
 10
89.40811799425564
 20
2.408786002050663
 10
89.40811799425564
 20
2.408786002050663
 10
89.40811799425564
 20
2.405452668717329
  0
LWPOLYLINE
  5
18F3
330
A
100
AcDbEntity
  8
001
100
AcDbPolyline
 90
        4
 70
     0
 43
0.0
 10
89.4246184109223
 20
2.405452668717329
 10
89.4246184109223
 20
2.402286002050662
 10
89.4246184109223
 20
2.402286002050662
 10
89.42778507758896
 20
2.402286002050662
  0
LWPOLYLINE
  5
18F4
330
A
100
AcDbEntity
  8
001
100
AcDbPolyline
 90
       11
 70
     0
 43
0.0
 10
89.34895174425562
 20
2.408869335383996
 10
89.34899425675563
 20
2.408342285383996
 10
89.34911734425563
 20
2.40784226871733
 10
89.34931433175563
 20
2.407375985383996
 10
89.34957854425563
 20
2.406950135383996
 10
89.34990330675564
 20
2.40657141871733
 10
89.35028194425564
 20
2.406246535383996
 10
89.35070778175562
 20
2.405982185383995
 10
89.35117414425564
 20
2.405785068717329
 10
89.35167435675564
 20
2.405661885383996
 10
89.35220174425564
 20
2.405619335383996
  0
LWPOLYLINE
  5
18F5
330
A
100
AcDbEntity
  8
001
100
AcDbPolyline
 90
        2
 70
     0
 43
0.0
 10
89.4277847998112
 20
2.405452668717329
 10
89.40811813314452
 20
2.405452668717329
  0
LWPOLYLINE
  5
18F6
330
A
100
AcDbEntity
  8
001
100
AcDbPolyline
 90
        2
 70
     0
 43
0.0
 10
89.36861799425562
 20
2.533953363161773
 10
89.36195132758896
 20
2.533953363161773
  0
LWPOLYLINE
  5
18F7
330
A
100
AcDbEntity
  8
001
100
AcDbPolyline
 90
        2
 70
     0
 43
0.0
 10
89.40145146647786
 20
2.537119057606219
 10
89.36861813314452
 20
2.537119057606219
  0
LWPOLYLINE
  5
18F8
330
A
100
AcDbEntity
  8
001
100
AcDbPolyline
 90
        2
 70
     0
 43
0.0
 10
89.36195160536675
 20
2.537119057606219
 10
89.35211827203341
 20
2.537119057606219
  0
LWPOLYLINE
  5
18F9
330
A
100
AcDbEntity
  8
001
100
AcDbPolyline
 90
        4
 70
     0
 43
0.0
 10
89.40811854981118
 20
2.537119057606219
 10
89.40811854981118
 20
2.533953779828441
 10
89.40811854981118
 20
2.533953779828441
 10
89.40145188314453
 20
2.533953779828441
  0
LWPOLYLINE
  5
18FA
330
A
100
AcDbEntity
  8
001
100
AcDbPolyline
 90
        2
 70
     0
 43
0.0
 10
89.36195160536675
 20
2.537119057606219
 10
89.36195160536675
 20
2.533953779828441
  0
LWPOLYLINE
  5
18FB
330
A
100
AcDbEntity
  8
001
100
AcDbPolyline
 90
        2
 70
     0
 43
0.0
 10
89.40145146647786
 20
2.537119057606219
 10
89.40145146647786
 20
2.533953779828441
  0
LWPOLYLINE
  5
18FC
330
A
100
AcDbEntity
  8
001
100
AcDbPolyline
 90
        2
 70
     0
 43
0.0
 10
89.36861799425562
 20
2.537119057606219
 10
89.36861799425562
 20
2.533953779828441
  0
LWPOLYLINE
  5
18FD
330
A
100
AcDbEntity
  8
001
100
AcDbPolyline
 90
        4
 70
     0
 43
0.0
 10
89.4246184109223
 20
2.537119057606219
 10
89.4246184109223
 20
2.540452390939551
 10
89.4246184109223
 20
2.540452390939551
 10
89.42778507758896
 20
2.540452390939551
  0
LWPOLYLINE
  5
18FE
330
A
100
AcDbEntity
  8
001
100
AcDbPolyline
 90
       11
 70
     0
 43
0.0
 10
89.35220160536674
 20
2.537285863161773
 10
89.35167455536674
 20
2.537243313161773
 10
89.35117453870008
 20
2.537120129828441
 10
89.35070825536675
 20
2.536923013161774
 10
89.35028240536674
 20
2.536658663161774
 10
89.34990368870009
 20
2.53633377982844
 10
89.34957880536675
 20
2.535955063161773
 10
89.34931445536674
 20
2.535529213161773
 10
89.34911733870007
 20
2.53506292982844
 10
89.34899415536674
 20
2.534562913161773
 10
89.34895160536674
 20
2.534035863161774
  0
LWPOLYLINE
  5
18FF
330
A
100
AcDbEntity
  8
001
100
AcDbPolyline
 90
        2
 70
     0
 43
0.0
 10
89.4277847998112
 20
2.537119057606219
 10
89.40811813314452
 20
2.537119057606219
  0
LWPOLYLINE
  5
1900
330
A
100
AcDbEntity
  8
001
100
AcDbPolyline
 90
        8
 70
     0
 43
0.0
 10
89.40611827203341
 20
2.497619474272885
 10
89.3616182720334
 20
2.497619474272885
 10
89.3616182720334
 20
2.497619474272885
 10
89.3616182720334
 20
2.444952807606219
 10
89.3616182720334
 20
2.444952807606219
 10
89.40611827203341
 20
2.444952807606219
 10
89.40611827203341
 20
2.444952807606219
 10
89.40611827203341
 20
2.497619474272885
  0
LWPOLYLINE
  5
1901
330
A
100
AcDbEntity
  8
001
100
AcDbPolyline
 90
        4
 70
     0
 43
0.0
 10
89.4277847998112
 20
2.50428627982844
 10
89.4277847998112
 20
2.528952946495107
 10
89.4277847998112
 20
2.528952946495107
 10
89.4277847998112
 20
2.456619613161774
  0
LWPOLYLINE
  5
1902
330
A
100
AcDbEntity
  8
001
100
AcDbPolyline
 90
        6
 70
     0
 43
0.0
 10
89.80264967716975
 20
2.537119057606219
 10
89.80264967716975
 20
2.533953779828441
 10
89.80264967716975
 20
2.533953779828441
 10
89.8289830105031
 20
2.533953779828441
 10
89.8289830105031
 20
2.533953779828441
 10
89.8289830105031
 20
2.537119057606219
  0
LWPOLYLINE
  5
1903
330
A
100
AcDbEntity
  8
001
100
AcDbPolyline
 90
        6
 70
     0
 43
0.0
 10
89.80264967716975
 20
2.405452668717329
 10
89.80264967716975
 20
2.408786002050663
 10
89.80264967716975
 20
2.408786002050663
 10
89.8289830105031
 20
2.408786002050663
 10
89.8289830105031
 20
2.408786002050663
 10
89.8289830105031
 20
2.405452668717329
  0
LWPOLYLINE
  5
1904
330
A
100
AcDbEntity
  8
001
100
AcDbPolyline
 90
        2
 70
     0
 43
0.0
 10
89.79148301050308
 20
2.537119057606219
 10
89.87048301050309
 20
2.537119057606219
  0
LWPOLYLINE
  5
1905
330
A
100
AcDbEntity
  8
001
100
AcDbPolyline
 90
        2
 70
     0
 43
0.0
 10
89.79148301050308
 20
2.405452668717329
 10
89.87048301050309
 20
2.405452668717329
  0
LWPOLYLINE
  5
1906
330
A
100
AcDbEntity
  8
001
100
AcDbPolyline
 90
        2
 70
     0
 43
0.0
 10
89.86714898272531
 20
2.405452668717329
 10
89.86714898272531
 20
2.406286002050663
  0
LWPOLYLINE
  5
1907
330
A
100
AcDbEntity
  8
001
100
AcDbPolyline
 90
        2
 70
     0
 43
0.0
 10
89.86714898272531
 20
2.406786002050663
 10
89.86714898272531
 20
2.407620724272885
  0
LWPOLYLINE
  5
1908
330
A
100
AcDbEntity
  8
001
100
AcDbPolyline
 90
        2
 70
     0
 43
0.0
 10
89.86714898272531
 20
2.407952390939552
 10
89.86714898272531
 20
2.408787113161773
  0
LWPOLYLINE
  5
1909
330
A
100
AcDbEntity
  8
001
100
AcDbPolyline
 90
        2
 70
     0
 43
0.0
 10
89.86714898272531
 20
2.409285724272884
 10
89.86714898272531
 20
2.410120446495107
  0
LWPOLYLINE
  5
190A
330
A
100
AcDbEntity
  8
001
100
AcDbPolyline
 90
        2
 70
     0
 43
0.0
 10
89.86714898272531
 20
2.410452113161773
 10
89.86714898272531
 20
2.411286835383996
  0
LWPOLYLINE
  5
190B
330
A
100
AcDbEntity
  8
001
100
AcDbPolyline
 90
        2
 70
     0
 43
0.0
 10
89.86714898272531
 20
2.411620029828441
 10
89.86714898272531
 20
2.412453363161774
  0
LWPOLYLINE
  5
190C
330
A
100
AcDbEntity
  8
001
100
AcDbPolyline
 90
        2
 70
     0
 43
0.0
 10
89.86714898272531
 20
2.412953224272885
 10
89.86714898272531
 20
2.413786557606218
  0
LWPOLYLINE
  5
190D
330
A
100
AcDbEntity
  8
001
100
AcDbPolyline
 90
        2
 70
     0
 43
0.0
 10
89.86714898272531
 20
2.414119752050662
 10
89.86714898272531
 20
2.414953085383996
  0
LWPOLYLINE
  5
190E
330
A
100
AcDbEntity
  8
001
100
AcDbPolyline
 90
        2
 70
     0
 43
0.0
 10
89.86714898272531
 20
2.415452946495107
 10
89.86714898272531
 20
2.416286279828441
  0
LWPOLYLINE
  5
190F
330
A
100
AcDbEntity
  8
001
100
AcDbPolyline
 90
        2
 70
     0
 43
0.0
 10
89.86714898272531
 20
2.416619474272885
 10
89.86714898272531
 20
2.417452807606219
  0
LWPOLYLINE
  5
1910
330
A
100
AcDbEntity
  8
001
100
AcDbPolyline
 90
        2
 70
     0
 43
0.0
 10
89.86714898272531
 20
2.417785863161773
 10
89.86714898272531
 20
2.418620585383996
  0
LWPOLYLINE
  5
1911
330
A
100
AcDbEntity
  8
001
100
AcDbPolyline
 90
        2
 70
     0
 43
0.0
 10
89.86714898272531
 20
2.419119196495107
 10
89.86714898272531
 20
2.41995391871733
  0
LWPOLYLINE
  5
1912
330
A
100
AcDbEntity
  8
001
100
AcDbPolyline
 90
        2
 70
     0
 43
0.0
 10
89.86714898272531
 20
2.420285585383996
 10
89.86714898272531
 20
2.421120307606218
  0
LWPOLYLINE
  5
1913
330
A
100
AcDbEntity
  8
001
100
AcDbPolyline
 90
        2
 70
     0
 43
0.0
 10
89.86714898272531
 20
2.42161891871733
 10
89.86714898272531
 20
2.422453640939552
  0
LWPOLYLINE
  5
1914
330
A
100
AcDbEntity
  8
001
100
AcDbPolyline
 90
        2
 70
     0
 43
0.0
 10
89.86714898272531
 20
2.422786696495107
 10
89.86714898272531
 20
2.423620029828441
  0
LWPOLYLINE
  5
1915
330
A
100
AcDbEntity
  8
001
100
AcDbPolyline
 90
        2
 70
     0
 43
0.0
 10
89.86714898272531
 20
2.42412002982844
 10
89.86714898272531
 20
2.424785307606219
  0
LWPOLYLINE
  5
1916
330
A
100
AcDbEntity
  8
001
100
AcDbPolyline
 90
        2
 70
     0
 43
0.0
 10
89.86714898272531
 20
2.425286418717329
 10
89.86714898272531
 20
2.426119752050662
  0
LWPOLYLINE
  5
1917
330
A
100
AcDbEntity
  8
001
100
AcDbPolyline
 90
        2
 70
     0
 43
0.0
 10
89.86714898272531
 20
2.426452807606219
 10
89.86714898272531
 20
2.427286140939552
  0
LWPOLYLINE
  5
1918
330
A
100
AcDbEntity
  8
001
100
AcDbPolyline
 90
        2
 70
     0
 43
0.0
 10
89.86714898272531
 20
2.427786140939552
 10
89.86714898272531
 20
2.428619474272885
  0
LWPOLYLINE
  5
1919
330
A
100
AcDbEntity
  8
001
100
AcDbPolyline
 90
        2
 70
     0
 43
0.0
 10
89.86714898272531
 20
2.428952529828441
 10
89.86714898272531
 20
2.429787252050663
  0
LWPOLYLINE
  5
191A
330
A
100
AcDbEntity
  8
001
100
AcDbPolyline
 90
        2
 70
     0
 43
0.0
 10
89.86714898272531
 20
2.430285863161774
 10
89.86714898272531
 20
2.430952529828441
  0
LWPOLYLINE
  5
191B
330
A
100
AcDbEntity
  8
001
100
AcDbPolyline
 90
        2
 70
     0
 43
0.0
 10
89.86714898272531
 20
2.431452252050663
 10
89.86714898272531
 20
2.432286974272884
  0
LWPOLYLINE
  5
191C
330
A
100
AcDbEntity
  8
001
100
AcDbPolyline
 90
        2
 70
     0
 43
0.0
 10
89.86714898272531
 20
2.432620168717329
 10
89.86714898272531
 20
2.433453502050663
  0
LWPOLYLINE
  5
191D
330
A
100
AcDbEntity
  8
001
100
AcDbPolyline
 90
        2
 70
     0
 43
0.0
 10
89.86714898272531
 20
2.433953363161774
 10
89.86714898272531
 20
2.434786696495107
  0
LWPOLYLINE
  5
191E
330
A
100
AcDbEntity
  8
001
100
AcDbPolyline
 90
        2
 70
     0
 43
0.0
 10
89.86714898272531
 20
2.435119890939552
 10
89.86714898272531
 20
2.435953224272885
  0
LWPOLYLINE
  5
191F
330
A
100
AcDbEntity
  8
001
100
AcDbPolyline
 90
        2
 70
     0
 43
0.0
 10
89.86714898272531
 20
2.436453085383996
 10
89.86714898272531
 20
2.437286418717329
  0
LWPOLYLINE
  5
1920
330
A
100
AcDbEntity
  8
001
100
AcDbPolyline
 90
        2
 70
     0
 43
0.0
 10
89.86714898272531
 20
2.437619613161774
 10
89.86714898272531
 20
2.438452946495107
  0
LWPOLYLINE
  5
1921
330
A
100
AcDbEntity
  8
001
100
AcDbPolyline
 90
        2
 70
     0
 43
0.0
 10
89.86714898272531
 20
2.438786002050663
 10
89.86714898272531
 20
2.439619335383996
  0
LWPOLYLINE
  5
1922
330
A
100
AcDbEntity
  8
001
100
AcDbPolyline
 90
        2
 70
     0
 43
0.0
 10
89.86714898272531
 20
2.440119335383996
 10
89.86714898272531
 20
2.440954057606218
  0
LWPOLYLINE
  5
1923
330
A
100
AcDbEntity
  8
001
100
AcDbPolyline
 90
        2
 70
     0
 43
0.0
 10
89.86714898272531
 20
2.441285724272884
 10
89.86714898272531
 20
2.442120446495107
  0
LWPOLYLINE
  5
1924
330
A
100
AcDbEntity
  8
001
100
AcDbPolyline
 90
        2
 70
     0
 43
0.0
 10
89.86714898272531
 20
2.442619057606219
 10
89.86714898272531
 20
2.443453779828441
  0
LWPOLYLINE
  5
1925
330
A
100
AcDbEntity
  8
001
100
AcDbPolyline
 90
        2
 70
     0
 43
0.0
 10
89.86714898272531
 20
2.443785446495107
 10
89.86714898272531
 20
2.44462016871733
  0
LWPOLYLINE
  5
1926
330
A
100
AcDbEntity
  8
001
100
AcDbPolyline
 90
        2
 70
     0
 43
0.0
 10
89.86714898272531
 20
2.444953363161774
 10
89.86714898272531
 20
2.445786696495106
  0
LWPOLYLINE
  5
1927
330
A
100
AcDbEntity
  8
001
100
AcDbPolyline
 90
        2
 70
     0
 43
0.0
 10
89.86714898272531
 20
2.446286557606219
 10
89.86714898272531
 20
2.447119890939552
  0
LWPOLYLINE
  5
1928
330
A
100
AcDbEntity
  8
001
100
AcDbPolyline
 90
        2
 70
     0
 43
0.0
 10
89.86714898272531
 20
2.447453085383996
 10
89.86714898272531
 20
2.44828641871733
  0
LWPOLYLINE
  5
1929
330
A
100
AcDbEntity
  8
001
100
AcDbPolyline
 90
        2
 70
     0
 43
0.0
 10
89.86714898272531
 20
2.44878627982844
 10
89.86714898272531
 20
2.449619613161774
  0
LWPOLYLINE
  5
192A
330
A
100
AcDbEntity
  8
001
100
AcDbPolyline
 90
        2
 70
     0
 43
0.0
 10
89.86714898272531
 20
2.449952807606218
 10
89.86714898272531
 20
2.450786140939552
  0
LWPOLYLINE
  5
192B
330
A
100
AcDbEntity
  8
001
100
AcDbPolyline
 90
        2
 70
     0
 43
0.0
 10
89.86714898272531
 20
2.451119196495107
 10
89.86714898272531
 20
2.45195391871733
  0
LWPOLYLINE
  5
192C
330
A
100
AcDbEntity
  8
001
100
AcDbPolyline
 90
        2
 70
     0
 43
0.0
 10
89.86714898272531
 20
2.452452529828441
 10
89.86714898272531
 20
2.453287252050663
  0
LWPOLYLINE
  5
192D
330
A
100
AcDbEntity
  8
001
100
AcDbPolyline
 90
        2
 70
     0
 43
0.0
 10
89.86714898272531
 20
2.45361891871733
 10
89.86714898272531
 20
2.454453640939552
  0
LWPOLYLINE
  5
192E
330
A
100
AcDbEntity
  8
001
100
AcDbPolyline
 90
        2
 70
     0
 43
0.0
 10
89.86714898272531
 20
2.454952252050663
 10
89.86714898272531
 20
2.455786974272885
  0
LWPOLYLINE
  5
192F
330
A
100
AcDbEntity
  8
001
100
AcDbPolyline
 90
        2
 70
     0
 43
0.0
 10
89.86714898272531
 20
2.456120029828441
 10
89.86714898272531
 20
2.456953363161773
  0
LWPOLYLINE
  5
1930
330
A
100
AcDbEntity
  8
001
100
AcDbPolyline
 90
        2
 70
     0
 43
0.0
 10
89.86714898272531
 20
2.45728641871733
 10
89.86714898272531
 20
2.458119752050663
  0
LWPOLYLINE
  5
1931
330
A
100
AcDbEntity
  8
001
100
AcDbPolyline
 90
        2
 70
     0
 43
0.0
 10
89.86714898272531
 20
2.458619752050663
 10
89.86714898272531
 20
2.459453085383996
  0
LWPOLYLINE
  5
1932
330
A
100
AcDbEntity
  8
001
100
AcDbPolyline
 90
        2
 70
     0
 43
0.0
 10
89.86714898272531
 20
2.459786140939552
 10
89.86714898272531
 20
2.460619474272885
  0
LWPOLYLINE
  5
1933
330
A
100
AcDbEntity
  8
001
100
AcDbPolyline
 90
        2
 70
     0
 43
0.0
 10
89.86714898272531
 20
2.461119474272885
 10
89.86714898272531
 20
2.461952807606219
  0
LWPOLYLINE
  5
1934
330
A
100
AcDbEntity
  8
001
100
AcDbPolyline
 90
        2
 70
     0
 43
0.0
 10
89.86714898272531
 20
2.462285863161774
 10
89.86714898272531
 20
2.463120585383996
  0
LWPOLYLINE
  5
1935
330
A
100
AcDbEntity
  8
001
100
AcDbPolyline
 90
        2
 70
     0
 43
0.0
 10
89.86714898272531
 20
2.463619196495107
 10
89.86714898272531
 20
2.464285863161774
  0
LWPOLYLINE
  5
1936
330
A
100
AcDbEntity
  8
001
100
AcDbPolyline
 90
        2
 70
     0
 43
0.0
 10
89.86714898272531
 20
2.464785585383996
 10
89.86714898272531
 20
2.465620307606219
  0
LWPOLYLINE
  5
1937
330
A
100
AcDbEntity
  8
001
100
AcDbPolyline
 90
        2
 70
     0
 43
0.0
 10
89.86714898272531
 20
2.465953502050663
 10
89.86714898272531
 20
2.466786835383996
  0
LWPOLYLINE
  5
1938
330
A
100
AcDbEntity
  8
001
100
AcDbPolyline
 90
        2
 70
     0
 43
0.0
 10
89.86714898272531
 20
2.467286696495107
 10
89.86714898272531
 20
2.46812002982844
  0
LWPOLYLINE
  5
1939
330
A
100
AcDbEntity
  8
001
100
AcDbPolyline
 90
        2
 70
     0
 43
0.0
 10
89.86714898272531
 20
2.468453224272884
 10
89.86714898272531
 20
2.469286557606219
  0
LWPOLYLINE
  5
193A
330
A
100
AcDbEntity
  8
001
100
AcDbPolyline
 90
        2
 70
     0
 43
0.0
 10
89.86714898272531
 20
2.46978641871733
 10
89.86714898272531
 20
2.470619752050663
  0
LWPOLYLINE
  5
193B
330
A
100
AcDbEntity
  8
001
100
AcDbPolyline
 90
        2
 70
     0
 43
0.0
 10
89.86714898272531
 20
2.470952946495107
 10
89.86714898272531
 20
2.471786279828441
  0
LWPOLYLINE
  5
193C
330
A
100
AcDbEntity
  8
001
100
AcDbPolyline
 90
        2
 70
     0
 43
0.0
 10
89.86714898272531
 20
2.472119335383996
 10
89.86714898272531
 20
2.47295266871733
  0
LWPOLYLINE
  5
193D
330
A
100
AcDbEntity
  8
001
100
AcDbPolyline
 90
        2
 70
     0
 43
0.0
 10
89.86714898272531
 20
2.473452668717329
 10
89.86714898272531
 20
2.474287390939552
  0
LWPOLYLINE
  5
193E
330
A
100
AcDbEntity
  8
001
100
AcDbPolyline
 90
        2
 70
     0
 43
0.0
 10
89.86714898272531
 20
2.474619057606219
 10
89.86714898272531
 20
2.47545377982844
  0
LWPOLYLINE
  5
193F
330
A
100
AcDbEntity
  8
001
100
AcDbPolyline
 90
        2
 70
     0
 43
0.0
 10
89.86714898272531
 20
2.475952390939552
 10
89.86714898272531
 20
2.476787113161774
  0
LWPOLYLINE
  5
1940
330
A
100
AcDbEntity
  8
001
100
AcDbPolyline
 90
        2
 70
     0
 43
0.0
 10
89.86714898272531
 20
2.47711877982844
 10
89.86714898272531
 20
2.477953502050663
  0
LWPOLYLINE
  5
1941
330
A
100
AcDbEntity
  8
001
100
AcDbPolyline
 90
        2
 70
     0
 43
0.0
 10
89.86714898272531
 20
2.478286696495107
 10
89.86714898272531
 20
2.479120029828441
  0
LWPOLYLINE
  5
1942
330
A
100
AcDbEntity
  8
001
100
AcDbPolyline
 90
        2
 70
     0
 43
0.0
 10
89.86714898272531
 20
2.479619890939551
 10
89.86714898272531
 20
2.480453224272885
  0
LWPOLYLINE
  5
1943
330
A
100
AcDbEntity
  8
001
100
AcDbPolyline
 90
        2
 70
     0
 43
0.0
 10
89.86714898272531
 20
2.48078641871733
 10
89.86714898272531
 20
2.481619752050662
  0
LWPOLYLINE
  5
1944
330
A
100
AcDbEntity
  8
001
100
AcDbPolyline
 90
        2
 70
     0
 43
0.0
 10
89.86714898272531
 20
2.482119613161774
 10
89.86714898272531
 20
2.482952946495107
  0
LWPOLYLINE
  5
1945
330
A
100
AcDbEntity
  8
001
100
AcDbPolyline
 90
        2
 70
     0
 43
0.0
 10
89.86714898272531
 20
2.483286140939552
 10
89.86714898272531
 20
2.484119474272885
  0
LWPOLYLINE
  5
1946
330
A
100
AcDbEntity
  8
001
100
AcDbPolyline
 90
        2
 70
     0
 43
0.0
 10
89.86714898272531
 20
2.484452529828441
 10
89.86714898272531
 20
2.485287252050663
  0
LWPOLYLINE
  5
1947
330
A
100
AcDbEntity
  8
001
100
AcDbPolyline
 90
        2
 70
     0
 43
0.0
 10
89.86714898272531
 20
2.485785863161773
 10
89.86714898272531
 20
2.486620585383996
  0
LWPOLYLINE
  5
1948
330
A
100
AcDbEntity
  8
001
100
AcDbPolyline
 90
        2
 70
     0
 43
0.0
 10
89.86714898272531
 20
2.486952252050663
 10
89.86714898272531
 20
2.487786974272885
  0
LWPOLYLINE
  5
1949
330
A
100
AcDbEntity
  8
001
100
AcDbPolyline
 90
        2
 70
     0
 43
0.0
 10
89.86714898272531
 20
2.488285585383996
 10
89.86714898272531
 20
2.489120307606219
  0
LWPOLYLINE
  5
194A
330
A
100
AcDbEntity
  8
001
100
AcDbPolyline
 90
        2
 70
     0
 43
0.0
 10
89.86714898272531
 20
2.489453363161774
 10
89.86714898272531
 20
2.490286696495107
  0
LWPOLYLINE
  5
194B
330
A
100
AcDbEntity
  8
001
100
AcDbPolyline
 90
        2
 70
     0
 43
0.0
 10
89.86714898272531
 20
2.490619752050663
 10
89.86714898272531
 20
2.491453085383996
  0
LWPOLYLINE
  5
194C
330
A
100
AcDbEntity
  8
001
100
AcDbPolyline
 90
        2
 70
     0
 43
0.0
 10
89.86714898272531
 20
2.491953085383996
 10
89.86714898272531
 20
2.492786418717329
  0
LWPOLYLINE
  5
194D
330
A
100
AcDbEntity
  8
001
100
AcDbPolyline
 90
        2
 70
     0
 43
0.0
 10
89.86714898272531
 20
2.493119474272885
 10
89.86714898272531
 20
2.493952807606218
  0
LWPOLYLINE
  5
194E
330
A
100
AcDbEntity
  8
001
100
AcDbPolyline
 90
        2
 70
     0
 43
0.0
 10
89.86714898272531
 20
2.494452807606219
 10
89.86714898272531
 20
2.495286140939552
  0
LWPOLYLINE
  5
194F
330
A
100
AcDbEntity
  8
001
100
AcDbPolyline
 90
        2
 70
     0
 43
0.0
 10
89.86714898272531
 20
2.495619196495106
 10
89.86714898272531
 20
2.49645391871733
  0
LWPOLYLINE
  5
1950
330
A
100
AcDbEntity
  8
001
100
AcDbPolyline
 90
        2
 70
     0
 43
0.0
 10
89.86714898272531
 20
2.49695252982844
 10
89.86714898272531
 20
2.497619196495107
  0
LWPOLYLINE
  5
1951
330
A
100
AcDbEntity
  8
001
100
AcDbPolyline
 90
        2
 70
     0
 43
0.0
 10
89.86714898272531
 20
2.49811891871733
 10
89.86714898272531
 20
2.498953640939552
  0
LWPOLYLINE
  5
1952
330
A
100
AcDbEntity
  8
001
100
AcDbPolyline
 90
        2
 70
     0
 43
0.0
 10
89.86714898272531
 20
2.499286835383996
 10
89.86714898272531
 20
2.50012016871733
  0
LWPOLYLINE
  5
1953
330
A
100
AcDbEntity
  8
001
100
AcDbPolyline
 90
        2
 70
     0
 43
0.0
 10
89.86714898272531
 20
2.500620029828441
 10
89.86714898272531
 20
2.501453363161774
  0
LWPOLYLINE
  5
1954
330
A
100
AcDbEntity
  8
001
100
AcDbPolyline
 90
        2
 70
     0
 43
0.0
 10
89.86714898272531
 20
2.501786557606219
 10
89.86714898272531
 20
2.502619890939552
  0
LWPOLYLINE
  5
1955
330
A
100
AcDbEntity
  8
001
100
AcDbPolyline
 90
        2
 70
     0
 43
0.0
 10
89.86714898272531
 20
2.503119752050662
 10
89.86714898272531
 20
2.503953085383995
  0
LWPOLYLINE
  5
1956
330
A
100
AcDbEntity
  8
001
100
AcDbPolyline
 90
        2
 70
     0
 43
0.0
 10
89.86714898272531
 20
2.50428627982844
 10
89.86714898272531
 20
2.505119613161774
  0
LWPOLYLINE
  5
1957
330
A
100
AcDbEntity
  8
001
100
AcDbPolyline
 90
        2
 70
     0
 43
0.0
 10
89.86714898272531
 20
2.505452668717329
 10
89.86714898272531
 20
2.506286002050662
  0
LWPOLYLINE
  5
1958
330
A
100
AcDbEntity
  8
001
100
AcDbPolyline
 90
        2
 70
     0
 43
0.0
 10
89.86714898272531
 20
2.506786002050663
 10
89.86714898272531
 20
2.507620724272885
  0
LWPOLYLINE
  5
1959
330
A
100
AcDbEntity
  8
001
100
AcDbPolyline
 90
        2
 70
     0
 43
0.0
 10
89.86714898272531
 20
2.507952390939552
 10
89.86714898272531
 20
2.508787113161774
  0
LWPOLYLINE
  5
195A
330
A
100
AcDbEntity
  8
001
100
AcDbPolyline
 90
        2
 70
     0
 43
0.0
 10
89.86714898272531
 20
2.509285724272884
 10
89.86714898272531
 20
2.510120446495107
  0
LWPOLYLINE
  5
195B
330
A
100
AcDbEntity
  8
001
100
AcDbPolyline
 90
        2
 70
     0
 43
0.0
 10
89.86714898272531
 20
2.510452113161774
 10
89.86714898272531
 20
2.511286835383995
  0
LWPOLYLINE
  5
195C
330
A
100
AcDbEntity
  8
001
100
AcDbPolyline
 90
        2
 70
     0
 43
0.0
 10
89.86714898272531
 20
2.511620029828441
 10
89.86714898272531
 20
2.512453363161774
  0
LWPOLYLINE
  5
195D
330
A
100
AcDbEntity
  8
001
100
AcDbPolyline
 90
        2
 70
     0
 43
0.0
 10
89.86714898272531
 20
2.512953224272885
 10
89.86714898272531
 20
2.513786557606219
  0
LWPOLYLINE
  5
195E
330
A
100
AcDbEntity
  8
001
100
AcDbPolyline
 90
        2
 70
     0
 43
0.0
 10
89.86714898272531
 20
2.514119752050663
 10
89.86714898272531
 20
2.514953085383996
  0
LWPOLYLINE
  5
195F
330
A
100
AcDbEntity
  8
001
100
AcDbPolyline
 90
        2
 70
     0
 43
0.0
 10
89.86714898272531
 20
2.515452946495106
 10
89.86714898272531
 20
2.516286279828441
  0
LWPOLYLINE
  5
1960
330
A
100
AcDbEntity
  8
001
100
AcDbPolyline
 90
        2
 70
     0
 43
0.0
 10
89.86714898272531
 20
2.516619474272885
 10
89.86714898272531
 20
2.517452807606219
  0
LWPOLYLINE
  5
1961
330
A
100
AcDbEntity
  8
001
100
AcDbPolyline
 90
        2
 70
     0
 43
0.0
 10
89.86714898272531
 20
2.517785863161773
 10
89.86714898272531
 20
2.518620585383996
  0
LWPOLYLINE
  5
1962
330
A
100
AcDbEntity
  8
001
100
AcDbPolyline
 90
        2
 70
     0
 43
0.0
 10
89.86714898272531
 20
2.519119196495107
 10
89.86714898272531
 20
2.519953918717329
  0
LWPOLYLINE
  5
1963
330
A
100
AcDbEntity
  8
001
100
AcDbPolyline
 90
        2
 70
     0
 43
0.0
 10
89.86714898272531
 20
2.520285585383996
 10
89.86714898272531
 20
2.521120307606218
  0
LWPOLYLINE
  5
1964
330
A
100
AcDbEntity
  8
001
100
AcDbPolyline
 90
        2
 70
     0
 43
0.0
 10
89.86714898272531
 20
2.521618918717329
 10
89.86714898272531
 20
2.522453640939552
  0
LWPOLYLINE
  5
1965
330
A
100
AcDbEntity
  8
001
100
AcDbPolyline
 90
        2
 70
     0
 43
0.0
 10
89.86714898272531
 20
2.522786696495106
 10
89.86714898272531
 20
2.523620029828441
  0
LWPOLYLINE
  5
1966
330
A
100
AcDbEntity
  8
001
100
AcDbPolyline
 90
        2
 70
     0
 43
0.0
 10
89.86714898272531
 20
2.523953085383995
 10
89.86714898272531
 20
2.524786418717329
  0
LWPOLYLINE
  5
1967
330
A
100
AcDbEntity
  8
001
100
AcDbPolyline
 90
        2
 70
     0
 43
0.0
 10
89.86714898272531
 20
2.52528641871733
 10
89.86714898272531
 20
2.526119752050663
  0
LWPOLYLINE
  5
1968
330
A
100
AcDbEntity
  8
001
100
AcDbPolyline
 90
        2
 70
     0
 43
0.0
 10
89.86714898272531
 20
2.526452807606219
 10
89.86714898272531
 20
2.527286140939552
  0
LWPOLYLINE
  5
1969
330
A
100
AcDbEntity
  8
001
100
AcDbPolyline
 90
        2
 70
     0
 43
0.0
 10
89.86714898272531
 20
2.527786140939552
 10
89.86714898272531
 20
2.528619474272884
  0
LWPOLYLINE
  5
196A
330
A
100
AcDbEntity
  8
001
100
AcDbPolyline
 90
        2
 70
     0
 43
0.0
 10
89.86714898272531
 20
2.52895252982844
 10
89.86714898272531
 20
2.529787252050663
  0
LWPOLYLINE
  5
196B
330
A
100
AcDbEntity
  8
001
100
AcDbPolyline
 90
        2
 70
     0
 43
0.0
 10
89.86714898272531
 20
2.530285863161774
 10
89.86714898272531
 20
2.530952529828441
  0
LWPOLYLINE
  5
196C
330
A
100
AcDbEntity
  8
001
100
AcDbPolyline
 90
        2
 70
     0
 43
0.0
 10
89.86714898272531
 20
2.531452252050663
 10
89.86714898272531
 20
2.532286974272885
  0
LWPOLYLINE
  5
196D
330
A
100
AcDbEntity
  8
001
100
AcDbPolyline
 90
        2
 70
     0
 43
0.0
 10
89.86714898272531
 20
2.532620168717329
 10
89.86714898272531
 20
2.533453502050662
  0
LWPOLYLINE
  5
196E
330
A
100
AcDbEntity
  8
001
100
AcDbPolyline
 90
        2
 70
     0
 43
0.0
 10
89.86714898272531
 20
2.533953363161773
 10
89.86714898272531
 20
2.534786696495107
  0
LWPOLYLINE
  5
196F
330
A
100
AcDbEntity
  8
001
100
AcDbPolyline
 90
        2
 70
     0
 43
0.0
 10
89.86714898272531
 20
2.535119890939552
 10
89.86714898272531
 20
2.535953224272885
  0
LWPOLYLINE
  5
1970
330
A
100
AcDbEntity
  8
001
100
AcDbPolyline
 90
        2
 70
     0
 43
0.0
 10
89.86714898272531
 20
2.536453085383996
 10
89.86714898272531
 20
2.537118363161773
  0
LWPOLYLINE
  5
1971
330
A
100
AcDbEntity
  8
001
100
AcDbPolyline
 90
        2
 70
     0
 43
0.0
 10
89.79148301050308
 20
2.402285585383995
 10
89.79148301050308
 20
2.540452252050663
  0
LWPOLYLINE
  5
1972
330
A
100
AcDbEntity
  8
001
100
AcDbPolyline
 90
        6
 70
     0
 43
0.0
 10
89.79148301050308
 20
2.402285585383995
 10
89.87048301050309
 20
2.402285585383995
 10
89.87048301050309
 20
2.402285585383995
 10
89.87048301050309
 20
2.540452252050663
 10
89.87048301050309
 20
2.540452252050663
 10
89.79148301050308
 20
2.540452252050663
  0
LWPOLYLINE
  5
1973
330
A
100
AcDbEntity
  8
001
100
AcDbPolyline
 90
        2
 70
     0
 43
0.0
 10
89.86714898272531
 20
2.533953363161773
 10
89.86714898272531
 20
2.408786696495107
  0
LWPOLYLINE
  5
1974
330
A
100
AcDbEntity
  8
001
100
AcDbPolyline
 90
        2
 70
     0
 43
0.0
 10
89.7881491216142
 20
2.540452946495107
 10
89.7881491216142
 20
2.402286279828441
  0
LWPOLYLINE
  5
1975
330
A
100
AcDbEntity
  8
001
100
AcDbPolyline
 90
        4
 70
     0
 43
0.0
 10
89.85398301050308
 20
2.408786557606219
 10
89.85398301050308
 20
2.405453224272885
 10
89.85398301050308
 20
2.405453224272885
 10
89.86381634383642
 20
2.405453224272885
  0
LWPOLYLINE
  5
1976
330
A
100
AcDbEntity
  8
001
100
AcDbPolyline
 90
        4
 70
     0
 43
0.0
 10
89.84748203828088
 20
2.405452668717329
 10
89.84748203828088
 20
2.408786002050663
 10
89.84748203828088
 20
2.408786002050663
 10
89.85398342716974
 20
2.408786002050663
  0
LWPOLYLINE
  5
1977
330
A
100
AcDbEntity
  8
001
100
AcDbPolyline
 90
        8
 70
     0
 43
0.0
 10
89.84748203828088
 20
2.405452668717329
 10
89.81448203828087
 20
2.405452668717329
 10
89.81448203828087
 20
2.405452668717329
 10
89.81448203828087
 20
2.408786002050663
 10
89.81448203828087
 20
2.408786002050663
 10
89.80798342716976
 20
2.408786002050663
 10
89.80798342716976
 20
2.408786002050663
 10
89.80798342716976
 20
2.405452668717329
  0
LWPOLYLINE
  5
1978
330
A
100
AcDbEntity
  8
001
100
AcDbPolyline
 90
        4
 70
     0
 43
0.0
 10
89.79148301050308
 20
2.405452668717329
 10
89.79148301050308
 20
2.402286002050662
 10
89.79148301050308
 20
2.402286002050662
 10
89.78814967716976
 20
2.402286002050662
  0
LWPOLYLINE
  5
1979
330
A
100
AcDbEntity
  8
001
100
AcDbPolyline
 90
       11
 70
     0
 43
0.0
 10
89.86389912161419
 20
2.405619474272885
 10
89.8644261716142
 20
2.405662024272885
 10
89.86492618828085
 20
2.405785207606219
 10
89.8653924716142
 20
2.405982324272885
 10
89.86581832161419
 20
2.406246674272884
 10
89.86619703828088
 20
2.406571557606218
 10
89.8665219216142
 20
2.406950274272884
 10
89.8667862716142
 20
2.407376124272885
 10
89.86698338828087
 20
2.407842407606219
 10
89.8671065716142
 20
2.408342424272885
 10
89.86714912161421
 20
2.408869474272885
  0
LWPOLYLINE
  5
197A
330
A
100
AcDbEntity
  8
001
100
AcDbPolyline
 90
        2
 70
     0
 43
0.0
 10
89.7881491216142
 20
2.405452668717329
 10
89.80798245494753
 20
2.405452668717329
  0
LWPOLYLINE
  5
197B
330
A
100
AcDbEntity
  8
001
100
AcDbPolyline
 90
        2
 70
     0
 43
0.0
 10
89.84748203828088
 20
2.533953363161773
 10
89.85398342716974
 20
2.533953363161773
  0
LWPOLYLINE
  5
197C
330
A
100
AcDbEntity
  8
001
100
AcDbPolyline
 90
        2
 70
     0
 43
0.0
 10
89.81448231605865
 20
2.537119057606219
 10
89.84748231605864
 20
2.537119057606219
  0
LWPOLYLINE
  5
197D
330
A
100
AcDbEntity
  8
001
100
AcDbPolyline
 90
        2
 70
     0
 43
0.0
 10
89.85398301050308
 20
2.537119057606219
 10
89.86381634383642
 20
2.537119057606219
  0
LWPOLYLINE
  5
197E
330
A
100
AcDbEntity
  8
001
100
AcDbPolyline
 90
        4
 70
     0
 43
0.0
 10
89.8079828716142
 20
2.537119057606219
 10
89.8079828716142
 20
2.533953779828441
 10
89.8079828716142
 20
2.533953779828441
 10
89.8144828716142
 20
2.533953779828441
  0
LWPOLYLINE
  5
197F
330
A
100
AcDbEntity
  8
001
100
AcDbPolyline
 90
        2
 70
     0
 43
0.0
 10
89.85398301050308
 20
2.537119057606219
 10
89.85398301050308
 20
2.533953779828441
  0
LWPOLYLINE
  5
1980
330
A
100
AcDbEntity
  8
001
100
AcDbPolyline
 90
        2
 70
     0
 43
0.0
 10
89.81448231605865
 20
2.537119057606219
 10
89.81448231605865
 20
2.533953779828441
  0
LWPOLYLINE
  5
1981
330
A
100
AcDbEntity
  8
001
100
AcDbPolyline
 90
        2
 70
     0
 43
0.0
 10
89.84748203828088
 20
2.537119057606219
 10
89.84748203828088
 20
2.533953779828441
  0
LWPOLYLINE
  5
1982
330
A
100
AcDbEntity
  8
001
100
AcDbPolyline
 90
        4
 70
     0
 43
0.0
 10
89.79148301050308
 20
2.537119057606219
 10
89.79148301050308
 20
2.540452390939551
 10
89.79148301050308
 20
2.540452390939551
 10
89.78814967716976
 20
2.540452390939551
  0
LWPOLYLINE
  5
1983
330
A
100
AcDbEntity
  8
001
100
AcDbPolyline
 90
       11
 70
     0
 43
0.0
 10
89.86714898272531
 20
2.534036140939551
 10
89.8671064327253
 20
2.534563190939552
 10
89.86698324939197
 20
2.535063207606218
 10
89.8667861327253
 20
2.535529490939552
 10
89.86652178272532
 20
2.535955340939552
 10
89.86619689939198
 20
2.536334057606218
 10
89.86581818272531
 20
2.536658940939552
 10
89.8653923327253
 20
2.536923290939552
 10
89.86492604939199
 20
2.537120407606219
 10
89.86442603272532
 20
2.537243590939552
 10
89.86389898272532
 20
2.537286140939551
  0
LWPOLYLINE
  5
1984
330
A
100
AcDbEntity
  8
001
100
AcDbPolyline
 90
        2
 70
     0
 43
0.0
 10
89.7881491216142
 20
2.537119057606219
 10
89.80798245494753
 20
2.537119057606219
  0
LWPOLYLINE
  5
1985
330
A
100
AcDbEntity
  8
001
100
AcDbPolyline
 90
        4
 70
     0
 43
0.0
 10
89.7881491216142
 20
2.50428627982844
 10
89.7881491216142
 20
2.528952946495107
 10
89.7881491216142
 20
2.528952946495107
 10
89.7881491216142
 20
2.456619613161774
  0
LWPOLYLINE
  5
1986
330
A
100
AcDbEntity
  8
001
100
AcDbPolyline
 90
        8
 70
     0
 43
0.0
 10
89.74490261974194
 20
2.540452807606218
 10
89.48807067529751
 20
2.540452807606218
 10
89.48807067529751
 20
2.540452807606218
 10
89.48807067529751
 20
2.402286140939552
 10
89.48807067529751
 20
2.402286140939552
 10
89.74490261974194
 20
2.402286140939552
 10
89.74490261974194
 20
2.402286140939552
 10
89.74490261974194
 20
2.540452807606218
  0
LWPOLYLINE
  5
1987
330
A
100
AcDbEntity
  8
001
100
AcDbPolyline
 90
       14
 70
     0
 43
0.0
 10
89.58506928640863
 20
2.426786557606218
 10
89.58690261974195
 20
2.425286557606219
 10
89.58690261974195
 20
2.425286557606219
 10
89.59023595307529
 20
2.425286557606219
 10
89.59023595307529
 20
2.425286557606219
 10
89.59190261974196
 20
2.426786557606218
 10
89.59190261974196
 20
2.426786557606218
 10
89.58506928640863
 20
2.432951835383996
 10
89.58506928640863
 20
2.432951835383996
 10
89.58690261974195
 20
2.434453224272885
 10
89.58690261974195
 20
2.434453224272885
 10
89.59023595307529
 20
2.434453224272885
 10
89.59023595307529
 20
2.434453224272885
 10
89.59190261974196
 20
2.432951835383996
  0
LWPOLYLINE
  5
1988
330
A
100
AcDbEntity
  8
001
100
AcDbPolyline
 90
       14
 70
     0
 43
0.0
 10
89.60206900863084
 20
2.426786557606218
 10
89.60040234196418
 20
2.425286557606219
 10
89.60040234196418
 20
2.425286557606219
 10
89.59690234196418
 20
2.425286557606219
 10
89.59690234196418
 20
2.425286557606219
 10
89.59523567529751
 20
2.426786557606218
 10
89.59523567529751
 20
2.426786557606218
 10
89.59523567529751
 20
2.432951835383996
 10
89.59523567529751
 20
2.432951835383996
 10
89.59690234196418
 20
2.434453224272885
 10
89.59690234196418
 20
2.434453224272885
 10
89.60040234196418
 20
2.434453224272885
 10
89.60040234196418
 20
2.434453224272885
 10
89.60206900863084
 20
2.432951835383996
  0
LWPOLYLINE
  5
1989
330
A
100
AcDbEntity
  8
001
100
AcDbPolyline
 90
        2
 70
     0
 43
0.0
 10
89.60540289751973
 20
2.429952252050663
 10
89.61223623085308
 20
2.429952252050663
  0
LWPOLYLINE
  5
198A
330
A
100
AcDbEntity
  8
001
100
AcDbPolyline
 90
        2
 70
     0
 43
0.0
 10
89.61556928640861
 20
2.43445252982844
 10
89.61890261974195
 20
2.43445252982844
  0
LWPOLYLINE
  5
198B
330
A
100
AcDbEntity
  8
001
100
AcDbPolyline
 90
        2
 70
     0
 43
0.0
 10
89.61723623085307
 20
2.43445252982844
 10
89.61723623085307
 20
2.425285863161774
  0
LWPOLYLINE
  5
198C
330
A
100
AcDbEntity
  8
001
100
AcDbPolyline
 90
        2
 70
     0
 43
0.0
 10
89.61556928640861
 20
2.425286418717329
 10
89.61890261974195
 20
2.425286418717329
  0
LWPOLYLINE
  5
198D
330
A
100
AcDbEntity
  8
001
100
AcDbPolyline
 90
       12
 70
     0
 43
0.0
 10
89.62240248085306
 20
2.425286418717329
 10
89.62240248085306
 20
2.434453085383996
 10
89.62240248085306
 20
2.434453085383996
 10
89.62740248085307
 20
2.434453085383996
 10
89.62740248085307
 20
2.434453085383996
 10
89.62906914751973
 20
2.432953085383996
 10
89.62906914751973
 20
2.432953085383996
 10
89.62906914751973
 20
2.431451696495106
 10
89.62906914751973
 20
2.431451696495106
 10
89.62740248085307
 20
2.429951696495106
 10
89.62740248085307
 20
2.429951696495106
 10
89.62240248085306
 20
2.429951696495106
  0
LWPOLYLINE
  5
198E
330
A
100
AcDbEntity
  8
001
100
AcDbPolyline
 90
        4
 70
     0
 43
0.0
 10
89.63240275863084
 20
2.425286418717329
 10
89.63240275863084
 20
2.434453085383996
 10
89.63240275863084
 20
2.434453085383996
 10
89.63923609196418
 20
2.434453085383996
  0
LWPOLYLINE
  5
198F
330
A
100
AcDbEntity
  8
001
100
AcDbPolyline
 90
        2
 70
     0
 43
0.0
 10
89.63240275863084
 20
2.429952252050663
 10
89.63590275863085
 20
2.429952252050663
  0
LWPOLYLINE
  5
1990
330
A
100
AcDbEntity
  8
001
100
AcDbPolyline
 90
        2
 70
     0
 43
0.0
 10
89.63240275863084
 20
2.425286418717329
 10
89.63923609196418
 20
2.425286418717329
  0
LWPOLYLINE
  5
1991
330
A
100
AcDbEntity
  8
001
100
AcDbPolyline
 90
       10
 70
     0
 43
0.0
 10
89.64256914751974
 20
2.43445252982844
 10
89.64256914751974
 20
2.426785863161774
 10
89.64256914751974
 20
2.426785863161774
 10
89.64423581418641
 20
2.425285863161774
 10
89.64423581418641
 20
2.425285863161774
 10
89.6477358141864
 20
2.425285863161774
 10
89.6477358141864
 20
2.425285863161774
 10
89.64940248085307
 20
2.426785863161774
 10
89.64940248085307
 20
2.426785863161774
 10
89.64940248085307
 20
2.43445252982844
  0
LWPOLYLINE
  5
1992
330
A
100
AcDbEntity
  8
001
100
AcDbPolyline
 90
       12
 70
     0
 43
0.0
 10
89.65273623085307
 20
2.425286418717329
 10
89.65273623085307
 20
2.434453085383996
 10
89.65273623085307
 20
2.434453085383996
 10
89.65773623085306
 20
2.434453085383996
 10
89.65773623085306
 20
2.434453085383996
 10
89.6595695641864
 20
2.432953085383996
 10
89.6595695641864
 20
2.432953085383996
 10
89.6595695641864
 20
2.431451696495106
 10
89.6595695641864
 20
2.431451696495106
 10
89.65773623085306
 20
2.429951696495106
 10
89.65773623085306
 20
2.429951696495106
 10
89.65273623085307
 20
2.429951696495106
  0
LWPOLYLINE
  5
1993
330
A
100
AcDbEntity
  8
001
100
AcDbPolyline
 90
        2
 70
     0
 43
0.0
 10
89.49406928640861
 20
2.422453085383996
 10
89.49606928640863
 20
2.422453085383996
  0
LWPOLYLINE
  5
1994
330
A
100
AcDbEntity
  8
001
100
AcDbPolyline
 90
        2
 70
     0
 43
0.0
 10
89.49506956418639
 20
2.422453085383996
 10
89.49506956418639
 20
2.417619752050663
  0
LWPOLYLINE
  5
1995
330
A
100
AcDbEntity
  8
001
100
AcDbPolyline
 90
        2
 70
     0
 43
0.0
 10
89.49406928640861
 20
2.417619057606219
 10
89.49606928640863
 20
2.417619057606219
  0
LWPOLYLINE
  5
1996
330
A
100
AcDbEntity
  8
001
100
AcDbPolyline
 90
        6
 70
     0
 43
0.0
 10
89.49806914751972
 20
2.417619057606219
 10
89.49806914751972
 20
2.422452390939552
 10
89.49806914751972
 20
2.422452390939552
 10
89.50190248085306
 20
2.417619057606219
 10
89.50190248085306
 20
2.417619057606219
 10
89.50190248085306
 20
2.422452390939552
  0
LWPOLYLINE
  5
1997
330
A
100
AcDbEntity
  8
001
100
AcDbPolyline
 90
       10
 70
     0
 43
0.0
 10
89.50390275863083
 20
2.417619057606219
 10
89.50690275863085
 20
2.417619057606219
 10
89.50690275863085
 20
2.417619057606219
 10
89.50790275863084
 20
2.41845377982844
 10
89.50790275863084
 20
2.41845377982844
 10
89.50790275863084
 20
2.421619057606219
 10
89.50790275863084
 20
2.421619057606219
 10
89.50690275863085
 20
2.422452390939552
 10
89.50690275863085
 20
2.422452390939552
 10
89.50390275863083
 20
2.422452390939552
  0
LWPOLYLINE
  5
1998
330
A
100
AcDbEntity
  8
001
100
AcDbPolyline
 90
        2
 70
     0
 43
0.0
 10
89.50490234196418
 20
2.422453085383996
 10
89.50490234196418
 20
2.417619752050663
  0
LWPOLYLINE
  5
1999
330
A
100
AcDbEntity
  8
001
100
AcDbPolyline
 90
        8
 70
     0
 43
0.0
 10
89.50990261974196
 20
2.422452807606219
 10
89.51373595307527
 20
2.422452807606219
 10
89.51373595307527
 20
2.422452807606219
 10
89.51373595307527
 20
2.417619474272885
 10
89.51373595307527
 20
2.417619474272885
 10
89.50990261974196
 20
2.417619474272885
 10
89.50990261974196
 20
2.417619474272885
 10
89.50990261974196
 20
2.422452807606219
  0
LWPOLYLINE
  5
199A
330
A
100
AcDbEntity
  8
001
100
AcDbPolyline
 90
        8
 70
     0
 43
0.0
 10
89.51573595307529
 20
2.422452807606219
 10
89.51973595307528
 20
2.422452807606219
 10
89.51973595307528
 20
2.422452807606219
 10
89.51973595307528
 20
2.417619474272885
 10
89.51973595307528
 20
2.417619474272885
 10
89.51573595307529
 20
2.417619474272885
 10
89.51573595307529
 20
2.417619474272885
 10
89.51573595307529
 20
2.422452807606219
  0
LWPOLYLINE
  5
199B
330
A
100
AcDbEntity
  8
001
100
AcDbPolyline
 90
       12
 70
     0
 43
0.0
 10
89.52173581418639
 20
2.417619057606219
 10
89.52173581418639
 20
2.422452390939552
 10
89.52173581418639
 20
2.422452390939552
 10
89.5247358141864
 20
2.422452390939552
 10
89.5247358141864
 20
2.422452390939552
 10
89.5257358141864
 20
2.421619057606219
 10
89.5257358141864
 20
2.421619057606219
 10
89.5257358141864
 20
2.420785724272885
 10
89.5257358141864
 20
2.420785724272885
 10
89.5247358141864
 20
2.41995377982844
 10
89.5247358141864
 20
2.41995377982844
 10
89.52173581418639
 20
2.41995377982844
  0
LWPOLYLINE
  5
199C
330
A
100
AcDbEntity
  8
001
100
AcDbPolyline
 90
        2
 70
     0
 43
0.0
 10
89.52273609196417
 20
2.419953363161774
 10
89.52573609196418
 20
2.417618640939552
  0
LWPOLYLINE
  5
199D
330
A
100
AcDbEntity
  8
001
100
AcDbPolyline
 90
       10
 70
     0
 43
0.0
 10
89.53140248085306
 20
2.422453085383996
 10
89.53140248085306
 20
2.418453085383996
 10
89.53140248085306
 20
2.418453085383996
 10
89.53240248085306
 20
2.417619752050663
 10
89.53240248085306
 20
2.417619752050663
 10
89.53440248085305
 20
2.417619752050663
 10
89.53440248085305
 20
2.417619752050663
 10
89.53540248085307
 20
2.418453085383996
 10
89.53540248085307
 20
2.418453085383996
 10
89.53540248085307
 20
2.422453085383996
  0
LWPOLYLINE
  5
199E
330
A
100
AcDbEntity
  8
001
100
AcDbPolyline
 90
       14
 70
     0
 43
0.0
 10
89.53740289751973
 20
2.418453224272885
 10
89.53840289751973
 20
2.417618502050663
 10
89.53840289751973
 20
2.417618502050663
 10
89.54040289751972
 20
2.417618502050663
 10
89.54040289751972
 20
2.417618502050663
 10
89.54140289751974
 20
2.418453224272885
 10
89.54140289751974
 20
2.418453224272885
 10
89.53740289751973
 20
2.421618502050662
 10
89.53740289751973
 20
2.421618502050662
 10
89.53840289751973
 20
2.422453224272885
 10
89.53840289751973
 20
2.422453224272885
 10
89.54040289751972
 20
2.422453224272885
 10
89.54040289751972
 20
2.422453224272885
 10
89.54140289751974
 20
2.421618502050662
  0
LWPOLYLINE
  5
199F
330
A
100
AcDbEntity
  8
001
100
AcDbPolyline
 90
        4
 70
     0
 43
0.0
 10
89.54323581418639
 20
2.417619057606219
 10
89.54323581418639
 20
2.422452390939552
 10
89.54323581418639
 20
2.422452390939552
 10
89.54723581418639
 20
2.422452390939552
  0
LWPOLYLINE
  5
19A0
330
A
100
AcDbEntity
  8
001
100
AcDbPolyline
 90
        2
 70
     0
 43
0.0
 10
89.54323581418639
 20
2.419953363161774
 10
89.54523581418639
 20
2.419953363161774
  0
LWPOLYLINE
  5
19A1
330
A
100
AcDbEntity
  8
001
100
AcDbPolyline
 90
        2
 70
     0
 43
0.0
 10
89.54323581418639
 20
2.417619057606219
 10
89.54723581418639
 20
2.417619057606219
  0
LWPOLYLINE
  5
19A2
330
A
100
AcDbEntity
  8
001
100
AcDbPolyline
 90
        2
 70
     0
 43
0.0
 10
89.67356956418639
 20
2.447786696495107
 10
89.55940289751973
 20
2.447786696495107
  0
LWPOLYLINE
  5
19A3
330
A
100
AcDbEntity
  8
001
100
AcDbPolyline
 90
        2
 70
     0
 43
0.0
 10
89.55940261974197
 20
2.494953363161774
 10
89.67356928640862
 20
2.494953363161774
  0
LWPOLYLINE
  5
19A4
330
A
100
AcDbEntity
  8
001
100
AcDbPolyline
 90
        2
 70
     0
 43
0.0
 10
89.67356956418639
 20
2.444452807606219
 10
89.55940289751973
 20
2.444452807606219
  0
LWPOLYLINE
  5
19A5
330
A
100
AcDbEntity
  8
001
100
AcDbPolyline
 90
        2
 70
     0
 43
0.0
 10
89.55940261974197
 20
2.498285863161774
 10
89.67356928640862
 20
2.498285863161774
  0
LWPOLYLINE
  5
19A6
330
A
100
AcDbEntity
  8
001
100
AcDbPolyline
 90
       10
 70
     0
 43
0.0
 10
89.55940261974197
 20
2.484619335383996
 10
89.55940261974197
 20
2.47645266871733
 10
89.55940261974197
 20
2.47645266871733
 10
89.56156928640863
 20
2.474786002050663
 10
89.56156928640863
 20
2.474786002050663
 10
89.5657359530753
 20
2.474786002050663
 10
89.5657359530753
 20
2.474786002050663
 10
89.56790261974196
 20
2.47645266871733
 10
89.56790261974196
 20
2.47645266871733
 10
89.56790261974196
 20
2.484619335383996
  0
LWPOLYLINE
  5
19A7
330
A
100
AcDbEntity
  8
001
100
AcDbPolyline
 90
        2
 70
     0
 43
0.0
 10
89.57206956418639
 20
2.484619335383996
 10
89.58040289751973
 20
2.484619335383996
  0
LWPOLYLINE
  5
19A8
330
A
100
AcDbEntity
  8
001
100
AcDbPolyline
 90
        2
 70
     0
 43
0.0
 10
89.57623623085307
 20
2.484619335383996
 10
89.57623623085307
 20
2.474786002050663
  0
LWPOLYLINE
  5
19A9
330
A
100
AcDbEntity
  8
001
100
AcDbPolyline
 90
       12
 70
     0
 43
0.0
 10
89.5845695641864
 20
2.474785863161773
 10
89.5845695641864
 20
2.484619196495107
 10
89.5845695641864
 20
2.484619196495107
 10
89.59073623085307
 20
2.484619196495107
 10
89.59073623085307
 20
2.484619196495107
 10
89.59290289751974
 20
2.482952529828441
 10
89.59290289751974
 20
2.482952529828441
 10
89.59290289751974
 20
2.481285863161774
 10
89.59290289751974
 20
2.481285863161774
 10
89.59073623085307
 20
2.479619196495106
 10
89.59073623085307
 20
2.479619196495106
 10
89.5845695641864
 20
2.479619196495106
  0
LWPOLYLINE
  5
19AA
330
A
100
AcDbEntity
  8
001
100
AcDbPolyline
 90
        4
 70
     0
 43
0.0
 10
89.60523595307529
 20
2.474785863161773
 10
89.60523595307529
 20
2.484619196495107
 10
89.60523595307529
 20
2.484619196495107
 10
89.61356928640862
 20
2.484619196495107
  0
LWPOLYLINE
  5
19AB
330
A
100
AcDbEntity
  8
001
100
AcDbPolyline
 90
        2
 70
     0
 43
0.0
 10
89.60523595307529
 20
2.479619890939551
 10
89.60940261974196
 20
2.479619890939551
  0
LWPOLYLINE
  5
19AC
330
A
100
AcDbEntity
  8
001
100
AcDbPolyline
 90
        2
 70
     0
 43
0.0
 10
89.60523595307529
 20
2.474785863161773
 10
89.61356928640862
 20
2.474785863161773
  0
LWPOLYLINE
  5
19AD
330
A
100
AcDbEntity
  8
001
100
AcDbPolyline
 90
        2
 70
     0
 43
0.0
 10
89.61773595307528
 20
2.474785863161773
 10
89.62606928640862
 20
2.481285863161774
  0
LWPOLYLINE
  5
19AE
330
A
100
AcDbEntity
  8
001
100
AcDbPolyline
 90
        2
 70
     0
 43
0.0
 10
89.61773595307528
 20
2.481285446495107
 10
89.62606928640862
 20
2.474785446495107
  0
LWPOLYLINE
  5
19AF
330
A
100
AcDbEntity
  8
001
100
AcDbPolyline
 90
        2
 70
     0
 43
0.0
 10
89.63023595307529
 20
2.481285446495107
 10
89.63856928640863
 20
2.481285446495107
  0
LWPOLYLINE
  5
19B0
330
A
100
AcDbEntity
  8
001
100
AcDbPolyline
 90
        6
 70
     0
 43
0.0
 10
89.63440261974195
 20
2.484619335383996
 10
89.63440261974195
 20
2.47645266871733
 10
89.63440261974195
 20
2.47645266871733
 10
89.63656928640862
 20
2.474786002050663
 10
89.63656928640862
 20
2.474786002050663
 10
89.63856928640863
 20
2.47645266871733
  0
LWPOLYLINE
  5
19B1
330
A
100
AcDbEntity
  8
001
100
AcDbPolyline
 90
       16
 70
     0
 43
0.0
 10
89.64290289751973
 20
2.477952946495107
 10
89.64906956418641
 20
2.477952946495107
 10
89.64906956418641
 20
2.477952946495107
 10
89.65123623085307
 20
2.479619613161774
 10
89.65123623085307
 20
2.479619613161774
 10
89.64906956418641
 20
2.481284890939551
 10
89.64906956418641
 20
2.481284890939551
 10
89.64490289751973
 20
2.481284890939551
 10
89.64490289751973
 20
2.481284890939551
 10
89.64290289751973
 20
2.479619613161774
 10
89.64290289751973
 20
2.479619613161774
 10
89.64290289751973
 20
2.476452946495107
 10
89.64290289751973
 20
2.476452946495107
 10
89.64490289751973
 20
2.474786279828441
 10
89.64490289751973
 20
2.474786279828441
 10
89.64906956418641
 20
2.474786279828441
  0
LWPOLYLINE
  5
19B2
330
A
100
AcDbEntity
  8
001
100
AcDbPolyline
 90
        2
 70
     0
 43
0.0
 10
89.65540289751974
 20
2.474785863161773
 10
89.65540289751974
 20
2.481285863161774
  0
LWPOLYLINE
  5
19B3
330
A
100
AcDbEntity
  8
001
100
AcDbPolyline
 90
        8
 70
     0
 43
0.0
 10
89.65540289751974
 20
2.477952946495107
 10
89.6595695641864
 20
2.481284890939551
 10
89.6595695641864
 20
2.481284890939551
 10
89.6615695641864
 20
2.481284890939551
 10
89.6615695641864
 20
2.481284890939551
 10
89.66373623085306
 20
2.479619613161774
 10
89.66373623085306
 20
2.479619613161774
 10
89.66373623085306
 20
2.474786279828441
  0
LWPOLYLINE
  5
19B4
330
A
100
AcDbEntity
  8
001
100
AcDbPolyline
 90
       14
 70
     0
 43
0.0
 10
89.67623623085307
 20
2.477952946495107
 10
89.67206956418641
 20
2.474786279828441
 10
89.67206956418641
 20
2.474786279828441
 10
89.67006956418641
 20
2.474786279828441
 10
89.67006956418641
 20
2.474786279828441
 10
89.66790289751974
 20
2.476452946495107
 10
89.66790289751974
 20
2.476452946495107
 10
89.66790289751974
 20
2.479619613161774
 10
89.66790289751974
 20
2.479619613161774
 10
89.67006956418641
 20
2.481284890939551
 10
89.67006956418641
 20
2.481284890939551
 10
89.67206956418641
 20
2.481284890939551
 10
89.67206956418641
 20
2.481284890939551
 10
89.67623623085307
 20
2.477952946495107
  0
LWPOLYLINE
  5
19B5
330
A
100
AcDbEntity
  8
001
100
AcDbPolyline
 90
        2
 70
     0
 43
0.0
 10
89.67623623085307
 20
2.484619335383996
 10
89.67623623085307
 20
2.474786002050663
  0
LWPOLYLINE
  5
19B6
330
A
100
AcDbEntity
  8
001
100
AcDbPolyline
 90
       16
 70
     0
 43
0.0
 10
89.68040289751973
 20
2.477952946495107
 10
89.68673623085306
 20
2.477952946495107
 10
89.68673623085306
 20
2.477952946495107
 10
89.68890289751973
 20
2.479619613161774
 10
89.68890289751973
 20
2.479619613161774
 10
89.68673623085306
 20
2.481284890939551
 10
89.68673623085306
 20
2.481284890939551
 10
89.6825695641864
 20
2.481284890939551
 10
89.6825695641864
 20
2.481284890939551
 10
89.68040289751973
 20
2.479619613161774
 10
89.68040289751973
 20
2.479619613161774
 10
89.68040289751973
 20
2.476452946495107
 10
89.68040289751973
 20
2.476452946495107
 10
89.6825695641864
 20
2.474786279828441
 10
89.6825695641864
 20
2.474786279828441
 10
89.68673623085306
 20
2.474786279828441
  0
LWPOLYLINE
  5
19B7
330
A
100
AcDbEntity
  8
001
100
AcDbPolyline
 90
        2
 70
     0
 43
0.0
 10
89.69306900863085
 20
2.474785863161773
 10
89.69306900863085
 20
2.481285863161774
  0
LWPOLYLINE
  5
19B8
330
A
100
AcDbEntity
  8
001
100
AcDbPolyline
 90
        6
 70
     0
 43
0.0
 10
89.69306900863085
 20
2.477952946495107
 10
89.69723567529751
 20
2.481284890939551
 10
89.69723567529751
 20
2.481284890939551
 10
89.69923567529752
 20
2.481284890939551
 10
89.69923567529752
 20
2.481284890939551
 10
89.70140234196419
 20
2.479619613161774
  0
LWPOLYLINE
  5
19B9
330
A
100
AcDbEntity
  8
001
100
AcDbPolyline
 90
        8
 70
     0
 43
0.0
 10
89.58023595307528
 20
2.464286557606218
 10
89.58240261974195
 20
2.45778516871733
 10
89.58240261974195
 20
2.45778516871733
 10
89.58440261974194
 20
2.464286557606218
 10
89.58440261974194
 20
2.464286557606218
 10
89.58656928640861
 20
2.45778516871733
 10
89.58656928640861
 20
2.45778516871733
 10
89.58856928640862
 20
2.464286557606218
  0
LWPOLYLINE
  5
19BA
330
A
100
AcDbEntity
  8
001
100
AcDbPolyline
 90
        2
 70
     0
 43
0.0
 10
89.59273595307529
 20
2.457785585383996
 10
89.59273595307529
 20
2.464286974272885
  0
LWPOLYLINE
  5
19BB
330
A
100
AcDbEntity
  8
001
100
AcDbPolyline
 90
        2
 70
     0
 43
0.0
 10
89.59273595307529
 20
2.465953502050663
 10
89.59273595307529
 20
2.467618779828441
  0
LWPOLYLINE
  5
19BC
330
A
100
AcDbEntity
  8
001
100
AcDbPolyline
 90
        2
 70
     0
 43
0.0
 10
89.59690261974195
 20
2.464286557606218
 10
89.60540261974195
 20
2.464286557606218
  0
LWPOLYLINE
  5
19BD
330
A
100
AcDbEntity
  8
001
100
AcDbPolyline
 90
        6
 70
     0
 43
0.0
 10
89.60106928640861
 20
2.467619057606219
 10
89.60106928640861
 20
2.459285724272885
 10
89.60106928640861
 20
2.459285724272885
 10
89.60323595307528
 20
2.457785724272885
 10
89.60323595307528
 20
2.457785724272885
 10
89.60540261974195
 20
2.459285724272885
  0
LWPOLYLINE
  5
19BE
330
A
100
AcDbEntity
  8
001
100
AcDbPolyline
 90
        2
 70
     0
 43
0.0
 10
89.60956956418639
 20
2.457785585383996
 10
89.60956956418639
 20
2.46761891871733
  0
LWPOLYLINE
  5
19BF
330
A
100
AcDbEntity
  8
001
100
AcDbPolyline
 90
        8
 70
     0
 43
0.0
 10
89.60956956418639
 20
2.46095266871733
 10
89.61373623085306
 20
2.464286002050663
 10
89.61373623085306
 20
2.464286002050663
 10
89.61573623085307
 20
2.464286002050663
 10
89.61573623085307
 20
2.464286002050663
 10
89.61790289751972
 20
2.462619335383996
 10
89.61790289751972
 20
2.462619335383996
 10
89.61790289751972
 20
2.457786002050663
  0
LWPOLYLINE
  5
19C0
330
A
100
AcDbEntity
  8
001
100
AcDbPolyline
 90
       12
 70
     0
 43
0.0
 10
89.63023595307529
 20
2.457785585383996
 10
89.63023595307529
 20
2.46761891871733
 10
89.63023595307529
 20
2.46761891871733
 10
89.63640261974196
 20
2.46761891871733
 10
89.63640261974196
 20
2.46761891871733
 10
89.63856928640863
 20
2.465953640939551
 10
89.63856928640863
 20
2.465953640939551
 10
89.63856928640863
 20
2.464286974272885
 10
89.63856928640863
 20
2.464286974272885
 10
89.63640261974196
 20
2.46261891871733
 10
89.63640261974196
 20
2.46261891871733
 10
89.63023595307529
 20
2.46261891871733
  0
LWPOLYLINE
  5
19C1
330
A
100
AcDbEntity
  8
001
100
AcDbPolyline
 90
       16
 70
     0
 43
0.0
 10
89.64890261974195
 20
2.457785585383996
 10
89.64473595307529
 20
2.457785585383996
 10
89.64473595307529
 20
2.457785585383996
 10
89.64273595307529
 20
2.459285585383995
 10
89.64273595307529
 20
2.459285585383995
 10
89.64273595307529
 20
2.46261891871733
 10
89.64273595307529
 20
2.46261891871733
 10
89.64473595307529
 20
2.464286974272885
 10
89.64473595307529
 20
2.464286974272885
 10
89.64890261974195
 20
2.464286974272885
 10
89.64890261974195
 20
2.464286974272885
 10
89.65106928640862
 20
2.46261891871733
 10
89.65106928640862
 20
2.46261891871733
 10
89.65106928640862
 20
2.459285585383995
 10
89.65106928640862
 20
2.459285585383995
 10
89.64890261974195
 20
2.457785585383996
  0
LWPOLYLINE
  5
19C2
330
A
100
AcDbEntity
  8
001
100
AcDbPolyline
 90
        4
 70
     0
 43
0.0
 10
89.65523595307528
 20
2.457785585383996
 10
89.65523595307528
 20
2.46761891871733
 10
89.65523595307528
 20
2.46761891871733
 10
89.66356928640861
 20
2.46761891871733
  0
LWPOLYLINE
  5
19C3
330
A
100
AcDbEntity
  8
001
100
AcDbPolyline
 90
        2
 70
     0
 43
0.0
 10
89.65523595307528
 20
2.462619613161773
 10
89.65940261974195
 20
2.462619613161773
  0
LWPOLYLINE
  5
19C4
330
A
100
AcDbEntity
  8
001
100
AcDbPolyline
 90
        2
 70
     0
 43
0.0
 10
89.65523595307528
 20
2.457785585383996
 10
89.66356928640861
 20
2.457785585383996
  0
LWPOLYLINE
  5
19C5
330
A
100
AcDbEntity
  8
001
100
AcDbPolyline
 90
        2
 70
     0
 43
0.0
 10
89.74490206418641
 20
2.527285585383995
 10
89.48807011974194
 20
2.527285585383995
  0
LWPOLYLINE
  5
19C6
330
A
100
AcDbEntity
  8
001
100
AcDbPolyline
 90
        2
 70
     0
 43
0.0
 10
89.74490206418641
 20
2.530619474272885
 10
89.48807011974194
 20
2.530619474272885
  0
LWPOLYLINE
  5
19C7
330
A
100
AcDbEntity
  8
001
100
AcDbPolyline
 90
        2
 70
     0
 43
0.0
 10
89.48806956418641
 20
2.415452946495107
 10
89.74490150863084
 20
2.415452946495107
  0
LWPOLYLINE
  5
19C8
330
A
100
AcDbEntity
  8
001
100
AcDbPolyline
 90
        2
 70
     0
 43
0.0
 10
89.48806956418641
 20
2.412119057606219
 10
89.74490150863084
 20
2.412119057606219
  0
LWPOLYLINE
  5
19C9
330
A
100
AcDbEntity
  8
001
100
AcDbPolyline
 90
       10
 70
     0
 43
0.0
 10
89.6915695641864
 20
2.439785585383996
 10
89.69406956418639
 20
2.439785585383996
 10
89.69406956418639
 20
2.439785585383996
 10
89.69490150863085
 20
2.440620307606219
 10
89.69490150863085
 20
2.440620307606219
 10
89.69490150863085
 20
2.443952252050663
 10
89.69490150863085
 20
2.443952252050663
 10
89.69406956418639
 20
2.444786974272885
 10
89.69406956418639
 20
2.444786974272885
 10
89.6915695641864
 20
2.444786974272885
  0
LWPOLYLINE
  5
19CA
330
A
100
AcDbEntity
  8
001
100
AcDbPolyline
 90
        2
 70
     0
 43
0.0
 10
89.69240234196417
 20
2.44478641871733
 10
89.69240234196417
 20
2.439785029828441
  0
LWPOLYLINE
  5
19CB
330
A
100
AcDbEntity
  8
001
100
AcDbPolyline
 90
       16
 70
     0
 43
0.0
 10
89.69823595307529
 20
2.439785585383996
 10
89.69740261974195
 20
2.439785585383996
 10
89.69740261974195
 20
2.439785585383996
 10
89.69656928640862
 20
2.440620307606219
 10
89.69656928640862
 20
2.440620307606219
 10
89.69656928640862
 20
2.442286974272885
 10
89.69656928640862
 20
2.442286974272885
 10
89.69740261974195
 20
2.443118918717329
 10
89.69740261974195
 20
2.443118918717329
 10
89.69823595307529
 20
2.443118918717329
 10
89.69823595307529
 20
2.443118918717329
 10
89.69906928640861
 20
2.442286974272885
 10
89.69906928640861
 20
2.442286974272885
 10
89.69906928640861
 20
2.440620307606219
 10
89.69906928640861
 20
2.440620307606219
 10
89.69823595307529
 20
2.439785585383996
  0
LWPOLYLINE
  5
19CC
330
A
100
AcDbEntity
  8
001
100
AcDbPolyline
 90
        2
 70
     0
 43
0.0
 10
89.69906873085307
 20
2.440619752050662
 10
89.69990345307529
 20
2.439785029828441
  0
LWPOLYLINE
  5
19CD
330
A
100
AcDbEntity
  8
001
100
AcDbPolyline
 90
        2
 70
     0
 43
0.0
 10
89.70156984196417
 20
2.443119474272885
 10
89.70473511974196
 20
2.443119474272885
  0
LWPOLYLINE
  5
19CE
330
A
100
AcDbEntity
  8
001
100
AcDbPolyline
 90
        6
 70
     0
 43
0.0
 10
89.70323539751973
 20
2.44478641871733
 10
89.70323539751973
 20
2.440619752050662
 10
89.70323539751973
 20
2.440619752050662
 10
89.7039020641864
 20
2.439785029828441
 10
89.7039020641864
 20
2.439785029828441
 10
89.70473539751973
 20
2.440619752050662
  0
LWPOLYLINE
  5
19CF
330
A
100
AcDbEntity
  8
001
100
AcDbPolyline
 90
       16
 70
     0
 43
0.0
 10
89.70806942529751
 20
2.439785585383996
 10
89.70723609196417
 20
2.439785585383996
 10
89.70723609196417
 20
2.439785585383996
 10
89.70640275863084
 20
2.440620307606219
 10
89.70640275863084
 20
2.440620307606219
 10
89.70640275863084
 20
2.442286974272885
 10
89.70640275863084
 20
2.442286974272885
 10
89.70723609196417
 20
2.443118918717329
 10
89.70723609196417
 20
2.443118918717329
 10
89.70806942529751
 20
2.443118918717329
 10
89.70806942529751
 20
2.443118918717329
 10
89.70890275863084
 20
2.442286974272885
 10
89.70890275863084
 20
2.442286974272885
 10
89.70890275863084
 20
2.440620307606219
 10
89.70890275863084
 20
2.440620307606219
 10
89.70806942529751
 20
2.439785585383996
  0
LWPOLYLINE
  5
19D0
330
A
100
AcDbEntity
  8
001
100
AcDbPolyline
 90
        2
 70
     0
 43
0.0
 10
89.70890220307529
 20
2.440619752050662
 10
89.70973692529751
 20
2.439785029828441
  0
LWPOLYLINE
  5
19D1
330
A
100
AcDbEntity
  8
001
100
AcDbPolyline
 90
       12
 70
     0
 43
0.0
 10
89.52673595307528
 20
2.45361891871733
 10
89.52673595307528
 20
2.458620307606218
 10
89.52673595307528
 20
2.458620307606218
 10
89.52906928640862
 20
2.458620307606218
 10
89.52906928640862
 20
2.458620307606218
 10
89.52990261974196
 20
2.457785585383996
 10
89.52990261974196
 20
2.457785585383996
 10
89.52990261974196
 20
2.456952252050663
 10
89.52990261974196
 20
2.456952252050663
 10
89.52906928640862
 20
2.456120307606219
 10
89.52906928640862
 20
2.456120307606219
 10
89.52673595307528
 20
2.456120307606219
  0
LWPOLYLINE
  5
19D2
330
A
100
AcDbEntity
  8
001
100
AcDbPolyline
 90
        8
 70
     0
 43
0.0
 10
89.53156928640863
 20
2.458619752050663
 10
89.53323595307528
 20
2.453618363161774
 10
89.53323595307528
 20
2.453618363161774
 10
89.53406928640863
 20
2.456119752050663
 10
89.53406928640863
 20
2.456119752050663
 10
89.53490261974195
 20
2.453618363161774
 10
89.53490261974195
 20
2.453618363161774
 10
89.53656928640862
 20
2.458619752050663
  0
LWPOLYLINE
  5
19D3
330
A
100
AcDbEntity
  8
001
100
AcDbPolyline
 90
       12
 70
     0
 43
0.0
 10
89.53823567529751
 20
2.45361891871733
 10
89.53823567529751
 20
2.458620307606218
 10
89.53823567529751
 20
2.458620307606218
 10
89.54073567529752
 20
2.458620307606218
 10
89.54073567529752
 20
2.458620307606218
 10
89.54140234196417
 20
2.457785585383996
 10
89.54140234196417
 20
2.457785585383996
 10
89.54140234196417
 20
2.456952252050663
 10
89.54140234196417
 20
2.456952252050663
 10
89.54073567529752
 20
2.456120307606219
 10
89.54073567529752
 20
2.456120307606219
 10
89.53823567529751
 20
2.456120307606219
  0
LWPOLYLINE
  5
19D4
330
A
100
AcDbEntity
  8
001
100
AcDbPolyline
 90
        2
 70
     0
 43
0.0
 10
89.53906914751973
 20
2.456120029828441
 10
89.54140248085307
 20
2.453618640939552
  0
LWPOLYLINE
  5
19D5
330
A
100
AcDbEntity
  8
001
100
AcDbPolyline
 90
        2
 70
     0
 43
0.0
 10
89.52540275863084
 20
2.489952529828441
 10
89.52540275863084
 20
2.452785863161774
  0
LWPOLYLINE
  5
19D6
330
A
100
AcDbEntity
  8
001
100
AcDbPolyline
 90
        5
 70
     0
 43
0.0
 10
89.5092358141864
 20
2.481786002050663
 10
89.52090248085307
 20
2.481786002050663
 10
89.52090248085307
 20
2.481786002050663
 10
89.5092358141864
 20
2.48295266871733
 10
89.5092358141864
 20
2.481786002050663
  0
LWPOLYLINE
  5
19D7
330
A
100
AcDbEntity
  8
001
100
AcDbPolyline
 90
        5
 70
     0
 43
0.0
 10
89.52090248085307
 20
2.481786002050663
 10
89.5092358141864
 20
2.48295266871733
 10
89.5092358141864
 20
2.48295266871733
 10
89.52090248085307
 20
2.48295266871733
 10
89.52090248085307
 20
2.481786002050663
  0
LWPOLYLINE
  5
19D8
330
A
100
AcDbEntity
  8
001
100
AcDbPolyline
 90
        7
 70
     0
 43
0.0
 10
89.5092358141864
 20
2.481786002050663
 10
89.52090248085307
 20
2.481786002050663
 10
89.52090248085307
 20
2.481786002050663
 10
89.5092358141864
 20
2.48295266871733
 10
89.5092358141864
 20
2.48295266871733
 10
89.5092358141864
 20
2.481786002050663
 10
89.5092358141864
 20
2.481786002050663
  0
LWPOLYLINE
  5
19D9
330
A
100
AcDbEntity
  8
001
100
AcDbPolyline
 90
        7
 70
     0
 43
0.0
 10
89.52090248085307
 20
2.481786002050663
 10
89.5092358141864
 20
2.48295266871733
 10
89.5092358141864
 20
2.48295266871733
 10
89.52090248085307
 20
2.48295266871733
 10
89.52090248085307
 20
2.48295266871733
 10
89.52090248085307
 20
2.481786002050663
 10
89.52090248085307
 20
2.481786002050663
  0
LWPOLYLINE
  5
19DA
330
A
100
AcDbEntity
  8
001
100
AcDbPolyline
 90
        5
 70
     0
 43
0.0
 10
89.5092358141864
 20
2.47861891871733
 10
89.52090248085307
 20
2.47861891871733
 10
89.52090248085307
 20
2.47861891871733
 10
89.5092358141864
 20
2.479786974272885
 10
89.5092358141864
 20
2.47861891871733
  0
LWPOLYLINE
  5
19DB
330
A
100
AcDbEntity
  8
001
100
AcDbPolyline
 90
        5
 70
     0
 43
0.0
 10
89.52090248085307
 20
2.47861891871733
 10
89.5092358141864
 20
2.479786974272885
 10
89.5092358141864
 20
2.479786974272885
 10
89.52090248085307
 20
2.479786974272885
 10
89.52090248085307
 20
2.47861891871733
  0
LWPOLYLINE
  5
19DC
330
A
100
AcDbEntity
  8
001
100
AcDbPolyline
 90
        7
 70
     0
 43
0.0
 10
89.5092358141864
 20
2.47861891871733
 10
89.52090248085307
 20
2.47861891871733
 10
89.52090248085307
 20
2.47861891871733
 10
89.5092358141864
 20
2.479786974272885
 10
89.5092358141864
 20
2.479786974272885
 10
89.5092358141864
 20
2.47861891871733
 10
89.5092358141864
 20
2.47861891871733
  0
LWPOLYLINE
  5
19DD
330
A
100
AcDbEntity
  8
001
100
AcDbPolyline
 90
        7
 70
     0
 43
0.0
 10
89.52090248085307
 20
2.47861891871733
 10
89.5092358141864
 20
2.479786974272885
 10
89.5092358141864
 20
2.479786974272885
 10
89.52090248085307
 20
2.479786974272885
 10
89.52090248085307
 20
2.479786974272885
 10
89.52090248085307
 20
2.47861891871733
 10
89.52090248085307
 20
2.47861891871733
  0
LWPOLYLINE
  5
19DE
330
A
100
AcDbEntity
  8
001
100
AcDbPolyline
 90
        5
 70
     0
 43
0.0
 10
89.5092358141864
 20
2.475453224272885
 10
89.52090248085307
 20
2.475453224272885
 10
89.52090248085307
 20
2.475453224272885
 10
89.5092358141864
 20
2.476619890939552
 10
89.5092358141864
 20
2.475453224272885
  0
LWPOLYLINE
  5
19DF
330
A
100
AcDbEntity
  8
001
100
AcDbPolyline
 90
        5
 70
     0
 43
0.0
 10
89.52090248085307
 20
2.475453224272885
 10
89.5092358141864
 20
2.476619890939552
 10
89.5092358141864
 20
2.476619890939552
 10
89.52090248085307
 20
2.476619890939552
 10
89.52090248085307
 20
2.475453224272885
  0
LWPOLYLINE
  5
19E0
330
A
100
AcDbEntity
  8
001
100
AcDbPolyline
 90
        7
 70
     0
 43
0.0
 10
89.5092358141864
 20
2.475453224272885
 10
89.52090248085307
 20
2.475453224272885
 10
89.52090248085307
 20
2.475453224272885
 10
89.5092358141864
 20
2.476619890939552
 10
89.5092358141864
 20
2.476619890939552
 10
89.5092358141864
 20
2.475453224272885
 10
89.5092358141864
 20
2.475453224272885
  0
LWPOLYLINE
  5
19E1
330
A
100
AcDbEntity
  8
001
100
AcDbPolyline
 90
        7
 70
     0
 43
0.0
 10
89.52090248085307
 20
2.475453224272885
 10
89.5092358141864
 20
2.476619890939552
 10
89.5092358141864
 20
2.476619890939552
 10
89.52090248085307
 20
2.476619890939552
 10
89.52090248085307
 20
2.476619890939552
 10
89.52090248085307
 20
2.475453224272885
 10
89.52090248085307
 20
2.475453224272885
  0
LWPOLYLINE
  5
19E2
330
A
100
AcDbEntity
  8
001
100
AcDbPolyline
 90
        5
 70
     0
 43
0.0
 10
89.5092358141864
 20
2.472286140939552
 10
89.52090248085307
 20
2.472286140939552
 10
89.52090248085307
 20
2.472286140939552
 10
89.5092358141864
 20
2.473452807606219
 10
89.5092358141864
 20
2.472286140939552
  0
LWPOLYLINE
  5
19E3
330
A
100
AcDbEntity
  8
001
100
AcDbPolyline
 90
        5
 70
     0
 43
0.0
 10
89.52090248085307
 20
2.472286140939552
 10
89.5092358141864
 20
2.473452807606219
 10
89.5092358141864
 20
2.473452807606219
 10
89.52090248085307
 20
2.473452807606219
 10
89.52090248085307
 20
2.472286140939552
  0
LWPOLYLINE
  5
19E4
330
A
100
AcDbEntity
  8
001
100
AcDbPolyline
 90
        7
 70
     0
 43
0.0
 10
89.5092358141864
 20
2.472286140939552
 10
89.52090248085307
 20
2.472286140939552
 10
89.52090248085307
 20
2.472286140939552
 10
89.5092358141864
 20
2.473452807606219
 10
89.5092358141864
 20
2.473452807606219
 10
89.5092358141864
 20
2.472286140939552
 10
89.5092358141864
 20
2.472286140939552
  0
LWPOLYLINE
  5
19E5
330
A
100
AcDbEntity
  8
001
100
AcDbPolyline
 90
        7
 70
     0
 43
0.0
 10
89.52090248085307
 20
2.472286140939552
 10
89.5092358141864
 20
2.473452807606219
 10
89.5092358141864
 20
2.473452807606219
 10
89.52090248085307
 20
2.473452807606219
 10
89.52090248085307
 20
2.473452807606219
 10
89.52090248085307
 20
2.472286140939552
 10
89.52090248085307
 20
2.472286140939552
  0
LWPOLYLINE
  5
19E6
330
A
100
AcDbEntity
  8
001
100
AcDbPolyline
 90
        5
 70
     0
 43
0.0
 10
89.5092358141864
 20
2.469286002050663
 10
89.52090248085307
 20
2.469286002050663
 10
89.52090248085307
 20
2.469286002050663
 10
89.5092358141864
 20
2.470286002050662
 10
89.5092358141864
 20
2.469286002050663
  0
LWPOLYLINE
  5
19E7
330
A
100
AcDbEntity
  8
001
100
AcDbPolyline
 90
        5
 70
     0
 43
0.0
 10
89.52090248085307
 20
2.469286002050663
 10
89.5092358141864
 20
2.470286002050662
 10
89.5092358141864
 20
2.470286002050662
 10
89.52090248085307
 20
2.470286002050662
 10
89.52090248085307
 20
2.469286002050663
  0
LWPOLYLINE
  5
19E8
330
A
100
AcDbEntity
  8
001
100
AcDbPolyline
 90
        7
 70
     0
 43
0.0
 10
89.5092358141864
 20
2.469286002050663
 10
89.52090248085307
 20
2.469286002050663
 10
89.52090248085307
 20
2.469286002050663
 10
89.5092358141864
 20
2.470286002050662
 10
89.5092358141864
 20
2.470286002050662
 10
89.5092358141864
 20
2.469286002050663
 10
89.5092358141864
 20
2.469286002050663
  0
LWPOLYLINE
  5
19E9
330
A
100
AcDbEntity
  8
001
100
AcDbPolyline
 90
        7
 70
     0
 43
0.0
 10
89.52090248085307
 20
2.469286002050663
 10
89.5092358141864
 20
2.470286002050662
 10
89.5092358141864
 20
2.470286002050662
 10
89.52090248085307
 20
2.470286002050662
 10
89.52090248085307
 20
2.470286002050662
 10
89.52090248085307
 20
2.469286002050663
 10
89.52090248085307
 20
2.469286002050663
  0
LWPOLYLINE
  5
19EA
330
A
100
AcDbEntity
  8
001
100
AcDbPolyline
 90
        5
 70
     0
 43
0.0
 10
89.5092358141864
 20
2.46611891871733
 10
89.52090248085307
 20
2.46611891871733
 10
89.52090248085307
 20
2.46611891871733
 10
89.5092358141864
 20
2.467286974272885
 10
89.5092358141864
 20
2.46611891871733
  0
LWPOLYLINE
  5
19EB
330
A
100
AcDbEntity
  8
001
100
AcDbPolyline
 90
        5
 70
     0
 43
0.0
 10
89.52090248085307
 20
2.46611891871733
 10
89.5092358141864
 20
2.467286974272885
 10
89.5092358141864
 20
2.467286974272885
 10
89.52090248085307
 20
2.467286974272885
 10
89.52090248085307
 20
2.46611891871733
  0
LWPOLYLINE
  5
19EC
330
A
100
AcDbEntity
  8
001
100
AcDbPolyline
 90
        7
 70
     0
 43
0.0
 10
89.5092358141864
 20
2.46611891871733
 10
89.52090248085307
 20
2.46611891871733
 10
89.52090248085307
 20
2.46611891871733
 10
89.5092358141864
 20
2.467286974272885
 10
89.5092358141864
 20
2.467286974272885
 10
89.5092358141864
 20
2.46611891871733
 10
89.5092358141864
 20
2.46611891871733
  0
LWPOLYLINE
  5
19ED
330
A
100
AcDbEntity
  8
001
100
AcDbPolyline
 90
        7
 70
     0
 43
0.0
 10
89.52090248085307
 20
2.46611891871733
 10
89.5092358141864
 20
2.467286974272885
 10
89.5092358141864
 20
2.467286974272885
 10
89.52090248085307
 20
2.467286974272885
 10
89.52090248085307
 20
2.467286974272885
 10
89.52090248085307
 20
2.46611891871733
 10
89.52090248085307
 20
2.46611891871733
  0
LWPOLYLINE
  5
19EE
330
A
100
AcDbEntity
  8
001
100
AcDbPolyline
 90
        5
 70
     0
 43
0.0
 10
89.5092358141864
 20
2.462953224272885
 10
89.52090248085307
 20
2.462953224272885
 10
89.52090248085307
 20
2.462953224272885
 10
89.5092358141864
 20
2.464119890939552
 10
89.5092358141864
 20
2.462953224272885
  0
LWPOLYLINE
  5
19EF
330
A
100
AcDbEntity
  8
001
100
AcDbPolyline
 90
        5
 70
     0
 43
0.0
 10
89.52090248085307
 20
2.462953224272885
 10
89.5092358141864
 20
2.464119890939552
 10
89.5092358141864
 20
2.464119890939552
 10
89.52090248085307
 20
2.464119890939552
 10
89.52090248085307
 20
2.462953224272885
  0
LWPOLYLINE
  5
19F0
330
A
100
AcDbEntity
  8
001
100
AcDbPolyline
 90
        7
 70
     0
 43
0.0
 10
89.5092358141864
 20
2.462953224272885
 10
89.52090248085307
 20
2.462953224272885
 10
89.52090248085307
 20
2.462953224272885
 10
89.5092358141864
 20
2.464119890939552
 10
89.5092358141864
 20
2.464119890939552
 10
89.5092358141864
 20
2.462953224272885
 10
89.5092358141864
 20
2.462953224272885
  0
LWPOLYLINE
  5
19F1
330
A
100
AcDbEntity
  8
001
100
AcDbPolyline
 90
        7
 70
     0
 43
0.0
 10
89.52090248085307
 20
2.462953224272885
 10
89.5092358141864
 20
2.464119890939552
 10
89.5092358141864
 20
2.464119890939552
 10
89.52090248085307
 20
2.464119890939552
 10
89.52090248085307
 20
2.464119890939552
 10
89.52090248085307
 20
2.462953224272885
 10
89.52090248085307
 20
2.462953224272885
  0
LWPOLYLINE
  5
19F2
330
A
100
AcDbEntity
  8
001
100
AcDbPolyline
 90
        5
 70
     0
 43
0.0
 10
89.5092358141864
 20
2.459786140939552
 10
89.52090248085307
 20
2.459786140939552
 10
89.52090248085307
 20
2.459786140939552
 10
89.5092358141864
 20
2.460952807606219
 10
89.5092358141864
 20
2.459786140939552
  0
LWPOLYLINE
  5
19F3
330
A
100
AcDbEntity
  8
001
100
AcDbPolyline
 90
        5
 70
     0
 43
0.0
 10
89.52090248085307
 20
2.459786140939552
 10
89.5092358141864
 20
2.460952807606219
 10
89.5092358141864
 20
2.460952807606219
 10
89.52090248085307
 20
2.460952807606219
 10
89.52090248085307
 20
2.459786140939552
  0
LWPOLYLINE
  5
19F4
330
A
100
AcDbEntity
  8
001
100
AcDbPolyline
 90
        7
 70
     0
 43
0.0
 10
89.5092358141864
 20
2.459786140939552
 10
89.52090248085307
 20
2.459786140939552
 10
89.52090248085307
 20
2.459786140939552
 10
89.5092358141864
 20
2.460952807606219
 10
89.5092358141864
 20
2.460952807606219
 10
89.5092358141864
 20
2.459786140939552
 10
89.5092358141864
 20
2.459786140939552
  0
LWPOLYLINE
  5
19F5
330
A
100
AcDbEntity
  8
001
100
AcDbPolyline
 90
        7
 70
     0
 43
0.0
 10
89.52090248085307
 20
2.459786140939552
 10
89.5092358141864
 20
2.460952807606219
 10
89.5092358141864
 20
2.460952807606219
 10
89.52090248085307
 20
2.460952807606219
 10
89.52090248085307
 20
2.460952807606219
 10
89.52090248085307
 20
2.459786140939552
 10
89.52090248085307
 20
2.459786140939552
  0
LWPOLYLINE
  5
19F6
330
A
100
AcDbEntity
  8
001
100
AcDbPolyline
 90
        2
 70
     0
 43
0.0
 10
89.52090234196417
 20
2.486453085383995
 10
89.52090234196417
 20
2.456285029828441
  0
LWPOLYLINE
  5
19F7
330
A
100
AcDbEntity
  8
001
100
AcDbPolyline
 90
        2
 70
     0
 43
0.0
 10
89.5092358141864
 20
2.482952390939551
 10
89.5092358141864
 20
2.481785724272885
  0
LWPOLYLINE
  5
19F8
330
A
100
AcDbEntity
  8
001
100
AcDbPolyline
 90
        2
 70
     0
 43
0.0
 10
89.52540275863084
 20
2.452786140939552
 10
89.4930694252975
 20
2.452786140939552
  0
LWPOLYLINE
  5
19F9
330
A
100
AcDbEntity
  8
001
100
AcDbPolyline
 90
        2
 70
     0
 43
0.0
 10
89.49540261974195
 20
2.465619752050662
 10
89.49890261974195
 20
2.465619752050662
  0
LWPOLYLINE
  5
19FA
330
A
100
AcDbEntity
  8
001
100
AcDbPolyline
 90
        2
 70
     0
 43
0.0
 10
89.5022358141864
 20
2.462119057606219
 10
89.49890248085306
 20
2.462119057606219
  0
LWPOLYLINE
  5
19FB
330
A
100
AcDbEntity
  8
001
100
AcDbPolyline
 90
        2
 70
     0
 43
0.0
 10
89.52090234196417
 20
2.456285446495106
 10
89.50223567529752
 20
2.456285446495106
  0
LWPOLYLINE
  5
19FC
330
A
100
AcDbEntity
  8
001
100
AcDbPolyline
 90
        2
 70
     0
 43
0.0
 10
89.49306900863083
 20
2.452786140939552
 10
89.49306900863083
 20
2.489952807606218
  0
LWPOLYLINE
  5
19FD
330
A
100
AcDbEntity
  8
001
100
AcDbPolyline
 90
        2
 70
     0
 43
0.0
 10
89.49540261974195
 20
2.465619752050662
 10
89.49540261974195
 20
2.477118363161774
  0
LWPOLYLINE
  5
19FE
330
A
100
AcDbEntity
  8
001
100
AcDbPolyline
 90
        2
 70
     0
 43
0.0
 10
89.49890261974195
 20
2.462119057606219
 10
89.49890261974195
 20
2.465620446495107
  0
LWPOLYLINE
  5
19FF
330
A
100
AcDbEntity
  8
001
100
AcDbPolyline
 90
        2
 70
     0
 43
0.0
 10
89.49890261974195
 20
2.47711877982844
 10
89.49890261974195
 20
2.480620168717329
  0
LWPOLYLINE
  5
1A00
330
A
100
AcDbEntity
  8
001
100
AcDbPolyline
 90
        2
 70
     0
 43
0.0
 10
89.5022358141864
 20
2.456285446495106
 10
89.5022358141864
 20
2.462118779828441
  0
LWPOLYLINE
  5
1A01
330
A
100
AcDbEntity
  8
001
100
AcDbPolyline
 90
        2
 70
     0
 43
0.0
 10
89.5022358141864
 20
2.480619474272885
 10
89.5022358141864
 20
2.486452807606219
  0
LWPOLYLINE
  5
1A02
330
A
100
AcDbEntity
  8
001
100
AcDbPolyline
 90
        2
 70
     0
 43
0.0
 10
89.49306900863083
 20
2.489952529828441
 10
89.52540234196417
 20
2.489952529828441
  0
LWPOLYLINE
  5
1A03
330
A
100
AcDbEntity
  8
001
100
AcDbPolyline
 90
        2
 70
     0
 43
0.0
 10
89.5092358141864
 20
2.482952390939551
 10
89.52090248085307
 20
2.482952390939551
  0
LWPOLYLINE
  5
1A04
330
A
100
AcDbEntity
  8
001
100
AcDbPolyline
 90
        2
 70
     0
 43
0.0
 10
89.5092358141864
 20
2.481786002050663
 10
89.52090248085307
 20
2.481786002050663
  0
LWPOLYLINE
  5
1A05
330
A
100
AcDbEntity
  8
001
100
AcDbPolyline
 90
        2
 70
     0
 43
0.0
 10
89.49890261974195
 20
2.47711877982844
 10
89.49540261974195
 20
2.47711877982844
  0
LWPOLYLINE
  5
1A06
330
A
100
AcDbEntity
  8
001
100
AcDbPolyline
 90
        2
 70
     0
 43
0.0
 10
89.49890261974195
 20
2.480619474272885
 10
89.50223595307528
 20
2.480619474272885
  0
LWPOLYLINE
  5
1A07
330
A
100
AcDbEntity
  8
001
100
AcDbPolyline
 90
        2
 70
     0
 43
0.0
 10
89.5022358141864
 20
2.486453085383995
 10
89.52090248085307
 20
2.486453085383995
  0
LWPOLYLINE
  5
1A08
330
A
100
AcDbEntity
  8
001
100
AcDbPolyline
 90
        6
 70
     0
 43
0.0
 10
89.52090234196417
 20
2.479786696495107
 10
89.5092356752975
 20
2.479786696495107
 10
89.5092356752975
 20
2.479786696495107
 10
89.5092356752975
 20
2.478618640939552
 10
89.5092356752975
 20
2.478618640939552
 10
89.52090234196417
 20
2.478618640939552
  0
LWPOLYLINE
  5
1A09
330
A
100
AcDbEntity
  8
001
100
AcDbPolyline
 90
        6
 70
     0
 43
0.0
 10
89.52090234196417
 20
2.476619752050662
 10
89.5092356752975
 20
2.476619752050662
 10
89.5092356752975
 20
2.476619752050662
 10
89.5092356752975
 20
2.475453085383996
 10
89.5092356752975
 20
2.475453085383996
 10
89.52090234196417
 20
2.475453085383996
  0
LWPOLYLINE
  5
1A0A
330
A
100
AcDbEntity
  8
001
100
AcDbPolyline
 90
        6
 70
     0
 43
0.0
 10
89.52090234196417
 20
2.473452668717329
 10
89.5092356752975
 20
2.473452668717329
 10
89.5092356752975
 20
2.473452668717329
 10
89.5092356752975
 20
2.472286002050663
 10
89.5092356752975
 20
2.472286002050663
 10
89.52090234196417
 20
2.472286002050663
  0
LWPOLYLINE
  5
1A0B
330
A
100
AcDbEntity
  8
001
100
AcDbPolyline
 90
        6
 70
     0
 43
0.0
 10
89.52090234196417
 20
2.470285585383996
 10
89.5092356752975
 20
2.470285585383996
 10
89.5092356752975
 20
2.470285585383996
 10
89.5092356752975
 20
2.469285585383996
 10
89.5092356752975
 20
2.469285585383996
 10
89.52090234196417
 20
2.469285585383996
  0
LWPOLYLINE
  5
1A0C
330
A
100
AcDbEntity
  8
001
100
AcDbPolyline
 90
        6
 70
     0
 43
0.0
 10
89.52090234196417
 20
2.467286696495107
 10
89.5092356752975
 20
2.467286696495107
 10
89.5092356752975
 20
2.467286696495107
 10
89.5092356752975
 20
2.466118640939551
 10
89.5092356752975
 20
2.466118640939551
 10
89.52090234196417
 20
2.466118640939551
  0
LWPOLYLINE
  5
1A0D
330
A
100
AcDbEntity
  8
001
100
AcDbPolyline
 90
        6
 70
     0
 43
0.0
 10
89.52090234196417
 20
2.464119752050663
 10
89.5092356752975
 20
2.464119752050663
 10
89.5092356752975
 20
2.464119752050663
 10
89.5092356752975
 20
2.462953085383996
 10
89.5092356752975
 20
2.462953085383996
 10
89.52090234196417
 20
2.462953085383996
  0
LWPOLYLINE
  5
1A0E
330
A
100
AcDbEntity
  8
001
100
AcDbPolyline
 90
        6
 70
     0
 43
0.0
 10
89.52090234196417
 20
2.46095266871733
 10
89.5092356752975
 20
2.46095266871733
 10
89.5092356752975
 20
2.46095266871733
 10
89.5092356752975
 20
2.459786002050663
 10
89.5092356752975
 20
2.459786002050663
 10
89.52090234196417
 20
2.459786002050663
  0
LWPOLYLINE
  5
1A0F
330
A
100
AcDbEntity
  8
001
100
AcDbPolyline
 90
        5
 70
     0
 43
0.0
 10
89.49540261974195
 20
2.481786002050663
 10
89.50006928640862
 20
2.481786002050663
 10
89.50006928640862
 20
2.481786002050663
 10
89.49540261974195
 20
2.488786002050662
 10
89.49540261974195
 20
2.481786002050663
  0
LWPOLYLINE
  5
1A10
330
A
100
AcDbEntity
  8
001
100
AcDbPolyline
 90
        5
 70
     0
 43
0.0
 10
89.50006928640862
 20
2.481786002050663
 10
89.49540261974195
 20
2.488786002050662
 10
89.49540261974195
 20
2.488786002050662
 10
89.50006928640862
 20
2.488786002050662
 10
89.50006928640862
 20
2.481786002050663
  0
LWPOLYLINE
  5
1A11
330
A
100
AcDbEntity
  8
001
100
AcDbPolyline
 90
        7
 70
     0
 43
0.0
 10
89.49540261974195
 20
2.481786002050663
 10
89.50006928640862
 20
2.481786002050663
 10
89.50006928640862
 20
2.481786002050663
 10
89.49540261974195
 20
2.488786002050662
 10
89.49540261974195
 20
2.488786002050662
 10
89.49540261974195
 20
2.481786002050663
 10
89.49540261974195
 20
2.481786002050663
  0
LWPOLYLINE
  5
1A12
330
A
100
AcDbEntity
  8
001
100
AcDbPolyline
 90
        7
 70
     0
 43
0.0
 10
89.50006928640862
 20
2.481786002050663
 10
89.49540261974195
 20
2.488786002050662
 10
89.49540261974195
 20
2.488786002050662
 10
89.50006928640862
 20
2.488786002050662
 10
89.50006928640862
 20
2.488786002050662
 10
89.50006928640862
 20
2.481786002050663
 10
89.50006928640862
 20
2.481786002050663
  0
LWPOLYLINE
  5
1A13
330
A
100
AcDbEntity
  8
001
100
AcDbPolyline
 90
        8
 70
     0
 43
0.0
 10
89.49540261974195
 20
2.488786140939552
 10
89.50006928640862
 20
2.488786140939552
 10
89.50006928640862
 20
2.488786140939552
 10
89.50006928640862
 20
2.481786140939552
 10
89.50006928640862
 20
2.481786140939552
 10
89.49540261974195
 20
2.481786140939552
 10
89.49540261974195
 20
2.481786140939552
 10
89.49540261974195
 20
2.488786140939552
  0
LWPOLYLINE
  5
1A14
330
A
100
AcDbEntity
  8
001
100
AcDbPolyline
 90
        5
 70
     0
 43
0.0
 10
89.49540261974195
 20
2.453952529828441
 10
89.50006928640862
 20
2.453952529828441
 10
89.50006928640862
 20
2.453952529828441
 10
89.49540261974195
 20
2.46095252982844
 10
89.49540261974195
 20
2.453952529828441
  0
LWPOLYLINE
  5
1A15
330
A
100
AcDbEntity
  8
001
100
AcDbPolyline
 90
        5
 70
     0
 43
0.0
 10
89.50006928640862
 20
2.453952529828441
 10
89.49540261974195
 20
2.46095252982844
 10
89.49540261974195
 20
2.46095252982844
 10
89.50006928640862
 20
2.46095252982844
 10
89.50006928640862
 20
2.453952529828441
  0
LWPOLYLINE
  5
1A16
330
A
100
AcDbEntity
  8
001
100
AcDbPolyline
 90
        7
 70
     0
 43
0.0
 10
89.49540261974195
 20
2.453952529828441
 10
89.50006928640862
 20
2.453952529828441
 10
89.50006928640862
 20
2.453952529828441
 10
89.49540261974195
 20
2.46095252982844
 10
89.49540261974195
 20
2.46095252982844
 10
89.49540261974195
 20
2.453952529828441
 10
89.49540261974195
 20
2.453952529828441
  0
LWPOLYLINE
  5
1A17
330
A
100
AcDbEntity
  8
001
100
AcDbPolyline
 90
        7
 70
     0
 43
0.0
 10
89.50006928640862
 20
2.453952529828441
 10
89.49540261974195
 20
2.46095252982844
 10
89.49540261974195
 20
2.46095252982844
 10
89.50006928640862
 20
2.46095252982844
 10
89.50006928640862
 20
2.46095252982844
 10
89.50006928640862
 20
2.453952529828441
 10
89.50006928640862
 20
2.453952529828441
  0
LWPOLYLINE
  5
1A18
330
A
100
AcDbEntity
  8
001
100
AcDbPolyline
 90
        8
 70
     0
 43
0.0
 10
89.49540261974195
 20
2.460952807606219
 10
89.50006928640862
 20
2.460952807606219
 10
89.50006928640862
 20
2.460952807606219
 10
89.50006928640862
 20
2.453952807606219
 10
89.50006928640862
 20
2.453952807606219
 10
89.49540261974195
 20
2.453952807606219
 10
89.49540261974195
 20
2.453952807606219
 10
89.49540261974195
 20
2.460952807606219
  0
LWPOLYLINE
  5
1A19
330
A
100
AcDbEntity
  8
001
100
AcDbPolyline
 90
       10
 70
     0
 43
0.0
 10
89.52706900863084
 20
2.483953363161774
 10
89.52940234196416
 20
2.483953363161774
 10
89.52940234196416
 20
2.483953363161774
 10
89.53023567529751
 20
2.484786696495107
 10
89.53023567529751
 20
2.484786696495107
 10
89.53023567529751
 20
2.487953363161774
 10
89.53023567529751
 20
2.487953363161774
 10
89.52940234196416
 20
2.488785307606219
 10
89.52940234196416
 20
2.488785307606219
 10
89.52706900863084
 20
2.488785307606219
  0
LWPOLYLINE
  5
1A1A
330
A
100
AcDbEntity
  8
001
100
AcDbPolyline
 90
        2
 70
     0
 43
0.0
 10
89.52790248085307
 20
2.488786002050662
 10
89.52790248085307
 20
2.483954057606219
  0
LWPOLYLINE
  5
1A1B
330
A
100
AcDbEntity
  8
001
100
AcDbPolyline
 90
       16
 70
     0
 43
0.0
 10
89.53356914751973
 20
2.483953363161774
 10
89.5327358141864
 20
2.483953363161774
 10
89.5327358141864
 20
2.483953363161774
 10
89.53190248085306
 20
2.484786696495107
 10
89.53190248085306
 20
2.484786696495107
 10
89.53190248085306
 20
2.486453363161774
 10
89.53190248085306
 20
2.486453363161774
 10
89.5327358141864
 20
2.487285307606219
 10
89.5327358141864
 20
2.487285307606219
 10
89.53356914751973
 20
2.487285307606219
 10
89.53356914751973
 20
2.487285307606219
 10
89.53440248085305
 20
2.486453363161774
 10
89.53440248085305
 20
2.486453363161774
 10
89.53440248085305
 20
2.484786696495107
 10
89.53440248085305
 20
2.484786696495107
 10
89.53356914751973
 20
2.483953363161774
  0
LWPOLYLINE
  5
1A1C
330
A
100
AcDbEntity
  8
001
100
AcDbPolyline
 90
        2
 70
     0
 43
0.0
 10
89.53440261974195
 20
2.484786140939552
 10
89.53523595307528
 20
2.483952807606219
  0
LWPOLYLINE
  5
1A1D
330
A
100
AcDbEntity
  8
001
100
AcDbPolyline
 90
        2
 70
     0
 43
0.0
 10
89.53690234196418
 20
2.487285863161774
 10
89.5402356752975
 20
2.487285863161774
  0
LWPOLYLINE
  5
1A1E
330
A
100
AcDbEntity
  8
001
100
AcDbPolyline
 90
        6
 70
     0
 43
0.0
 10
89.53856928640862
 20
2.488786002050662
 10
89.53856928640862
 20
2.484786002050663
 10
89.53856928640862
 20
2.484786002050663
 10
89.53940261974194
 20
2.483954057606219
 10
89.53940261974194
 20
2.483954057606219
 10
89.54023595307528
 20
2.484786002050663
  0
LWPOLYLINE
  5
1A1F
330
A
100
AcDbEntity
  8
001
100
AcDbPolyline
 90
       16
 70
     0
 43
0.0
 10
89.54340261974195
 20
2.483953363161774
 10
89.54256928640862
 20
2.483953363161774
 10
89.54256928640862
 20
2.483953363161774
 10
89.54173595307528
 20
2.484786696495107
 10
89.54173595307528
 20
2.484786696495107
 10
89.54173595307528
 20
2.486453363161774
 10
89.54173595307528
 20
2.486453363161774
 10
89.54256928640862
 20
2.487285307606219
 10
89.54256928640862
 20
2.487285307606219
 10
89.54340261974195
 20
2.487285307606219
 10
89.54340261974195
 20
2.487285307606219
 10
89.54423595307529
 20
2.486453363161774
 10
89.54423595307529
 20
2.486453363161774
 10
89.54423595307529
 20
2.484786696495107
 10
89.54423595307529
 20
2.484786696495107
 10
89.54340261974195
 20
2.483953363161774
  0
LWPOLYLINE
  5
1A20
330
A
100
AcDbEntity
  8
001
100
AcDbPolyline
 90
        2
 70
     0
 43
0.0
 10
89.54423609196417
 20
2.484786140939552
 10
89.54506942529752
 20
2.483952807606219
  0
LWPOLYLINE
  5
1A21
330
A
100
AcDbEntity
  8
001
100
AcDbPolyline
 90
        4
 70
     0
 43
0.0
 10
89.69256914751973
 20
2.475785585383996
 10
89.69256914751973
 20
2.470785585383996
 10
89.69256914751973
 20
2.470785585383996
 10
89.69590248085307
 20
2.470785585383996
  0
LWPOLYLINE
  5
1A22
330
A
100
AcDbEntity
  8
001
100
AcDbPolyline
 90
        2
 70
     0
 43
0.0
 10
89.69756859196419
 20
2.470786140939551
 10
89.69756859196419
 20
2.474119474272884
  0
LWPOLYLINE
  5
1A23
330
A
100
AcDbEntity
  8
001
100
AcDbPolyline
 90
        2
 70
     0
 43
0.0
 10
89.69756859196419
 20
2.474952807606219
 10
89.69756859196419
 20
2.475786140939552
  0
LWPOLYLINE
  5
1A24
330
A
100
AcDbEntity
  8
001
100
AcDbPolyline
 90
        2
 70
     0
 43
0.0
 10
89.69923553640862
 20
2.470786140939551
 10
89.69923553640862
 20
2.474119474272884
  0
LWPOLYLINE
  5
1A25
330
A
100
AcDbEntity
  8
001
100
AcDbPolyline
 90
        8
 70
     0
 43
0.0
 10
89.69923553640862
 20
2.472453085383996
 10
89.70073553640862
 20
2.474119752050663
 10
89.70073553640862
 20
2.474119752050663
 10
89.70157025863084
 20
2.474119752050663
 10
89.70157025863084
 20
2.474119752050663
 10
89.70240220307529
 20
2.47328641871733
 10
89.70240220307529
 20
2.47328641871733
 10
89.70240220307529
 20
2.47078641871733
  0
LWPOLYLINE
  5
1A26
330
A
100
AcDbEntity
  8
001
100
AcDbPolyline
 90
        2
 70
     0
 43
0.0
 10
89.7040695641864
 20
2.470786140939551
 10
89.7040695641864
 20
2.475786140939552
  0
LWPOLYLINE
  5
1A27
330
A
100
AcDbEntity
  8
001
100
AcDbPolyline
 90
        4
 70
     0
 43
0.0
 10
89.7040695641864
 20
2.472453085383996
 10
89.70573623085305
 20
2.472453085383996
 10
89.70573623085305
 20
2.472453085383996
 10
89.70740150863084
 20
2.474119752050663
  0
LWPOLYLINE
  5
1A28
330
A
100
AcDbEntity
  8
001
100
AcDbPolyline
 90
        2
 70
     0
 43
0.0
 10
89.70573650863086
 20
2.472453085383996
 10
89.70740178640863
 20
2.47078641871733
  0
LWPOLYLINE
  5
1A29
330
A
100
AcDbEntity
  8
001
100
AcDbPolyline
 90
       10
 70
     0
 43
0.0
 10
89.49440289751974
 20
2.437285863161774
 10
89.4975695641864
 20
2.437285863161774
 10
89.4975695641864
 20
2.437285863161774
 10
89.49873623085307
 20
2.438285863161774
 10
89.49873623085307
 20
2.438285863161774
 10
89.49873623085307
 20
2.442785863161774
 10
89.49873623085307
 20
2.442785863161774
 10
89.4975695641864
 20
2.443785863161774
 10
89.4975695641864
 20
2.443785863161774
 10
89.49440289751974
 20
2.443785863161774
  0
LWPOLYLINE
  5
1A2A
330
A
100
AcDbEntity
  8
001
100
AcDbPolyline
 90
        2
 70
     0
 43
0.0
 10
89.49540261974195
 20
2.443785446495107
 10
89.49540261974195
 20
2.437285446495107
  0
LWPOLYLINE
  5
1A2B
330
A
100
AcDbEntity
  8
001
100
AcDbPolyline
 90
       16
 70
     0
 43
0.0
 10
89.50306928640861
 20
2.437285863161774
 10
89.50206928640863
 20
2.437285863161774
 10
89.50206928640863
 20
2.437285863161774
 10
89.50090261974194
 20
2.438285863161774
 10
89.50090261974194
 20
2.438285863161774
 10
89.50090261974194
 20
2.440619196495107
 10
89.50090261974194
 20
2.440619196495107
 10
89.50206928640863
 20
2.441619196495107
 10
89.50206928640863
 20
2.441619196495107
 10
89.50306928640861
 20
2.441619196495107
 10
89.50306928640861
 20
2.441619196495107
 10
89.5042359530753
 20
2.440619196495107
 10
89.5042359530753
 20
2.440619196495107
 10
89.5042359530753
 20
2.438285863161774
 10
89.5042359530753
 20
2.438285863161774
 10
89.50306928640861
 20
2.437285863161774
  0
LWPOLYLINE
  5
1A2C
330
A
100
AcDbEntity
  8
001
100
AcDbPolyline
 90
        2
 70
     0
 43
0.0
 10
89.50423567529751
 20
2.438285585383995
 10
89.50523567529751
 20
2.437285585383996
  0
LWPOLYLINE
  5
1A2D
330
A
100
AcDbEntity
  8
001
100
AcDbPolyline
 90
        2
 70
     0
 43
0.0
 10
89.5075695641864
 20
2.441619474272885
 10
89.51190289751973
 20
2.441619474272885
  0
LWPOLYLINE
  5
1A2E
330
A
100
AcDbEntity
  8
001
100
AcDbPolyline
 90
        6
 70
     0
 43
0.0
 10
89.5097356752975
 20
2.443785446495107
 10
89.5097356752975
 20
2.438285446495107
 10
89.5097356752975
 20
2.438285446495107
 10
89.51073567529752
 20
2.437285446495107
 10
89.51073567529752
 20
2.437285446495107
 10
89.51190234196417
 20
2.438285446495107
  0
LWPOLYLINE
  5
1A2F
330
A
100
AcDbEntity
  8
001
100
AcDbPolyline
 90
       16
 70
     0
 43
0.0
 10
89.51623595307529
 20
2.437285863161774
 10
89.51523595307529
 20
2.437285863161774
 10
89.51523595307529
 20
2.437285863161774
 10
89.51406928640862
 20
2.438285863161774
 10
89.51406928640862
 20
2.438285863161774
 10
89.51406928640862
 20
2.440619196495107
 10
89.51406928640862
 20
2.440619196495107
 10
89.51523595307529
 20
2.441619196495107
 10
89.51523595307529
 20
2.441619196495107
 10
89.51623595307529
 20
2.441619196495107
 10
89.51623595307529
 20
2.441619196495107
 10
89.51740261974196
 20
2.440619196495107
 10
89.51740261974196
 20
2.440619196495107
 10
89.51740261974196
 20
2.438285863161774
 10
89.51740261974196
 20
2.438285863161774
 10
89.51623595307529
 20
2.437285863161774
  0
LWPOLYLINE
  5
1A30
330
A
100
AcDbEntity
  8
001
100
AcDbPolyline
 90
        2
 70
     0
 43
0.0
 10
89.51740234196417
 20
2.438285585383995
 10
89.51840234196417
 20
2.437285585383996
  0
LWPOLYLINE
  5
1A31
330
A
100
AcDbEntity
  8
001
100
AcDbPolyline
 90
        2
 70
     0
 43
0.0
 10
89.52490289751974
 20
2.443785446495107
 10
89.52706956418641
 20
2.443785446495107
  0
LWPOLYLINE
  5
1A32
330
A
100
AcDbEntity
  8
001
100
AcDbPolyline
 90
        2
 70
     0
 43
0.0
 10
89.52606928640863
 20
2.443785446495107
 10
89.52606928640863
 20
2.437285446495107
  0
LWPOLYLINE
  5
1A33
330
A
100
AcDbEntity
  8
001
100
AcDbPolyline
 90
        2
 70
     0
 43
0.0
 10
89.52490289751974
 20
2.437285863161774
 10
89.52706956418641
 20
2.437285863161774
  0
LWPOLYLINE
  5
1A34
330
A
100
AcDbEntity
  8
001
100
AcDbPolyline
 90
        6
 70
     0
 43
0.0
 10
89.52923567529751
 20
2.437285863161774
 10
89.52923567529751
 20
2.443785863161774
 10
89.52923567529751
 20
2.443785863161774
 10
89.5337356752975
 20
2.437285863161774
 10
89.5337356752975
 20
2.437285863161774
 10
89.5337356752975
 20
2.443785863161774
  0
LWPOLYLINE
  5
1A35
330
A
100
AcDbEntity
  8
001
100
AcDbPolyline
 90
       10
 70
     0
 43
0.0
 10
89.69356942529751
 20
2.423953085383995
 10
89.69690275863085
 20
2.423953085383995
 10
89.69690275863085
 20
2.423953085383995
 10
89.6980694252975
 20
2.425119752050663
 10
89.6980694252975
 20
2.425119752050663
 10
89.6980694252975
 20
2.429453085383996
 10
89.6980694252975
 20
2.429453085383996
 10
89.69690275863085
 20
2.430619752050663
 10
89.69690275863085
 20
2.430619752050663
 10
89.69356942529751
 20
2.430619752050663
  0
LWPOLYLINE
  5
1A36
330
A
100
AcDbEntity
  8
001
100
AcDbPolyline
 90
        2
 70
     0
 43
0.0
 10
89.69473664751973
 20
2.430619474272885
 10
89.69473664751973
 20
2.423952807606219
  0
LWPOLYLINE
  5
1A37
330
A
100
AcDbEntity
  8
001
100
AcDbPolyline
 90
       16
 70
     0
 43
0.0
 10
89.70240261974195
 20
2.423953085383995
 10
89.70140261974195
 20
2.423953085383995
 10
89.70140261974195
 20
2.423953085383995
 10
89.70023595307528
 20
2.425119752050663
 10
89.70023595307528
 20
2.425119752050663
 10
89.70023595307528
 20
2.42728502982844
 10
89.70023595307528
 20
2.42728502982844
 10
89.70140261974195
 20
2.428453085383996
 10
89.70140261974195
 20
2.428453085383996
 10
89.70240261974195
 20
2.428453085383996
 10
89.70240261974195
 20
2.428453085383996
 10
89.70356928640862
 20
2.42728502982844
 10
89.70356928640862
 20
2.42728502982844
 10
89.70356928640862
 20
2.425119752050663
 10
89.70356928640862
 20
2.425119752050663
 10
89.70240261974195
 20
2.423953085383995
  0
LWPOLYLINE
  5
1A38
330
A
100
AcDbEntity
  8
001
100
AcDbPolyline
 90
        2
 70
     0
 43
0.0
 10
89.70356900863086
 20
2.425119613161774
 10
89.70456900863084
 20
2.423952946495107
  0
LWPOLYLINE
  5
1A39
330
A
100
AcDbEntity
  8
001
100
AcDbPolyline
 90
        2
 70
     0
 43
0.0
 10
89.70673609196417
 20
2.428453502050663
 10
89.71123609196418
 20
2.428453502050663
  0
LWPOLYLINE
  5
1A3A
330
A
100
AcDbEntity
  8
001
100
AcDbPolyline
 90
        6
 70
     0
 43
0.0
 10
89.70906900863084
 20
2.430619474272885
 10
89.70906900863084
 20
2.425119474272884
 10
89.70906900863084
 20
2.425119474272884
 10
89.71006900863084
 20
2.423952807606219
 10
89.71006900863084
 20
2.423952807606219
 10
89.71123706418641
 20
2.425119474272884
  0
LWPOLYLINE
  5
1A3B
330
A
100
AcDbEntity
  8
001
100
AcDbPolyline
 90
       16
 70
     0
 43
0.0
 10
89.71556998085306
 20
2.423953085383995
 10
89.71456859196418
 20
2.423953085383995
 10
89.71456859196418
 20
2.423953085383995
 10
89.7134019252975
 20
2.425119752050663
 10
89.7134019252975
 20
2.425119752050663
 10
89.7134019252975
 20
2.42728502982844
 10
89.7134019252975
 20
2.42728502982844
 10
89.71456859196418
 20
2.428453085383996
 10
89.71456859196418
 20
2.428453085383996
 10
89.71556998085306
 20
2.428453085383996
 10
89.71556998085306
 20
2.428453085383996
 10
89.71673664751973
 20
2.42728502982844
 10
89.71673664751973
 20
2.42728502982844
 10
89.71673664751973
 20
2.425119752050663
 10
89.71673664751973
 20
2.425119752050663
 10
89.71556998085306
 20
2.423953085383995
  0
LWPOLYLINE
  5
1A3C
330
A
100
AcDbEntity
  8
001
100
AcDbPolyline
 90
        2
 70
     0
 43
0.0
 10
89.71673636974195
 20
2.425119613161774
 10
89.71773636974196
 20
2.423952946495107
  0
LWPOLYLINE
  5
1A3D
330
A
100
AcDbEntity
  8
001
100
AcDbPolyline
 90
        8
 70
     0
 43
0.0
 10
89.7242359530753
 20
2.430619474272885
 10
89.72856928640862
 20
2.430619474272885
 10
89.72856928640862
 20
2.430619474272885
 10
89.72856928640862
 20
2.423952807606219
 10
89.72856928640862
 20
2.423952807606219
 10
89.7242359530753
 20
2.423952807606219
 10
89.7242359530753
 20
2.423952807606219
 10
89.7242359530753
 20
2.430619474272885
  0
LWPOLYLINE
  5
1A3E
330
A
100
AcDbEntity
  8
001
100
AcDbPolyline
 90
       10
 70
     0
 43
0.0
 10
89.73073650863083
 20
2.430619474272885
 10
89.73073650863083
 20
2.425119474272884
 10
89.73073650863083
 20
2.425119474272884
 10
89.73190317529752
 20
2.423952807606219
 10
89.73190317529752
 20
2.423952807606219
 10
89.73406845307529
 20
2.423952807606219
 10
89.73406845307529
 20
2.423952807606219
 10
89.73523511974196
 20
2.425119474272884
 10
89.73523511974196
 20
2.425119474272884
 10
89.73523511974196
 20
2.430619474272885
  0
LWPOLYLINE
  5
1A3F
330
A
100
AcDbEntity
  8
001
100
AcDbPolyline
 90
        2
 70
     0
 43
0.0
 10
89.73740289751972
 20
2.430619474272885
 10
89.74173623085306
 20
2.430619474272885
  0
LWPOLYLINE
  5
1A40
330
A
100
AcDbEntity
  8
001
100
AcDbPolyline
 90
        2
 70
     0
 43
0.0
 10
89.73956900863084
 20
2.430619474272885
 10
89.73956900863084
 20
2.423952807606219
  0
LWPOLYLINE
  5
1A41
330
A
100
AcDbEntity
  8
001
100
AcDbPolyline
 90
        2
 70
     0
 43
0.0
 10
89.48806956418641
 20
2.710788403480251
 10
89.48806956418641
 20
2.725621736813585
  0
LWPOLYLINE
  5
1A42
330
A
100
AcDbEntity
  8
001
100
AcDbPolyline
 90
        2
 70
     0
 43
0.0
 10
89.74490206418641
 20
2.710788403480251
 10
89.74490206418641
 20
2.725621736813585
  0
LWPOLYLINE
  5
1A43
330
A
100
AcDbEntity
  8
001
100
AcDbPolyline
 90
        2
 70
     0
 43
0.0
 10
89.48806956418641
 20
2.721621459035807
 10
89.74490206418641
 20
2.721621459035807
  0
LWPOLYLINE
  5
1A4A
330
A
100
AcDbEntity
  8
001
100
AcDbPolyline
 90
        2
 70
     0
 43
0.0
 10
89.74690261974195
 20
2.70878854236914
 10
89.76306928640862
 20
2.70878854236914
  0
LWPOLYLINE
  5
1A4B
330
A
100
AcDbEntity
  8
001
100
AcDbPolyline
 90
        2
 70
     0
 43
0.0
 10
89.74690261974195
 20
2.626454792369141
 10
89.76306928640862
 20
2.626454792369141
  0
LWPOLYLINE
  5
1A4C
330
A
100
AcDbEntity
  8
001
100
AcDbPolyline
 90
        2
 70
     0
 43
0.0
 10
89.7589022030753
 20
2.70878854236914
 10
89.7589022030753
 20
2.626454792369141
  0
LWPOLYLINE
  5
1A53
330
A
100
AcDbEntity
  8
001
100
AcDbPolyline
 90
        2
 70
     0
 43
0.0
 10
89.87248203828086
 20
2.540452946495107
 10
89.8953153716142
 20
2.540452946495107
  0
LWPOLYLINE
  5
1A54
330
A
100
AcDbEntity
  8
001
100
AcDbPolyline
 90
        2
 70
     0
 43
0.0
 10
89.87248203828086
 20
2.402285585383995
 10
89.8953153716142
 20
2.402285585383995
  0
LWPOLYLINE
  5
1A55
330
A
100
AcDbEntity
  8
001
100
AcDbPolyline
 90
        2
 70
     0
 43
0.0
 10
89.89114926050309
 20
2.540452946495107
 10
89.89114926050309
 20
2.402285585383995
  0
LWPOLYLINE
  5
1A5C
330
A
100
AcDbEntity
  8
001
100
AcDbPolyline
 90
        2
 70
     0
 43
0.0
 10
89.45523595307529
 20
2.529453085383996
 10
89.45523595307529
 20
2.563119752050663
  0
LWPOLYLINE
  5
1A5D
330
A
100
AcDbEntity
  8
001
100
AcDbPolyline
 90
        2
 70
     0
 43
0.0
 10
89.74490206418641
 20
2.542619752050663
 10
89.74490206418641
 20
2.563119752050663
  0
LWPOLYLINE
  5
1A5E
330
A
100
AcDbEntity
  8
001
100
AcDbPolyline
 90
        2
 70
     0
 43
0.0
 10
89.45523595307529
 20
2.55895266871733
 10
89.74490206418641
 20
2.55895266871733
  0
LWPOLYLINE
  5
1A65
330
A
100
AcDbEntity
  8
001
100
AcDbPolyline
 90
       10
 70
     0
 43
0.0
 10
89.71323567529751
 20
2.49695252982844
 10
89.71557039751973
 20
2.49695252982844
 10
89.71557039751973
 20
2.49695252982844
 10
89.71640234196419
 20
2.497787252050663
 10
89.71640234196419
 20
2.497787252050663
 10
89.71640234196419
 20
2.500785863161774
 10
89.71640234196419
 20
2.500785863161774
 10
89.71557039751973
 20
2.501619196495107
 10
89.71557039751973
 20
2.501619196495107
 10
89.71323567529751
 20
2.501619196495107
  0
LWPOLYLINE
  5
1A66
330
A
100
AcDbEntity
  8
001
100
AcDbPolyline
 90
        2
 70
     0
 43
0.0
 10
89.71406984196418
 20
2.501619752050663
 10
89.71406984196418
 20
2.496953085383996
  0
LWPOLYLINE
  5
1A67
330
A
100
AcDbEntity
  8
001
100
AcDbPolyline
 90
       14
 70
     0
 43
0.0
 10
89.72090303640861
 20
2.497786696495106
 10
89.72023636974196
 20
2.496951974272885
 10
89.72023636974196
 20
2.496951974272885
 10
89.71873498085306
 20
2.496951974272885
 10
89.71873498085306
 20
2.496951974272885
 10
89.71790303640863
 20
2.497786696495106
 10
89.71790303640863
 20
2.497786696495106
 10
89.71790303640863
 20
2.500785307606219
 10
89.71790303640863
 20
2.500785307606219
 10
89.71873498085306
 20
2.501620029828441
 10
89.71873498085306
 20
2.501620029828441
 10
89.72023636974196
 20
2.501620029828441
 10
89.72023636974196
 20
2.501620029828441
 10
89.72090303640861
 20
2.500785307606219
  0
LWPOLYLINE
  5
1A68
330
A
100
AcDbEntity
  8
001
100
AcDbPolyline
 90
        6
 70
     0
 43
0.0
 10
89.72856900863083
 20
2.498452668717329
 10
89.72556900863084
 20
2.498452668717329
 10
89.72556900863084
 20
2.498452668717329
 10
89.72773567529751
 20
2.501619335383995
 10
89.72773567529751
 20
2.501619335383995
 10
89.72773567529751
 20
2.49695266871733
  0
LWPOLYLINE
  5
1A69
330
A
100
AcDbEntity
  8
001
100
AcDbPolyline
 90
       30
 70
     0
 43
0.0
 10
89.7324020641864
 20
2.499286835383996
 10
89.73323678640863
 20
2.498452113161774
 10
89.73323678640863
 20
2.498452113161774
 10
89.73323678640863
 20
2.497786835383996
 10
89.73323678640863
 20
2.497786835383996
 10
89.7324020641864
 20
2.496952113161774
 10
89.7324020641864
 20
2.496952113161774
 10
89.73090206418639
 20
2.496952113161774
 10
89.73090206418639
 20
2.496952113161774
 10
89.73006873085306
 20
2.497786835383996
 10
89.73006873085306
 20
2.497786835383996
 10
89.73006873085306
 20
2.498452113161774
 10
89.73006873085306
 20
2.498452113161774
 10
89.73090206418639
 20
2.499286835383996
 10
89.73090206418639
 20
2.499286835383996
 10
89.7324020641864
 20
2.499286835383996
 10
89.7324020641864
 20
2.499286835383996
 10
89.73323678640863
 20
2.499952113161774
 10
89.73323678640863
 20
2.499952113161774
 10
89.73323678640863
 20
2.500785446495107
 10
89.73323678640863
 20
2.500785446495107
 10
89.7324020641864
 20
2.50162016871733
 10
89.7324020641864
 20
2.50162016871733
 10
89.73090206418639
 20
2.50162016871733
 10
89.73090206418639
 20
2.50162016871733
 10
89.73006873085306
 20
2.500785446495107
 10
89.73006873085306
 20
2.500785446495107
 10
89.73006873085306
 20
2.499952113161774
 10
89.73006873085306
 20
2.499952113161774
 10
89.73090206418639
 20
2.499286835383996
  0
LWPOLYLINE
  5
1A6A
330
A
100
AcDbEntity
  8
001
100
AcDbPolyline
 90
        4
 70
     0
 43
0.0
 10
89.73473636974196
 20
2.501619752050663
 10
89.7370697030753
 20
2.496953085383996
 10
89.7370697030753
 20
2.496953085383996
 10
89.73940164751972
 20
2.501619752050663
  0
LWPOLYLINE
  5
1A6B
330
A
100
AcDbEntity
  8
001
100
AcDbPolyline
 90
        5
 70
     0
 43
0.0
 10
89.73390220307528
 20
2.507952390939552
 10
89.73440220307528
 20
2.507952390939552
 10
89.73440220307528
 20
2.507952390939552
 10
89.73390220307528
 20
2.509952390939552
 10
89.73390220307528
 20
2.507952390939552
  0
LWPOLYLINE
  5
1A6C
330
A
100
AcDbEntity
  8
001
100
AcDbPolyline
 90
        5
 70
     0
 43
0.0
 10
89.73440220307528
 20
2.507952390939552
 10
89.73390220307528
 20
2.509952390939552
 10
89.73390220307528
 20
2.509952390939552
 10
89.73440220307528
 20
2.509952390939552
 10
89.73440220307528
 20
2.507952390939552
  0
LWPOLYLINE
  5
1A6D
330
A
100
AcDbEntity
  8
001
100
AcDbPolyline
 90
        7
 70
     0
 43
0.0
 10
89.73390220307528
 20
2.507952390939552
 10
89.73440220307528
 20
2.507952390939552
 10
89.73440220307528
 20
2.507952390939552
 10
89.73390220307528
 20
2.509952390939552
 10
89.73390220307528
 20
2.509952390939552
 10
89.73390220307528
 20
2.507952390939552
 10
89.73390220307528
 20
2.507952390939552
  0
LWPOLYLINE
  5
1A6E
330
A
100
AcDbEntity
  8
001
100
AcDbPolyline
 90
        7
 70
     0
 43
0.0
 10
89.73440220307528
 20
2.507952390939552
 10
89.73390220307528
 20
2.509952390939552
 10
89.73390220307528
 20
2.509952390939552
 10
89.73440220307528
 20
2.509952390939552
 10
89.73440220307528
 20
2.509952390939552
 10
89.73440220307528
 20
2.507952390939552
 10
89.73440220307528
 20
2.507952390939552
  0
LWPOLYLINE
  5
1A6F
330
A
100
AcDbEntity
  8
001
100
AcDbPolyline
 90
        5
 70
     0
 43
0.0
 10
89.73440261974195
 20
2.507453363161774
 10
89.73640261974194
 20
2.507453363161774
 10
89.73640261974194
 20
2.507453363161774
 10
89.73440261974195
 20
2.507951974272885
 10
89.73440261974195
 20
2.507453363161774
  0
LWPOLYLINE
  5
1A70
330
A
100
AcDbEntity
  8
001
100
AcDbPolyline
 90
        5
 70
     0
 43
0.0
 10
89.73640261974194
 20
2.507453363161774
 10
89.73440261974195
 20
2.507951974272885
 10
89.73440261974195
 20
2.507951974272885
 10
89.73640261974194
 20
2.507951974272885
 10
89.73640261974194
 20
2.507453363161774
  0
LWPOLYLINE
  5
1A71
330
A
100
AcDbEntity
  8
001
100
AcDbPolyline
 90
        7
 70
     0
 43
0.0
 10
89.73440261974195
 20
2.507453363161774
 10
89.73640261974194
 20
2.507453363161774
 10
89.73640261974194
 20
2.507453363161774
 10
89.73440261974195
 20
2.507951974272885
 10
89.73440261974195
 20
2.507951974272885
 10
89.73440261974195
 20
2.507453363161774
 10
89.73440261974195
 20
2.507453363161774
  0
LWPOLYLINE
  5
1A72
330
A
100
AcDbEntity
  8
001
100
AcDbPolyline
 90
        7
 70
     0
 43
0.0
 10
89.73640261974194
 20
2.507453363161774
 10
89.73440261974195
 20
2.507951974272885
 10
89.73440261974195
 20
2.507951974272885
 10
89.73640261974194
 20
2.507951974272885
 10
89.73640261974194
 20
2.507951974272885
 10
89.73640261974194
 20
2.507453363161774
 10
89.73640261974194
 20
2.507453363161774
  0
LWPOLYLINE
  5
1A73
330
A
100
AcDbEntity
  8
001
100
AcDbPolyline
 90
        5
 70
     0
 43
0.0
 10
89.73390220307528
 20
2.507453363161774
 10
89.73440220307528
 20
2.507453363161774
 10
89.73440220307528
 20
2.507453363161774
 10
89.73390220307528
 20
2.507951974272885
 10
89.73390220307528
 20
2.507453363161774
  0
LWPOLYLINE
  5
1A74
330
A
100
AcDbEntity
  8
001
100
AcDbPolyline
 90
        5
 70
     0
 43
0.0
 10
89.73440220307528
 20
2.507453363161774
 10
89.73390220307528
 20
2.507951974272885
 10
89.73390220307528
 20
2.507951974272885
 10
89.73440220307528
 20
2.507951974272885
 10
89.73440220307528
 20
2.507453363161774
  0
LWPOLYLINE
  5
1A75
330
A
100
AcDbEntity
  8
001
100
AcDbPolyline
 90
        7
 70
     0
 43
0.0
 10
89.73390220307528
 20
2.507453363161774
 10
89.73440220307528
 20
2.507453363161774
 10
89.73440220307528
 20
2.507453363161774
 10
89.73390220307528
 20
2.507951974272885
 10
89.73390220307528
 20
2.507951974272885
 10
89.73390220307528
 20
2.507453363161774
 10
89.73390220307528
 20
2.507453363161774
  0
LWPOLYLINE
  5
1A76
330
A
100
AcDbEntity
  8
001
100
AcDbPolyline
 90
        7
 70
     0
 43
0.0
 10
89.73440220307528
 20
2.507453363161774
 10
89.73390220307528
 20
2.507951974272885
 10
89.73390220307528
 20
2.507951974272885
 10
89.73440220307528
 20
2.507951974272885
 10
89.73440220307528
 20
2.507951974272885
 10
89.73440220307528
 20
2.507453363161774
 10
89.73440220307528
 20
2.507453363161774
  0
LWPOLYLINE
  5
1A77
330
A
100
AcDbEntity
  8
001
100
AcDbPolyline
 90
        5
 70
     0
 43
0.0
 10
89.73190289751974
 20
2.507453363161774
 10
89.73390150863084
 20
2.507453363161774
 10
89.73390150863084
 20
2.507453363161774
 10
89.73190289751974
 20
2.507951974272885
 10
89.73190289751974
 20
2.507453363161774
  0
LWPOLYLINE
  5
1A78
330
A
100
AcDbEntity
  8
001
100
AcDbPolyline
 90
        5
 70
     0
 43
0.0
 10
89.73390150863084
 20
2.507453363161774
 10
89.73190289751974
 20
2.507951974272885
 10
89.73190289751974
 20
2.507951974272885
 10
89.73390150863084
 20
2.507951974272885
 10
89.73390150863084
 20
2.507453363161774
  0
LWPOLYLINE
  5
1A79
330
A
100
AcDbEntity
  8
001
100
AcDbPolyline
 90
        7
 70
     0
 43
0.0
 10
89.73190289751974
 20
2.507453363161774
 10
89.73390150863084
 20
2.507453363161774
 10
89.73390150863084
 20
2.507453363161774
 10
89.73190289751974
 20
2.507951974272885
 10
89.73190289751974
 20
2.507951974272885
 10
89.73190289751974
 20
2.507453363161774
 10
89.73190289751974
 20
2.507453363161774
  0
LWPOLYLINE
  5
1A7A
330
A
100
AcDbEntity
  8
001
100
AcDbPolyline
 90
        7
 70
     0
 43
0.0
 10
89.73390150863084
 20
2.507453363161774
 10
89.73190289751974
 20
2.507951974272885
 10
89.73190289751974
 20
2.507951974272885
 10
89.73390150863084
 20
2.507951974272885
 10
89.73390150863084
 20
2.507951974272885
 10
89.73390150863084
 20
2.507453363161774
 10
89.73390150863084
 20
2.507453363161774
  0
LWPOLYLINE
  5
1A7B
330
A
100
AcDbEntity
  8
001
100
AcDbPolyline
 90
        5
 70
     0
 43
0.0
 10
89.73390220307528
 20
2.505452668717329
 10
89.73440220307528
 20
2.505452668717329
 10
89.73440220307528
 20
2.505452668717329
 10
89.73390220307528
 20
2.50745266871733
 10
89.73390220307528
 20
2.505452668717329
  0
LWPOLYLINE
  5
1A7C
330
A
100
AcDbEntity
  8
001
100
AcDbPolyline
 90
        5
 70
     0
 43
0.0
 10
89.73440220307528
 20
2.505452668717329
 10
89.73390220307528
 20
2.50745266871733
 10
89.73390220307528
 20
2.50745266871733
 10
89.73440220307528
 20
2.50745266871733
 10
89.73440220307528
 20
2.505452668717329
  0
LWPOLYLINE
  5
1A7D
330
A
100
AcDbEntity
  8
001
100
AcDbPolyline
 90
        7
 70
     0
 43
0.0
 10
89.73390220307528
 20
2.505452668717329
 10
89.73440220307528
 20
2.505452668717329
 10
89.73440220307528
 20
2.505452668717329
 10
89.73390220307528
 20
2.50745266871733
 10
89.73390220307528
 20
2.50745266871733
 10
89.73390220307528
 20
2.505452668717329
 10
89.73390220307528
 20
2.505452668717329
  0
LWPOLYLINE
  5
1A7E
330
A
100
AcDbEntity
  8
001
100
AcDbPolyline
 90
        7
 70
     0
 43
0.0
 10
89.73440220307528
 20
2.505452668717329
 10
89.73390220307528
 20
2.50745266871733
 10
89.73390220307528
 20
2.50745266871733
 10
89.73440220307528
 20
2.50745266871733
 10
89.73440220307528
 20
2.50745266871733
 10
89.73440220307528
 20
2.505452668717329
 10
89.73440220307528
 20
2.505452668717329
  0
LWPOLYLINE
  5
1A7F
330
A
100
AcDbEntity
  8
001
100
AcDbPolyline
 90
        2
 70
     0
 43
0.0
 10
89.73640331418641
 20
2.507453363161774
 10
89.7319033141864
 20
2.507453363161774
  0
LWPOLYLINE
  5
1A80
330
A
100
AcDbEntity
  8
001
100
AcDbPolyline
 90
        2
 70
     0
 43
0.0
 10
89.73190289751974
 20
2.507952390939552
 10
89.73640289751974
 20
2.507952390939552
  0
LWPOLYLINE
  5
1A81
330
A
100
AcDbEntity
  8
001
100
AcDbPolyline
 90
       44
 70
     0
 43
0.0
 10
89.72555803640863
 20
2.507902252050663
 10
89.72550680307529
 20
2.508167688161774
 10
89.72541783640862
 20
2.508416240939552
 10
89.72529448640861
 20
2.508645027050663
 10
89.72514010307529
 20
2.508851163161774
 10
89.72495803640862
 20
2.509031765939552
 10
89.72475163640863
 20
2.509183952050663
 10
89.72452425307528
 20
2.509304838161773
 10
89.72427923640863
 20
2.509391540939552
 10
89.72401993640863
 20
2.509441177050663
 10
89.72374970307528
 20
2.509450863161774
 10
89.72374970307528
 20
2.509450863161774
 10
89.72348113640862
 20
2.509419549272885
 10
89.72322666974196
 20
2.509349352050663
 10
89.72298940307529
 20
2.509243388161773
 10
89.72277243640862
 20
2.509104774272885
 10
89.72257886974196
 20
2.508936627050663
 10
89.72241180307529
 20
2.508742063161774
 10
89.72227433640862
 20
2.508524199272885
 10
89.72216956974195
 20
2.508286152050663
 10
89.7221006030753
 20
2.508031038161774
 10
89.72207053640863
 20
2.507761974272884
 10
89.72207053640863
 20
2.507761974272884
 10
89.72208184474196
 20
2.507491900661773
 10
89.72213300307528
 20
2.507233052050663
 10
89.72222111140862
 20
2.506988736772885
 10
89.72234326974195
 20
2.506762263161774
 10
89.72249657807529
 20
2.506556939550663
 10
89.72267813640861
 20
2.506376074272885
 10
89.72288504474196
 20
2.506222975661774
 10
89.72311440307528
 20
2.506100952050663
 10
89.72336331140862
 20
2.506013311772885
 10
89.72362886974195
 20
2.505963363161773
 10
89.72362886974195
 20
2.505963363161773
 10
89.72389961835308
 20
2.505954546495106
 10
89.72416202529752
 20
2.505986329828441
 10
89.72441258224195
 20
2.506056063161774
 10
89.72464778085306
 20
2.506161096495107
 10
89.72486411279751
 20
2.506298779828441
 10
89.72505806974195
 20
2.506466463161774
 10
89.72522614335307
 20
2.506661496495107
 10
89.72536482529751
 20
2.506881229828441
 10
89.72547060724195
 20
2.507123013161773
 10
89.72553998085308
 20
2.507384196495107
  0
LWPOLYLINE
  5
1A82
330
A
100
AcDbEntity
  8
001
100
AcDbPolyline
 90
        2
 70
     0
 43
0.0
 10
89.71356928640863
 20
2.507453363161774
 10
89.71723595307528
 20
2.507453363161774
  0
LWPOLYLINE
  5
1A83
330
A
100
AcDbEntity
  8
001
100
AcDbPolyline
 90
        4
 70
     0
 43
0.0
 10
89.71356928640863
 20
2.507952390939552
 10
89.71723595307528
 20
2.507952390939552
 10
89.71723595307528
 20
2.507952390939552
 10
89.71723595307528
 20
2.50745377982844
  0
LWPOLYLINE
  5
1A84
330
A
100
AcDbEntity
  8
001
100
AcDbPolyline
 90
        2
 70
     0
 43
0.0
 10
89.71590220307529
 20
2.507785585383996
 10
89.71590220307529
 20
2.507453640939552
  0
LWPOLYLINE
  5
1A85
330
A
100
AcDbEntity
  8
001
100
AcDbPolyline
 90
        5
 70
     0
 43
0.0
 10
89.71356928640863
 20
2.507453363161774
 10
89.71723595307528
 20
2.507453363161774
 10
89.71723595307528
 20
2.507453363161774
 10
89.71356928640863
 20
2.507951974272885
 10
89.71356928640863
 20
2.507453363161774
  0
LWPOLYLINE
  5
1A86
330
A
100
AcDbEntity
  8
001
100
AcDbPolyline
 90
        5
 70
     0
 43
0.0
 10
89.71723595307528
 20
2.507453363161774
 10
89.71356928640863
 20
2.507951974272885
 10
89.71356928640863
 20
2.507951974272885
 10
89.71723595307528
 20
2.507951974272885
 10
89.71723595307528
 20
2.507453363161774
  0
LWPOLYLINE
  5
1A87
330
A
100
AcDbEntity
  8
001
100
AcDbPolyline
 90
        7
 70
     0
 43
0.0
 10
89.71356928640863
 20
2.507453363161774
 10
89.71723595307528
 20
2.507453363161774
 10
89.71723595307528
 20
2.507453363161774
 10
89.71356928640863
 20
2.507951974272885
 10
89.71356928640863
 20
2.507951974272885
 10
89.71356928640863
 20
2.507453363161774
 10
89.71356928640863
 20
2.507453363161774
  0
LWPOLYLINE
  5
1A88
330
A
100
AcDbEntity
  8
001
100
AcDbPolyline
 90
        7
 70
     0
 43
0.0
 10
89.71723595307528
 20
2.507453363161774
 10
89.71356928640863
 20
2.507951974272885
 10
89.71356928640863
 20
2.507951974272885
 10
89.71723595307528
 20
2.507951974272885
 10
89.71723595307528
 20
2.507951974272885
 10
89.71723595307528
 20
2.507453363161774
 10
89.71723595307528
 20
2.507453363161774
  0
LWPOLYLINE
  5
1A89
330
A
100
AcDbEntity
  8
001
100
AcDbPolyline
 90
        2
 70
     0
 43
0.0
 10
89.73390220307528
 20
2.509953085383996
 10
89.73390220307528
 20
2.505453085383996
  0
LWPOLYLINE
  5
1A8A
330
A
100
AcDbEntity
  8
001
100
AcDbPolyline
 90
        2
 70
     0
 43
0.0
 10
89.73440261974195
 20
2.509953085383996
 10
89.73440261974195
 20
2.505453085383996
  0
LWPOLYLINE
  5
1A8B
330
A
100
AcDbEntity
  8
001
100
AcDbPolyline
 90
        2
 70
     0
 43
0.0
 10
89.73206984196417
 20
2.507453363161774
 10
89.73190317529752
 20
2.507453363161774
  0
LWPOLYLINE
  5
1A8C
330
A
100
AcDbEntity
  8
001
100
AcDbPolyline
 90
        2
 70
     0
 43
0.0
 10
89.73206984196417
 20
2.507952390939552
 10
89.73190317529752
 20
2.507952390939552
  0
LWPOLYLINE
  5
1A8D
330
A
100
AcDbEntity
  8
001
100
AcDbPolyline
 90
        2
 70
     0
 43
0.0
 10
89.73040289751974
 20
2.507952390939552
 10
89.73040289751974
 20
2.50745377982844
  0
LWPOLYLINE
  5
1A8E
330
A
100
AcDbEntity
  8
001
100
AcDbPolyline
 90
        2
 70
     0
 43
0.0
 10
89.73190289751974
 20
2.507952390939552
 10
89.73190289751974
 20
2.50745377982844
  0
LWPOLYLINE
  5
1A8F
330
A
100
AcDbEntity
  8
001
100
AcDbPolyline
 90
        2
 70
     0
 43
0.0
 10
89.73440261974195
 20
2.505452668717329
 10
89.73390261974195
 20
2.505452668717329
  0
LWPOLYLINE
  5
1A90
330
A
100
AcDbEntity
  8
001
100
AcDbPolyline
 90
        2
 70
     0
 43
0.0
 10
89.73390220307528
 20
2.509953085383996
 10
89.73440220307528
 20
2.509953085383996
  0
LWPOLYLINE
  5
1A91
330
A
100
AcDbEntity
  8
001
100
AcDbPolyline
 90
        2
 70
     0
 43
0.0
 10
89.73040289751974
 20
2.507453363161774
 10
89.72540150863084
 20
2.507453363161774
  0
LWPOLYLINE
  5
1A92
330
A
100
AcDbEntity
  8
001
100
AcDbPolyline
 90
        2
 70
     0
 43
0.0
 10
89.73040289751974
 20
2.507952390939552
 10
89.72540150863084
 20
2.507952390939552
  0
LWPOLYLINE
  5
1A93
330
A
100
AcDbEntity
  8
001
100
AcDbPolyline
 90
       44
 70
     0
 43
0.0
 10
89.72812956418641
 20
2.50926127982844
 10
89.7278631891864
 20
2.509860753439552
 10
89.72752189751973
 20
2.510405235383996
 10
89.72711368918639
 20
2.510890067328441
 10
89.7266465641864
 20
2.511310590939552
 10
89.72612852251973
 20
2.511662147883995
 10
89.7255675641864
 20
2.511940079828441
 10
89.72497168918641
 20
2.512139728439552
 10
89.72434889751973
 20
2.512256435383996
 10
89.72370718918639
 20
2.512285542328441
 10
89.7230545641864
 20
2.512222390939552
 10
89.7230545641864
 20
2.512222390939552
 10
89.72241710863086
 20
2.512067024272885
 10
89.72182041974196
 20
2.511828124272885
 10
89.7212705141864
 20
2.511512740939552
 10
89.72077340863085
 20
2.511127924272885
 10
89.72033511974196
 20
2.510680724272885
 10
89.71996166418639
 20
2.510178190939551
 10
89.71965905863084
 20
2.509627374272885
 10
89.71943331974195
 20
2.509035324272884
 10
89.7192904641864
 20
2.508409090939552
 10
89.71923650863084
 20
2.507755724272885
 10
89.71923650863084
 20
2.507755724272885
 10
89.71927532251973
 20
2.507100921495107
 10
89.71940368640863
 20
2.506471302050663
 10
89.71961573363085
 20
2.505874049272885
 10
89.71990559751972
 20
2.505316346495106
 10
89.72026741140863
 20
2.504805377050662
 10
89.72069530863084
 20
2.504348324272885
 10
89.72118342251972
 20
2.503952371495107
 10
89.72172588640862
 20
2.503624702050663
 10
89.72231683363084
 20
2.503372499272884
 10
89.72295039751974
 20
2.503202946495107
 10
89.72295039751974
 20
2.503202946495107
 10
89.72360159057528
 20
2.503124489550663
 10
89.72424394196417
 20
2.503138624272885
 10
89.72486936001974
 20
2.503240858995106
 10
89.72546975307528
 20
2.503426702050663
 10
89.72603702946418
 20
2.503691661772885
 10
89.72656309751974
 20
2.504031246495107
 10
89.72703986557529
 20
2.504440964550663
 10
89.72745924196418
 20
2.504916324272885
 10
89.72781313501974
 20
2.505452833995107
 10
89.72809345307529
 20
2.506046002050663
  0
LWPOLYLINE
  5
1A94
330
A
100
AcDbEntity
  8
001
100
AcDbPolyline
 90
        5
 70
     0
 43
0.0
 10
89.72373650863085
 20
2.509452529828441
 10
89.72290178640863
 20
2.509119196495106
 10
89.72290178640863
 20
2.509119196495106
 10
89.72456984196417
 20
2.509119196495106
 10
89.72373650863085
 20
2.509452529828441
  0
LWPOLYLINE
  5
1A95
330
A
100
AcDbEntity
  8
001
100
AcDbPolyline
 90
        7
 70
     0
 43
0.0
 10
89.72373650863085
 20
2.509452529828441
 10
89.72290178640863
 20
2.509119196495106
 10
89.72290178640863
 20
2.509119196495106
 10
89.72456984196417
 20
2.509119196495106
 10
89.72456984196417
 20
2.509119196495106
 10
89.72373650863085
 20
2.509452529828441
 10
89.72373650863085
 20
2.509452529828441
  0
LWPOLYLINE
  5
1A96
330
A
100
AcDbEntity
  8
001
100
AcDbPolyline
 90
        5
 70
     0
 43
0.0
 10
89.72223636974195
 20
2.508619752050663
 10
89.72523636974194
 20
2.508619752050663
 10
89.72523636974194
 20
2.508619752050663
 10
89.72290164751973
 20
2.509118363161773
 10
89.72223636974195
 20
2.508619752050663
  0
LWPOLYLINE
  5
1A97
330
A
100
AcDbEntity
  8
001
100
AcDbPolyline
 90
        5
 70
     0
 43
0.0
 10
89.72523636974194
 20
2.508619752050663
 10
89.72290164751973
 20
2.509118363161773
 10
89.72290164751973
 20
2.509118363161773
 10
89.72456970307529
 20
2.509118363161773
 10
89.72523636974194
 20
2.508619752050663
  0
LWPOLYLINE
  5
1A98
330
A
100
AcDbEntity
  8
001
100
AcDbPolyline
 90
        7
 70
     0
 43
0.0
 10
89.72223636974195
 20
2.508619752050663
 10
89.72523636974194
 20
2.508619752050663
 10
89.72523636974194
 20
2.508619752050663
 10
89.72290164751973
 20
2.509118363161773
 10
89.72290164751973
 20
2.509118363161773
 10
89.72223636974195
 20
2.508619752050663
 10
89.72223636974195
 20
2.508619752050663
  0
LWPOLYLINE
  5
1A99
330
A
100
AcDbEntity
  8
001
100
AcDbPolyline
 90
        7
 70
     0
 43
0.0
 10
89.72523636974194
 20
2.508619752050663
 10
89.72290164751973
 20
2.509118363161773
 10
89.72290164751973
 20
2.509118363161773
 10
89.72456970307529
 20
2.509118363161773
 10
89.72456970307529
 20
2.509118363161773
 10
89.72523636974194
 20
2.508619752050663
 10
89.72523636974194
 20
2.508619752050663
  0
LWPOLYLINE
  5
1A9A
330
A
100
AcDbEntity
  8
001
100
AcDbPolyline
 90
        5
 70
     0
 43
0.0
 10
89.7220695641864
 20
2.50762016871733
 10
89.72556956418641
 20
2.50762016871733
 10
89.72556956418641
 20
2.50762016871733
 10
89.72223623085307
 20
2.508620168717329
 10
89.7220695641864
 20
2.50762016871733
  0
LWPOLYLINE
  5
1A9B
330
A
100
AcDbEntity
  8
001
100
AcDbPolyline
 90
        5
 70
     0
 43
0.0
 10
89.72556956418641
 20
2.50762016871733
 10
89.72223623085307
 20
2.508620168717329
 10
89.72223623085307
 20
2.508620168717329
 10
89.72523623085306
 20
2.508620168717329
 10
89.72556956418641
 20
2.50762016871733
  0
LWPOLYLINE
  5
1A9C
330
A
100
AcDbEntity
  8
001
100
AcDbPolyline
 90
        7
 70
     0
 43
0.0
 10
89.7220695641864
 20
2.50762016871733
 10
89.72556956418641
 20
2.50762016871733
 10
89.72556956418641
 20
2.50762016871733
 10
89.72223623085307
 20
2.508620168717329
 10
89.72223623085307
 20
2.508620168717329
 10
89.7220695641864
 20
2.50762016871733
 10
89.7220695641864
 20
2.50762016871733
  0
LWPOLYLINE
  5
1A9D
330
A
100
AcDbEntity
  8
001
100
AcDbPolyline
 90
        7
 70
     0
 43
0.0
 10
89.72556956418641
 20
2.50762016871733
 10
89.72223623085307
 20
2.508620168717329
 10
89.72223623085307
 20
2.508620168717329
 10
89.72523623085306
 20
2.508620168717329
 10
89.72523623085306
 20
2.508620168717329
 10
89.72556956418641
 20
2.50762016871733
 10
89.72556956418641
 20
2.50762016871733
  0
LWPOLYLINE
  5
1A9E
330
A
100
AcDbEntity
  8
001
100
AcDbPolyline
 90
        5
 70
     0
 43
0.0
 10
89.72223636974195
 20
2.506786002050663
 10
89.72523636974194
 20
2.506786002050663
 10
89.72523636974194
 20
2.506786002050663
 10
89.7220697030753
 20
2.507620724272885
 10
89.72223636974195
 20
2.506786002050663
  0
LWPOLYLINE
  5
1A9F
330
A
100
AcDbEntity
  8
001
100
AcDbPolyline
 90
        5
 70
     0
 43
0.0
 10
89.72523636974194
 20
2.506786002050663
 10
89.7220697030753
 20
2.507620724272885
 10
89.7220697030753
 20
2.507620724272885
 10
89.72556831418641
 20
2.507620724272885
 10
89.72523636974194
 20
2.506786002050663
  0
LWPOLYLINE
  5
1AA0
330
A
100
AcDbEntity
  8
001
100
AcDbPolyline
 90
        7
 70
     0
 43
0.0
 10
89.72223636974195
 20
2.506786002050663
 10
89.72523636974194
 20
2.506786002050663
 10
89.72523636974194
 20
2.506786002050663
 10
89.7220697030753
 20
2.507620724272885
 10
89.7220697030753
 20
2.507620724272885
 10
89.72223636974195
 20
2.506786002050663
 10
89.72223636974195
 20
2.506786002050663
  0
LWPOLYLINE
  5
1AA1
330
A
100
AcDbEntity
  8
001
100
AcDbPolyline
 90
        7
 70
     0
 43
0.0
 10
89.72523636974194
 20
2.506786002050663
 10
89.7220697030753
 20
2.507620724272885
 10
89.7220697030753
 20
2.507620724272885
 10
89.72556831418641
 20
2.507620724272885
 10
89.72556831418641
 20
2.507620724272885
 10
89.72523636974194
 20
2.506786002050663
 10
89.72523636974194
 20
2.506786002050663
  0
LWPOLYLINE
  5
1AA2
330
A
100
AcDbEntity
  8
001
100
AcDbPolyline
 90
        5
 70
     0
 43
0.0
 10
89.72223636974195
 20
2.506786002050663
 10
89.72290164751973
 20
2.506286002050662
 10
89.72290164751973
 20
2.506286002050662
 10
89.72456970307529
 20
2.506286002050662
 10
89.72223636974195
 20
2.506786002050663
  0
LWPOLYLINE
  5
1AA3
330
A
100
AcDbEntity
  8
001
100
AcDbPolyline
 90
        5
 70
     0
 43
0.0
 10
89.72290164751973
 20
2.506286002050662
 10
89.72456970307529
 20
2.506286002050662
 10
89.72456970307529
 20
2.506286002050662
 10
89.72373636974195
 20
2.50595266871733
 10
89.72290164751973
 20
2.506286002050662
  0
LWPOLYLINE
  5
1AA4
330
A
100
AcDbEntity
  8
001
100
AcDbPolyline
 90
        7
 70
     0
 43
0.0
 10
89.72223636974195
 20
2.506786002050663
 10
89.72290164751973
 20
2.506286002050662
 10
89.72290164751973
 20
2.506286002050662
 10
89.72456970307529
 20
2.506286002050662
 10
89.72456970307529
 20
2.506286002050662
 10
89.72223636974195
 20
2.506786002050663
 10
89.72223636974195
 20
2.506786002050663
  0
LWPOLYLINE
  5
1AA5
330
A
100
AcDbEntity
  8
001
100
AcDbPolyline
 90
        7
 70
     0
 43
0.0
 10
89.72290164751973
 20
2.506286002050662
 10
89.72456970307529
 20
2.506286002050662
 10
89.72456970307529
 20
2.506286002050662
 10
89.72373636974195
 20
2.50595266871733
 10
89.72373636974195
 20
2.50595266871733
 10
89.72290164751973
 20
2.506286002050662
 10
89.72290164751973
 20
2.506286002050662
  0
LWPOLYLINE
  5
1AA6
330
A
100
AcDbEntity
  8
001
100
AcDbPolyline
 90
        5
 70
     0
 43
0.0
 10
89.72223636974195
 20
2.506786002050663
 10
89.72523636974194
 20
2.506786002050663
 10
89.72523636974194
 20
2.506786002050663
 10
89.72456970307529
 20
2.506286002050662
 10
89.72223636974195
 20
2.506786002050663
  0
LWPOLYLINE
  5
1AA7
330
A
100
AcDbEntity
  8
001
100
AcDbPolyline
 90
        7
 70
     0
 43
0.0
 10
89.72223636974195
 20
2.506786002050663
 10
89.72523636974194
 20
2.506786002050663
 10
89.72523636974194
 20
2.506786002050663
 10
89.72456970307529
 20
2.506286002050662
 10
89.72456970307529
 20
2.506286002050662
 10
89.72223636974195
 20
2.506786002050663
 10
89.72223636974195
 20
2.506786002050663
  0
LWPOLYLINE
  5
1AA8
330
A
100
AcDbEntity
  8
001
100
AcDbPolyline
 90
        5
 70
     0
 43
0.0
 10
89.72556886974194
 20
2.50762016871733
 10
89.73040220307529
 20
2.50762016871733
 10
89.73040220307529
 20
2.50762016871733
 10
89.72540220307529
 20
2.507952113161774
 10
89.72556886974194
 20
2.50762016871733
  0
LWPOLYLINE
  5
1AA9
330
A
100
AcDbEntity
  8
001
100
AcDbPolyline
 90
        5
 70
     0
 43
0.0
 10
89.73040220307529
 20
2.50762016871733
 10
89.72540220307529
 20
2.507952113161774
 10
89.72540220307529
 20
2.507952113161774
 10
89.73040220307529
 20
2.507952113161774
 10
89.73040220307529
 20
2.50762016871733
  0
LWPOLYLINE
  5
1AAA
330
A
100
AcDbEntity
  8
001
100
AcDbPolyline
 90
        7
 70
     0
 43
0.0
 10
89.72556886974194
 20
2.50762016871733
 10
89.73040220307529
 20
2.50762016871733
 10
89.73040220307529
 20
2.50762016871733
 10
89.72540220307529
 20
2.507952113161774
 10
89.72540220307529
 20
2.507952113161774
 10
89.72556886974194
 20
2.50762016871733
 10
89.72556886974194
 20
2.50762016871733
  0
LWPOLYLINE
  5
1AAB
330
A
100
AcDbEntity
  8
001
100
AcDbPolyline
 90
        7
 70
     0
 43
0.0
 10
89.73040220307529
 20
2.50762016871733
 10
89.72540220307529
 20
2.507952113161774
 10
89.72540220307529
 20
2.507952113161774
 10
89.73040220307529
 20
2.507952113161774
 10
89.73040220307529
 20
2.507952113161774
 10
89.73040220307529
 20
2.50762016871733
 10
89.73040220307529
 20
2.50762016871733
  0
LWPOLYLINE
  5
1AAC
330
A
100
AcDbEntity
  8
001
100
AcDbPolyline
 90
        5
 70
     0
 43
0.0
 10
89.7254020641864
 20
2.507453363161774
 10
89.73040345307529
 20
2.507453363161774
 10
89.73040345307529
 20
2.507453363161774
 10
89.72556873085308
 20
2.507620029828441
 10
89.7254020641864
 20
2.507453363161774
  0
LWPOLYLINE
  5
1AAD
330
A
100
AcDbEntity
  8
001
100
AcDbPolyline
 90
        5
 70
     0
 43
0.0
 10
89.73040345307529
 20
2.507453363161774
 10
89.72556873085308
 20
2.507620029828441
 10
89.72556873085308
 20
2.507620029828441
 10
89.73040345307529
 20
2.507620029828441
 10
89.73040345307529
 20
2.507453363161774
  0
LWPOLYLINE
  5
1AAE
330
A
100
AcDbEntity
  8
001
100
AcDbPolyline
 90
        7
 70
     0
 43
0.0
 10
89.7254020641864
 20
2.507453363161774
 10
89.73040345307529
 20
2.507453363161774
 10
89.73040345307529
 20
2.507453363161774
 10
89.72556873085308
 20
2.507620029828441
 10
89.72556873085308
 20
2.507620029828441
 10
89.7254020641864
 20
2.507453363161774
 10
89.7254020641864
 20
2.507453363161774
  0
LWPOLYLINE
  5
1AAF
330
A
100
AcDbEntity
  8
001
100
AcDbPolyline
 90
        7
 70
     0
 43
0.0
 10
89.73040345307529
 20
2.507453363161774
 10
89.72556873085308
 20
2.507620029828441
 10
89.72556873085308
 20
2.507620029828441
 10
89.73040345307529
 20
2.507620029828441
 10
89.73040345307529
 20
2.507620029828441
 10
89.73040345307529
 20
2.507453363161774
 10
89.73040345307529
 20
2.507453363161774
  0
LWPOLYLINE
  5
1AB0
330
A
100
AcDbEntity
  8
001
100
AcDbPolyline
 90
        8
 70
     0
 43
0.0
 10
89.85431592716976
 20
2.484452807606219
 10
89.80981731605863
 20
2.484452807606219
 10
89.80981731605863
 20
2.484452807606219
 10
89.80981731605863
 20
2.431786140939552
 10
89.80981731605863
 20
2.431786140939552
 10
89.85431592716976
 20
2.431786140939552
 10
89.85431592716976
 20
2.431786140939552
 10
89.85431592716976
 20
2.484452807606219
  0
LWPOLYLINE
  5
1AB1
330
A
100
AcDbEntity
  8
001
100
AcDbPolyline
 90
        8
 70
     0
 43
0.0
 10
89.8461492605031
 20
2.522452807606219
 10
89.80981731605863
 20
2.522452807606219
 10
89.80981731605863
 20
2.522452807606219
 10
89.80981731605863
 20
2.492786140939552
 10
89.80981731605863
 20
2.492786140939552
 10
89.8461492605031
 20
2.492786140939552
 10
89.8461492605031
 20
2.492786140939552
 10
89.8461492605031
 20
2.522452807606219
  0
LWPOLYLINE
  5
1AB2
330
A
100
AcDbEntity
  8
001
100
AcDbPolyline
 90
        8
 70
     0
 43
0.0
 10
89.48806928640861
 20
2.629621736813585
 10
89.74490123085306
 20
2.629621736813585
 10
89.74490123085306
 20
2.629621736813585
 10
89.74490123085306
 20
2.708788403480252
 10
89.74490123085306
 20
2.708788403480252
 10
89.48806928640861
 20
2.708788403480252
 10
89.48806928640861
 20
2.708788403480252
 10
89.48806928640861
 20
2.629621736813585
  0
LWPOLYLINE
  5
1AB3
330
A
100
AcDbEntity
  8
001
100
AcDbPolyline
 90
        2
 70
     0
 43
0.0
 10
89.7415695641864
 20
2.629621875702474
 10
89.52756956418639
 20
2.629621875702474
  0
LWPOLYLINE
  5
1AB4
330
A
100
AcDbEntity
  8
001
100
AcDbPolyline
 90
        4
 70
     0
 43
0.0
 10
89.74490206418641
 20
2.705455347924695
 10
89.74490206418641
 20
2.626455347924696
 10
89.74490206418641
 20
2.626455347924696
 10
89.45523539751972
 20
2.626455347924696
  0
LWPOLYLINE
  5
1AB5
330
A
100
AcDbEntity
  8
001
100
AcDbPolyline
 90
        2
 70
     0
 43
0.0
 10
89.53090261974194
 20
2.629621875702474
 10
89.53090261974194
 20
2.626455209035808
  0
LWPOLYLINE
  5
1AB6
330
A
100
AcDbEntity
  8
001
100
AcDbPolyline
 90
        2
 70
     0
 43
0.0
 10
89.52756942529751
 20
2.629621875702474
 10
89.45523609196419
 20
2.629621875702474
  0
LWPOLYLINE
  5
1AB7
330
A
100
AcDbEntity
  8
001
100
AcDbPolyline
 90
        2
 70
     0
 43
0.0
 10
89.48806956418641
 20
2.666955070146919
 10
89.48806956418641
 20
2.641288403480252
  0
LWPOLYLINE
  5
1AB8
330
A
100
AcDbEntity
  8
001
100
AcDbPolyline
 90
        2
 70
     0
 43
0.0
 10
89.45523595307529
 20
2.629621875702474
 10
89.45523595307529
 20
2.626455209035808
  0
LWPOLYLINE
  5
1AB9
330
A
100
AcDbEntity
  8
001
100
AcDbPolyline
 90
        2
 70
     0
 43
0.0
 10
89.70756886974196
 20
2.476786557606219
 10
89.70756886974196
 20
2.439618502050663
  0
LWPOLYLINE
  5
1ABA
330
A
100
AcDbEntity
  8
001
100
AcDbPolyline
 90
        5
 70
     0
 43
0.0
 10
89.71223609196417
 20
2.468620029828441
 10
89.72373609196417
 20
2.468620029828441
 10
89.72373609196417
 20
2.468620029828441
 10
89.71223609196417
 20
2.469786696495106
 10
89.71223609196417
 20
2.468620029828441
  0
LWPOLYLINE
  5
1ABB
330
A
100
AcDbEntity
  8
001
100
AcDbPolyline
 90
        5
 70
     0
 43
0.0
 10
89.72373609196417
 20
2.468620029828441
 10
89.71223609196417
 20
2.469786696495106
 10
89.71223609196417
 20
2.469786696495106
 10
89.72373609196417
 20
2.469786696495106
 10
89.72373609196417
 20
2.468620029828441
  0
LWPOLYLINE
  5
1ABC
330
A
100
AcDbEntity
  8
001
100
AcDbPolyline
 90
        7
 70
     0
 43
0.0
 10
89.71223609196417
 20
2.468620029828441
 10
89.72373609196417
 20
2.468620029828441
 10
89.72373609196417
 20
2.468620029828441
 10
89.71223609196417
 20
2.469786696495106
 10
89.71223609196417
 20
2.469786696495106
 10
89.71223609196417
 20
2.468620029828441
 10
89.71223609196417
 20
2.468620029828441
  0
LWPOLYLINE
  5
1ABD
330
A
100
AcDbEntity
  8
001
100
AcDbPolyline
 90
        7
 70
     0
 43
0.0
 10
89.72373609196417
 20
2.468620029828441
 10
89.71223609196417
 20
2.469786696495106
 10
89.71223609196417
 20
2.469786696495106
 10
89.72373609196417
 20
2.469786696495106
 10
89.72373609196417
 20
2.469786696495106
 10
89.72373609196417
 20
2.468620029828441
 10
89.72373609196417
 20
2.468620029828441
  0
LWPOLYLINE
  5
1ABE
330
A
100
AcDbEntity
  8
001
100
AcDbPolyline
 90
        5
 70
     0
 43
0.0
 10
89.71223609196417
 20
2.465452946495107
 10
89.72373609196417
 20
2.465452946495107
 10
89.72373609196417
 20
2.465452946495107
 10
89.71223609196417
 20
2.466619613161774
 10
89.71223609196417
 20
2.465452946495107
  0
LWPOLYLINE
  5
1ABF
330
A
100
AcDbEntity
  8
001
100
AcDbPolyline
 90
        5
 70
     0
 43
0.0
 10
89.72373609196417
 20
2.465452946495107
 10
89.71223609196417
 20
2.466619613161774
 10
89.71223609196417
 20
2.466619613161774
 10
89.72373609196417
 20
2.466619613161774
 10
89.72373609196417
 20
2.465452946495107
  0
LWPOLYLINE
  5
1AC0
330
A
100
AcDbEntity
  8
001
100
AcDbPolyline
 90
        7
 70
     0
 43
0.0
 10
89.71223609196417
 20
2.465452946495107
 10
89.72373609196417
 20
2.465452946495107
 10
89.72373609196417
 20
2.465452946495107
 10
89.71223609196417
 20
2.466619613161774
 10
89.71223609196417
 20
2.466619613161774
 10
89.71223609196417
 20
2.465452946495107
 10
89.71223609196417
 20
2.465452946495107
  0
LWPOLYLINE
  5
1AC1
330
A
100
AcDbEntity
  8
001
100
AcDbPolyline
 90
        7
 70
     0
 43
0.0
 10
89.72373609196417
 20
2.465452946495107
 10
89.71223609196417
 20
2.466619613161774
 10
89.71223609196417
 20
2.466619613161774
 10
89.72373609196417
 20
2.466619613161774
 10
89.72373609196417
 20
2.466619613161774
 10
89.72373609196417
 20
2.465452946495107
 10
89.72373609196417
 20
2.465452946495107
  0
LWPOLYLINE
  5
1AC2
330
A
100
AcDbEntity
  8
001
100
AcDbPolyline
 90
        5
 70
     0
 43
0.0
 10
89.71223609196417
 20
2.462285863161774
 10
89.72373609196417
 20
2.462285863161774
 10
89.72373609196417
 20
2.462285863161774
 10
89.71223609196417
 20
2.46345252982844
 10
89.71223609196417
 20
2.462285863161774
  0
LWPOLYLINE
  5
1AC3
330
A
100
AcDbEntity
  8
001
100
AcDbPolyline
 90
        5
 70
     0
 43
0.0
 10
89.72373609196417
 20
2.462285863161774
 10
89.71223609196417
 20
2.46345252982844
 10
89.71223609196417
 20
2.46345252982844
 10
89.72373609196417
 20
2.46345252982844
 10
89.72373609196417
 20
2.462285863161774
  0
LWPOLYLINE
  5
1AC4
330
A
100
AcDbEntity
  8
001
100
AcDbPolyline
 90
        7
 70
     0
 43
0.0
 10
89.71223609196417
 20
2.462285863161774
 10
89.72373609196417
 20
2.462285863161774
 10
89.72373609196417
 20
2.462285863161774
 10
89.71223609196417
 20
2.46345252982844
 10
89.71223609196417
 20
2.46345252982844
 10
89.71223609196417
 20
2.462285863161774
 10
89.71223609196417
 20
2.462285863161774
  0
LWPOLYLINE
  5
1AC5
330
A
100
AcDbEntity
  8
001
100
AcDbPolyline
 90
        7
 70
     0
 43
0.0
 10
89.72373609196417
 20
2.462285863161774
 10
89.71223609196417
 20
2.46345252982844
 10
89.71223609196417
 20
2.46345252982844
 10
89.72373609196417
 20
2.46345252982844
 10
89.72373609196417
 20
2.46345252982844
 10
89.72373609196417
 20
2.462285863161774
 10
89.72373609196417
 20
2.462285863161774
  0
LWPOLYLINE
  5
1AC6
330
A
100
AcDbEntity
  8
001
100
AcDbPolyline
 90
        5
 70
     0
 43
0.0
 10
89.71223609196417
 20
2.459118918717329
 10
89.72373609196417
 20
2.459118918717329
 10
89.72373609196417
 20
2.459118918717329
 10
89.71223609196417
 20
2.460286974272885
 10
89.71223609196417
 20
2.459118918717329
  0
LWPOLYLINE
  5
1AC7
330
A
100
AcDbEntity
  8
001
100
AcDbPolyline
 90
        5
 70
     0
 43
0.0
 10
89.72373609196417
 20
2.459118918717329
 10
89.71223609196417
 20
2.460286974272885
 10
89.71223609196417
 20
2.460286974272885
 10
89.72373609196417
 20
2.460286974272885
 10
89.72373609196417
 20
2.459118918717329
  0
LWPOLYLINE
  5
1AC8
330
A
100
AcDbEntity
  8
001
100
AcDbPolyline
 90
        7
 70
     0
 43
0.0
 10
89.71223609196417
 20
2.459118918717329
 10
89.72373609196417
 20
2.459118918717329
 10
89.72373609196417
 20
2.459118918717329
 10
89.71223609196417
 20
2.460286974272885
 10
89.71223609196417
 20
2.460286974272885
 10
89.71223609196417
 20
2.459118918717329
 10
89.71223609196417
 20
2.459118918717329
  0
LWPOLYLINE
  5
1AC9
330
A
100
AcDbEntity
  8
001
100
AcDbPolyline
 90
        7
 70
     0
 43
0.0
 10
89.72373609196417
 20
2.459118918717329
 10
89.71223609196417
 20
2.460286974272885
 10
89.71223609196417
 20
2.460286974272885
 10
89.72373609196417
 20
2.460286974272885
 10
89.72373609196417
 20
2.460286974272885
 10
89.72373609196417
 20
2.459118918717329
 10
89.72373609196417
 20
2.459118918717329
  0
LWPOLYLINE
  5
1ACA
330
A
100
AcDbEntity
  8
001
100
AcDbPolyline
 90
        5
 70
     0
 43
0.0
 10
89.71223609196417
 20
2.456120029828441
 10
89.72373609196417
 20
2.456120029828441
 10
89.72373609196417
 20
2.456120029828441
 10
89.71223609196417
 20
2.457120029828441
 10
89.71223609196417
 20
2.456120029828441
  0
LWPOLYLINE
  5
1ACB
330
A
100
AcDbEntity
  8
001
100
AcDbPolyline
 90
        5
 70
     0
 43
0.0
 10
89.72373609196417
 20
2.456120029828441
 10
89.71223609196417
 20
2.457120029828441
 10
89.71223609196417
 20
2.457120029828441
 10
89.72373609196417
 20
2.457120029828441
 10
89.72373609196417
 20
2.456120029828441
  0
LWPOLYLINE
  5
1ACC
330
A
100
AcDbEntity
  8
001
100
AcDbPolyline
 90
        7
 70
     0
 43
0.0
 10
89.71223609196417
 20
2.456120029828441
 10
89.72373609196417
 20
2.456120029828441
 10
89.72373609196417
 20
2.456120029828441
 10
89.71223609196417
 20
2.457120029828441
 10
89.71223609196417
 20
2.457120029828441
 10
89.71223609196417
 20
2.456120029828441
 10
89.71223609196417
 20
2.456120029828441
  0
LWPOLYLINE
  5
1ACD
330
A
100
AcDbEntity
  8
001
100
AcDbPolyline
 90
        7
 70
     0
 43
0.0
 10
89.72373609196417
 20
2.456120029828441
 10
89.71223609196417
 20
2.457120029828441
 10
89.71223609196417
 20
2.457120029828441
 10
89.72373609196417
 20
2.457120029828441
 10
89.72373609196417
 20
2.457120029828441
 10
89.72373609196417
 20
2.456120029828441
 10
89.72373609196417
 20
2.456120029828441
  0
LWPOLYLINE
  5
1ACE
330
A
100
AcDbEntity
  8
001
100
AcDbPolyline
 90
        5
 70
     0
 43
0.0
 10
89.71223609196417
 20
2.452952946495106
 10
89.72373609196417
 20
2.452952946495106
 10
89.72373609196417
 20
2.452952946495106
 10
89.71223609196417
 20
2.454119613161774
 10
89.71223609196417
 20
2.452952946495106
  0
LWPOLYLINE
  5
1ACF
330
A
100
AcDbEntity
  8
001
100
AcDbPolyline
 90
        5
 70
     0
 43
0.0
 10
89.72373609196417
 20
2.452952946495106
 10
89.71223609196417
 20
2.454119613161774
 10
89.71223609196417
 20
2.454119613161774
 10
89.72373609196417
 20
2.454119613161774
 10
89.72373609196417
 20
2.452952946495106
  0
LWPOLYLINE
  5
1AD0
330
A
100
AcDbEntity
  8
001
100
AcDbPolyline
 90
        7
 70
     0
 43
0.0
 10
89.71223609196417
 20
2.452952946495106
 10
89.72373609196417
 20
2.452952946495106
 10
89.72373609196417
 20
2.452952946495106
 10
89.71223609196417
 20
2.454119613161774
 10
89.71223609196417
 20
2.454119613161774
 10
89.71223609196417
 20
2.452952946495106
 10
89.71223609196417
 20
2.452952946495106
  0
LWPOLYLINE
  5
1AD1
330
A
100
AcDbEntity
  8
001
100
AcDbPolyline
 90
        7
 70
     0
 43
0.0
 10
89.72373609196417
 20
2.452952946495106
 10
89.71223609196417
 20
2.454119613161774
 10
89.71223609196417
 20
2.454119613161774
 10
89.72373609196417
 20
2.454119613161774
 10
89.72373609196417
 20
2.454119613161774
 10
89.72373609196417
 20
2.452952946495106
 10
89.72373609196417
 20
2.452952946495106
  0
LWPOLYLINE
  5
1AD2
330
A
100
AcDbEntity
  8
001
100
AcDbPolyline
 90
        5
 70
     0
 43
0.0
 10
89.71223609196417
 20
2.449785863161773
 10
89.72373609196417
 20
2.449785863161773
 10
89.72373609196417
 20
2.449785863161773
 10
89.71223609196417
 20
2.450952529828441
 10
89.71223609196417
 20
2.449785863161773
  0
LWPOLYLINE
  5
1AD3
330
A
100
AcDbEntity
  8
001
100
AcDbPolyline
 90
        5
 70
     0
 43
0.0
 10
89.72373609196417
 20
2.449785863161773
 10
89.71223609196417
 20
2.450952529828441
 10
89.71223609196417
 20
2.450952529828441
 10
89.72373609196417
 20
2.450952529828441
 10
89.72373609196417
 20
2.449785863161773
  0
LWPOLYLINE
  5
1AD4
330
A
100
AcDbEntity
  8
001
100
AcDbPolyline
 90
        7
 70
     0
 43
0.0
 10
89.71223609196417
 20
2.449785863161773
 10
89.72373609196417
 20
2.449785863161773
 10
89.72373609196417
 20
2.449785863161773
 10
89.71223609196417
 20
2.450952529828441
 10
89.71223609196417
 20
2.450952529828441
 10
89.71223609196417
 20
2.449785863161773
 10
89.71223609196417
 20
2.449785863161773
  0
LWPOLYLINE
  5
1AD5
330
A
100
AcDbEntity
  8
001
100
AcDbPolyline
 90
        7
 70
     0
 43
0.0
 10
89.72373609196417
 20
2.449785863161773
 10
89.71223609196417
 20
2.450952529828441
 10
89.71223609196417
 20
2.450952529828441
 10
89.72373609196417
 20
2.450952529828441
 10
89.72373609196417
 20
2.450952529828441
 10
89.72373609196417
 20
2.449785863161773
 10
89.72373609196417
 20
2.449785863161773
  0
LWPOLYLINE
  5
1AD6
330
A
100
AcDbEntity
  8
001
100
AcDbPolyline
 90
        5
 70
     0
 43
0.0
 10
89.71223609196417
 20
2.44661891871733
 10
89.72373609196417
 20
2.44661891871733
 10
89.72373609196417
 20
2.44661891871733
 10
89.71223609196417
 20
2.447786974272885
 10
89.71223609196417
 20
2.44661891871733
  0
LWPOLYLINE
  5
1AD7
330
A
100
AcDbEntity
  8
001
100
AcDbPolyline
 90
        5
 70
     0
 43
0.0
 10
89.72373609196417
 20
2.44661891871733
 10
89.71223609196417
 20
2.447786974272885
 10
89.71223609196417
 20
2.447786974272885
 10
89.72373609196417
 20
2.447786974272885
 10
89.72373609196417
 20
2.44661891871733
  0
LWPOLYLINE
  5
1AD8
330
A
100
AcDbEntity
  8
001
100
AcDbPolyline
 90
        7
 70
     0
 43
0.0
 10
89.71223609196417
 20
2.44661891871733
 10
89.72373609196417
 20
2.44661891871733
 10
89.72373609196417
 20
2.44661891871733
 10
89.71223609196417
 20
2.447786974272885
 10
89.71223609196417
 20
2.447786974272885
 10
89.71223609196417
 20
2.44661891871733
 10
89.71223609196417
 20
2.44661891871733
  0
LWPOLYLINE
  5
1AD9
330
A
100
AcDbEntity
  8
001
100
AcDbPolyline
 90
        7
 70
     0
 43
0.0
 10
89.72373609196417
 20
2.44661891871733
 10
89.71223609196417
 20
2.447786974272885
 10
89.71223609196417
 20
2.447786974272885
 10
89.72373609196417
 20
2.447786974272885
 10
89.72373609196417
 20
2.447786974272885
 10
89.72373609196417
 20
2.44661891871733
 10
89.72373609196417
 20
2.44661891871733
  0
LWPOLYLINE
  5
1ADA
330
A
100
AcDbEntity
  8
001
100
AcDbPolyline
 90
        2
 70
     0
 43
0.0
 10
89.71223609196417
 20
2.473285863161774
 10
89.71223609196417
 20
2.443119196495107
  0
LWPOLYLINE
  5
1ADB
330
A
100
AcDbEntity
  8
001
100
AcDbPolyline
 90
        2
 70
     0
 43
0.0
 10
89.72373650863085
 20
2.46978641871733
 10
89.72373650863085
 20
2.468619752050662
  0
LWPOLYLINE
  5
1ADC
330
A
100
AcDbEntity
  8
001
100
AcDbPolyline
 90
        2
 70
     0
 43
0.0
 10
89.70756886974196
 20
2.439618779828441
 10
89.74006886974196
 20
2.439618779828441
  0
LWPOLYLINE
  5
1ADD
330
A
100
AcDbEntity
  8
001
100
AcDbPolyline
 90
        2
 70
     0
 43
0.0
 10
89.73773650863085
 20
2.452452529828441
 10
89.73423511974194
 20
2.452452529828441
  0
LWPOLYLINE
  5
1ADE
330
A
100
AcDbEntity
  8
001
100
AcDbPolyline
 90
        2
 70
     0
 43
0.0
 10
89.73073650863083
 20
2.448953085383996
 10
89.73423650863084
 20
2.448953085383996
  0
LWPOLYLINE
  5
1ADF
330
A
100
AcDbEntity
  8
001
100
AcDbPolyline
 90
        2
 70
     0
 43
0.0
 10
89.71223609196417
 20
2.443119474272885
 10
89.73073609196417
 20
2.443119474272885
  0
LWPOLYLINE
  5
1AE0
330
A
100
AcDbEntity
  8
001
100
AcDbPolyline
 90
        2
 70
     0
 43
0.0
 10
89.74006942529751
 20
2.439618779828441
 10
89.74006942529751
 20
2.476786835383996
  0
LWPOLYLINE
  5
1AE1
330
A
100
AcDbEntity
  8
001
100
AcDbPolyline
 90
        2
 70
     0
 43
0.0
 10
89.73773650863085
 20
2.452452529828441
 10
89.73773650863085
 20
2.463952529828441
  0
LWPOLYLINE
  5
1AE2
330
A
100
AcDbEntity
  8
001
100
AcDbPolyline
 90
        2
 70
     0
 43
0.0
 10
89.73423581418641
 20
2.448953085383996
 10
89.73423581418641
 20
2.452453085383996
  0
LWPOLYLINE
  5
1AE3
330
A
100
AcDbEntity
  8
001
100
AcDbPolyline
 90
        2
 70
     0
 43
0.0
 10
89.73423581418641
 20
2.463952807606219
 10
89.73423581418641
 20
2.467452807606218
  0
LWPOLYLINE
  5
1AE4
330
A
100
AcDbEntity
  8
001
100
AcDbPolyline
 90
        2
 70
     0
 43
0.0
 10
89.73073650863083
 20
2.443119474272885
 10
89.73073650863083
 20
2.448952807606219
  0
LWPOLYLINE
  5
1AE5
330
A
100
AcDbEntity
  8
001
100
AcDbPolyline
 90
        2
 70
     0
 43
0.0
 10
89.73073650863083
 20
2.467452252050663
 10
89.73073650863083
 20
2.473285585383996
  0
LWPOLYLINE
  5
1AE6
330
A
100
AcDbEntity
  8
001
100
AcDbPolyline
 90
        2
 70
     0
 43
0.0
 10
89.74006942529751
 20
2.476786557606219
 10
89.70756942529751
 20
2.476786557606219
  0
LWPOLYLINE
  5
1AE7
330
A
100
AcDbEntity
  8
001
100
AcDbPolyline
 90
        2
 70
     0
 43
0.0
 10
89.72373650863085
 20
2.46978641871733
 10
89.71223650863084
 20
2.46978641871733
  0
LWPOLYLINE
  5
1AE8
330
A
100
AcDbEntity
  8
001
100
AcDbPolyline
 90
        2
 70
     0
 43
0.0
 10
89.72373650863085
 20
2.468620029828441
 10
89.71223650863084
 20
2.468620029828441
  0
LWPOLYLINE
  5
1AE9
330
A
100
AcDbEntity
  8
001
100
AcDbPolyline
 90
        2
 70
     0
 43
0.0
 10
89.73423581418641
 20
2.463952807606219
 10
89.73773720307528
 20
2.463952807606219
  0
LWPOLYLINE
  5
1AEA
330
A
100
AcDbEntity
  8
001
100
AcDbPolyline
 90
        2
 70
     0
 43
0.0
 10
89.73423581418641
 20
2.467452252050663
 10
89.7307358141864
 20
2.467452252050663
  0
LWPOLYLINE
  5
1AEB
330
A
100
AcDbEntity
  8
001
100
AcDbPolyline
 90
        2
 70
     0
 43
0.0
 10
89.73073650863083
 20
2.473285863161774
 10
89.71223650863084
 20
2.473285863161774
  0
LWPOLYLINE
  5
1AEC
330
A
100
AcDbEntity
  8
001
100
AcDbPolyline
 90
        6
 70
     0
 43
0.0
 10
89.71223609196417
 20
2.466619474272885
 10
89.72373609196417
 20
2.466619474272885
 10
89.72373609196417
 20
2.466619474272885
 10
89.72373609196417
 20
2.465452807606219
 10
89.72373609196417
 20
2.465452807606219
 10
89.71223609196417
 20
2.465452807606219
  0
LWPOLYLINE
  5
1AED
330
A
100
AcDbEntity
  8
001
100
AcDbPolyline
 90
        6
 70
     0
 43
0.0
 10
89.71223609196417
 20
2.463452390939552
 10
89.72373609196417
 20
2.463452390939552
 10
89.72373609196417
 20
2.463452390939552
 10
89.72373609196417
 20
2.462285724272885
 10
89.72373609196417
 20
2.462285724272885
 10
89.71223609196417
 20
2.462285724272885
  0
LWPOLYLINE
  5
1AEE
330
A
100
AcDbEntity
  8
001
100
AcDbPolyline
 90
        6
 70
     0
 43
0.0
 10
89.71223609196417
 20
2.460286696495106
 10
89.72373609196417
 20
2.460286696495106
 10
89.72373609196417
 20
2.460286696495106
 10
89.72373609196417
 20
2.459118640939552
 10
89.72373609196417
 20
2.459118640939552
 10
89.71223609196417
 20
2.459118640939552
  0
LWPOLYLINE
  5
1AEF
330
A
100
AcDbEntity
  8
001
100
AcDbPolyline
 90
        6
 70
     0
 43
0.0
 10
89.71223609196417
 20
2.457119613161774
 10
89.72373609196417
 20
2.457119613161774
 10
89.72373609196417
 20
2.457119613161774
 10
89.72373609196417
 20
2.456119613161773
 10
89.72373609196417
 20
2.456119613161773
 10
89.71223609196417
 20
2.456119613161773
  0
LWPOLYLINE
  5
1AF0
330
A
100
AcDbEntity
  8
001
100
AcDbPolyline
 90
        6
 70
     0
 43
0.0
 10
89.71223609196417
 20
2.454119474272885
 10
89.72373609196417
 20
2.454119474272885
 10
89.72373609196417
 20
2.454119474272885
 10
89.72373609196417
 20
2.452952807606219
 10
89.72373609196417
 20
2.452952807606219
 10
89.71223609196417
 20
2.452952807606219
  0
LWPOLYLINE
  5
1AF1
330
A
100
AcDbEntity
  8
001
100
AcDbPolyline
 90
        6
 70
     0
 43
0.0
 10
89.71223609196417
 20
2.450952390939552
 10
89.72373609196417
 20
2.450952390939552
 10
89.72373609196417
 20
2.450952390939552
 10
89.72373609196417
 20
2.449785724272885
 10
89.72373609196417
 20
2.449785724272885
 10
89.71223609196417
 20
2.449785724272885
  0
LWPOLYLINE
  5
1AF2
330
A
100
AcDbEntity
  8
001
100
AcDbPolyline
 90
        6
 70
     0
 43
0.0
 10
89.71223609196417
 20
2.447786696495107
 10
89.72373609196417
 20
2.447786696495107
 10
89.72373609196417
 20
2.447786696495107
 10
89.72373609196417
 20
2.446618640939552
 10
89.72373609196417
 20
2.446618640939552
 10
89.71223609196417
 20
2.446618640939552
  0
LWPOLYLINE
  5
1AF3
330
A
100
AcDbEntity
  8
001
100
AcDbPolyline
 90
        5
 70
     0
 43
0.0
 10
89.73306942529751
 20
2.468620029828441
 10
89.73773609196419
 20
2.468620029828441
 10
89.73773609196419
 20
2.468620029828441
 10
89.73306942529751
 20
2.475620029828441
 10
89.73306942529751
 20
2.468620029828441
  0
LWPOLYLINE
  5
1AF4
330
A
100
AcDbEntity
  8
001
100
AcDbPolyline
 90
        5
 70
     0
 43
0.0
 10
89.73773609196419
 20
2.468620029828441
 10
89.73306942529751
 20
2.475620029828441
 10
89.73306942529751
 20
2.475620029828441
 10
89.73773609196419
 20
2.475620029828441
 10
89.73773609196419
 20
2.468620029828441
  0
LWPOLYLINE
  5
1AF5
330
A
100
AcDbEntity
  8
001
100
AcDbPolyline
 90
        7
 70
     0
 43
0.0
 10
89.73306942529751
 20
2.468620029828441
 10
89.73773609196419
 20
2.468620029828441
 10
89.73773609196419
 20
2.468620029828441
 10
89.73306942529751
 20
2.475620029828441
 10
89.73306942529751
 20
2.475620029828441
 10
89.73306942529751
 20
2.468620029828441
 10
89.73306942529751
 20
2.468620029828441
  0
LWPOLYLINE
  5
1AF6
330
A
100
AcDbEntity
  8
001
100
AcDbPolyline
 90
        7
 70
     0
 43
0.0
 10
89.73773609196419
 20
2.468620029828441
 10
89.73306942529751
 20
2.475620029828441
 10
89.73306942529751
 20
2.475620029828441
 10
89.73773609196419
 20
2.475620029828441
 10
89.73773609196419
 20
2.475620029828441
 10
89.73773609196419
 20
2.468620029828441
 10
89.73773609196419
 20
2.468620029828441
  0
LWPOLYLINE
  5
1AF7
330
A
100
AcDbEntity
  8
001
100
AcDbPolyline
 90
        8
 70
     0
 43
0.0
 10
89.73773595307529
 20
2.475619474272884
 10
89.73306928640862
 20
2.475619474272884
 10
89.73306928640862
 20
2.475619474272884
 10
89.73306928640862
 20
2.468619474272885
 10
89.73306928640862
 20
2.468619474272885
 10
89.73773595307529
 20
2.468619474272885
 10
89.73773595307529
 20
2.468619474272885
 10
89.73773595307529
 20
2.475619474272884
  0
LWPOLYLINE
  5
1AF8
330
A
100
AcDbEntity
  8
001
100
AcDbPolyline
 90
        5
 70
     0
 43
0.0
 10
89.73306942529751
 20
2.440786696495107
 10
89.73773609196419
 20
2.440786696495107
 10
89.73773609196419
 20
2.440786696495107
 10
89.73306942529751
 20
2.447786696495107
 10
89.73306942529751
 20
2.440786696495107
  0
LWPOLYLINE
  5
1AF9
330
A
100
AcDbEntity
  8
001
100
AcDbPolyline
 90
        5
 70
     0
 43
0.0
 10
89.73773609196419
 20
2.440786696495107
 10
89.73306942529751
 20
2.447786696495107
 10
89.73306942529751
 20
2.447786696495107
 10
89.73773609196419
 20
2.447786696495107
 10
89.73773609196419
 20
2.440786696495107
  0
LWPOLYLINE
  5
1AFA
330
A
100
AcDbEntity
  8
001
100
AcDbPolyline
 90
        7
 70
     0
 43
0.0
 10
89.73306942529751
 20
2.440786696495107
 10
89.73773609196419
 20
2.440786696495107
 10
89.73773609196419
 20
2.440786696495107
 10
89.73306942529751
 20
2.447786696495107
 10
89.73306942529751
 20
2.447786696495107
 10
89.73306942529751
 20
2.440786696495107
 10
89.73306942529751
 20
2.440786696495107
  0
LWPOLYLINE
  5
1AFB
330
A
100
AcDbEntity
  8
001
100
AcDbPolyline
 90
        7
 70
     0
 43
0.0
 10
89.73773609196419
 20
2.440786696495107
 10
89.73306942529751
 20
2.447786696495107
 10
89.73306942529751
 20
2.447786696495107
 10
89.73773609196419
 20
2.447786696495107
 10
89.73773609196419
 20
2.447786696495107
 10
89.73773609196419
 20
2.440786696495107
 10
89.73773609196419
 20
2.440786696495107
  0
LWPOLYLINE
  5
1AFC
330
A
100
AcDbEntity
  8
001
100
AcDbPolyline
 90
        8
 70
     0
 43
0.0
 10
89.73773595307529
 20
2.447786140939552
 10
89.73306928640862
 20
2.447786140939552
 10
89.73306928640862
 20
2.447786140939552
 10
89.73306928640862
 20
2.440786140939552
 10
89.73306928640862
 20
2.440786140939552
 10
89.73773595307529
 20
2.440786140939552
 10
89.73773595307529
 20
2.440786140939552
 10
89.73773595307529
 20
2.447786140939552
  0
LWPOLYLINE
  5
1AFD
330
A
100
AcDbEntity
  8
001
100
AcDbPolyline
 90
        2
 70
     0
 43
0.0
 10
89.7415695641864
 20
2.540452946495107
 10
89.52756956418639
 20
2.540452946495107
  0
LWPOLYLINE
  5
1AFE
330
A
100
AcDbEntity
  8
001
100
AcDbPolyline
 90
        2
 70
     0
 43
0.0
 10
89.7415695641864
 20
2.402285585383995
 10
89.52756956418639
 20
2.402285585383995
  0
LWPOLYLINE
  5
1AFF
330
A
100
AcDbEntity
  8
001
100
AcDbPolyline
 90
        2
 70
     0
 43
0.0
 10
89.74490206418641
 20
2.537119057606219
 10
89.70440345307528
 20
2.537119057606219
  0
LWPOLYLINE
  5
1B00
330
A
100
AcDbEntity
  8
001
100
AcDbPolyline
 90
        4
 70
     0
 43
0.0
 10
89.7415695641864
 20
2.533953363161773
 10
89.70440289751973
 20
2.533953363161773
 10
89.70440289751973
 20
2.533953363161773
 10
89.70440289751973
 20
2.537118640939552
  0
LWPOLYLINE
  5
1B01
330
A
100
AcDbEntity
  8
001
100
AcDbPolyline
 90
        4
 70
     0
 43
0.0
 10
89.7415695641864
 20
2.408786557606219
 10
89.70440289751973
 20
2.408786557606219
 10
89.70440289751973
 20
2.408786557606219
 10
89.70440289751973
 20
2.405453224272885
  0
LWPOLYLINE
  5
1B02
330
A
100
AcDbEntity
  8
001
100
AcDbPolyline
 90
        2
 70
     0
 43
0.0
 10
89.7415695641864
 20
2.540452946495107
 10
89.7415695641864
 20
2.537119613161773
  0
LWPOLYLINE
  5
1B03
330
A
100
AcDbEntity
  8
001
100
AcDbPolyline
 90
        2
 70
     0
 43
0.0
 10
89.74490206418641
 20
2.405452668717329
 10
89.70440345307528
 20
2.405452668717329
  0
LWPOLYLINE
  5
1B04
330
A
100
AcDbEntity
  8
001
100
AcDbPolyline
 90
        2
 70
     0
 43
0.0
 10
89.7415695641864
 20
2.402285585383995
 10
89.7415695641864
 20
2.405452252050662
  0
LWPOLYLINE
  5
1B05
330
A
100
AcDbEntity
  8
001
100
AcDbPolyline
 90
        2
 70
     0
 43
0.0
 10
89.74490206418641
 20
2.537119057606219
 10
89.74490206418641
 20
2.405452390939552
  0
LWPOLYLINE
  5
1B06
330
A
100
AcDbEntity
  8
001
100
AcDbPolyline
 90
        2
 70
     0
 43
0.0
 10
89.48806956418641
 20
2.408786557606219
 10
89.48806956418641
 20
2.405453224272885
  0
LWPOLYLINE
  5
1B07
330
A
100
AcDbEntity
  8
001
100
AcDbPolyline
 90
       11
 70
     0
 43
0.0
 10
89.45523595307529
 20
2.415535724272884
 10
89.45532211140863
 20
2.414468192328441
 10
89.45557155307529
 20
2.41345546871733
 10
89.45597072807528
 20
2.412511111772885
 10
89.45650608640862
 20
2.411648679828441
 10
89.45716407807529
 20
2.41088173121733
 10
89.45793115307528
 20
2.410223824272885
 10
89.45879376140862
 20
2.409688517328441
 10
89.4597383530753
 20
2.40928936871733
 10
89.46075137807529
 20
2.409039936772884
 10
89.46181928640863
 20
2.408953779828441
  0
LWPOLYLINE
  5
1B08
330
A
100
AcDbEntity
  8
001
100
AcDbPolyline
 90
       11
 70
     0
 43
0.0
 10
89.46181900863084
 20
2.533953363161773
 10
89.46075110029751
 20
2.533867167328441
 10
89.45973807529751
 20
2.53361762982844
 10
89.45879348363083
 20
2.533218325661774
 10
89.4579308752975
 20
2.53268282982844
 10
89.4571638002975
 20
2.53202471732844
 10
89.45650580863084
 20
2.531257563161774
 10
89.45597045029751
 20
2.530394942328441
 10
89.45557127529751
 20
2.529450429828441
 10
89.45532183363084
 20
2.528437600661773
 10
89.45523567529752
 20
2.52737002982844
  0
LWPOLYLINE
  5
1B09
330
A
100
AcDbEntity
  8
001
100
AcDbPolyline
 90
        2
 70
     0
 43
0.0
 10
89.49140275863085
 20
2.408786557606219
 10
89.46173609196419
 20
2.408786557606219
  0
LWPOLYLINE
  5
1B0A
330
A
100
AcDbEntity
  8
001
100
AcDbPolyline
 90
        2
 70
     0
 43
0.0
 10
89.49140275863085
 20
2.533953363161773
 10
89.46173609196419
 20
2.533953363161773
  0
LWPOLYLINE
  5
1B0B
330
A
100
AcDbEntity
  8
001
100
AcDbPolyline
 90
        2
 70
     0
 43
0.0
 10
89.45523595307529
 20
2.527285585383995
 10
89.45523595307529
 20
2.415452252050663
  0
LWPOLYLINE
  5
1B0C
330
A
100
AcDbEntity
  8
001
100
AcDbPolyline
 90
        2
 70
     0
 43
0.0
 10
89.52106914751972
 20
2.533953363161773
 10
89.52106914751972
 20
2.537118640939552
  0
LWPOLYLINE
  5
1B0D
330
A
100
AcDbEntity
  8
001
100
AcDbPolyline
 90
        4
 70
     0
 43
0.0
 10
89.49140275863085
 20
2.533953363161773
 10
89.52756942529751
 20
2.533953363161773
 10
89.52756942529751
 20
2.533953363161773
 10
89.52756942529751
 20
2.540453363161773
  0
LWPOLYLINE
  5
1B0E
330
A
100
AcDbEntity
  8
001
100
AcDbPolyline
 90
        2
 70
     0
 43
0.0
 10
89.52106914751972
 20
2.537119057606219
 10
89.48806914751974
 20
2.537119057606219
  0
LWPOLYLINE
  5
1B0F
330
A
100
AcDbEntity
  8
001
100
AcDbPolyline
 90
        2
 70
     0
 43
0.0
 10
89.52106914751972
 20
2.405452668717329
 10
89.48806914751974
 20
2.405452668717329
  0
LWPOLYLINE
  5
1B10
330
A
100
AcDbEntity
  8
001
100
AcDbPolyline
 90
        4
 70
     0
 43
0.0
 10
89.49140275863085
 20
2.408786557606219
 10
89.52756942529751
 20
2.408786557606219
 10
89.52756942529751
 20
2.408786557606219
 10
89.52756942529751
 20
2.402285168717329
  0
LWPOLYLINE
  5
1B11
330
A
100
AcDbEntity
  8
001
100
AcDbPolyline
 90
        2
 70
     0
 43
0.0
 10
89.52106914751972
 20
2.408786557606219
 10
89.52106914751972
 20
2.405453224272885
  0
LWPOLYLINE
  5
1B12
330
A
100
AcDbEntity
  8
001
100
AcDbPolyline
 90
        2
 70
     0
 43
0.0
 10
89.48806956418641
 20
2.537119057606219
 10
89.48806956418641
 20
2.533953779828441
  0
LWPOLYLINE
  5
1B13
330
A
100
AcDbEntity
  8
001
100
AcDbPolyline
 90
        2
 70
     0
 43
0.0
 10
89.7415695641864
 20
2.533953363161773
 10
89.7415695641864
 20
2.408786696495107
  0
LWPOLYLINE
  5
1B14
330
A
100
AcDbEntity
  8
001
100
AcDbPolyline
 90
        2
 70
     0
 43
0.0
 10
89.74490206418641
 20
2.402285585383995
 10
89.48807011974194
 20
2.402285585383995
  0
LWPOLYLINE
  5
1B15
330
A
100
AcDbEntity
  8
001
100
AcDbPolyline
 90
        6
 70
     0
 43
0.0
 10
89.74490206418641
 20
2.402285585383995
 10
89.74490206418641
 20
2.540452252050663
 10
89.74490206418641
 20
2.540452252050663
 10
89.48807011974194
 20
2.540452252050663
 10
89.48807011974194
 20
2.540452252050663
 10
89.48807011974194
 20
2.402285585383995
  0
LINE
  5
1B16
330
A
100
AcDbEntity
  8
001
100
AcDbLine
 10
89.48806956418641
 20
2.721621459035807
 30
0.0
 11
89.49791947440935
 21
2.72335786999084
 31
0.0
  0
LINE
  5
1B17
330
A
100
AcDbEntity
  8
001
100
AcDbLine
 10
89.48806956418641
 20
2.721621459035807
 30
0.0
 11
89.49791947440935
 21
2.719885048080781
 31
0.0
  0
TEXT
  5
1B18
330
A
100
AcDbEntity
  8
001
  6
Continuous
100
AcDbText
 10
89.60302387817423
 20
2.727872538473922
 30
0.0
 40
0.0250053502430098
  1
78
 41
0.6
 72
     1
 11
89.61552655329574
 21
2.727872538473922
 31
0.0
100
AcDbText
  0
LINE
  5
1B19
330
A
100
AcDbEntity
  8
001
100
AcDbLine
 10
89.74490206418641
 20
2.721621459035807
 30
0.0
 11
89.73505215396345
 21
2.719885048080781
 31
0.0
  0
LINE
  5
1B1A
330
A
100
AcDbEntity
  8
001
100
AcDbLine
 10
89.74490206418641
 20
2.721621459035807
 30
0.0
 11
89.73505215396345
 21
2.72335786999084
 31
0.0
  0
TEXT
  5
1B1B
330
A
100
AcDbEntity
  8
001
  6
Continuous
100
AcDbText
 10
89.58777351372171
 20
2.565203748155445
 30
0.0
 40
0.0250053502430098
  1
88
 41
0.6
 72
     1
 11
89.60027618884323
 21
2.565203748155445
 31
0.0
100
AcDbText
  0
LINE
  5
1B1C
330
A
100
AcDbEntity
  8
001
100
AcDbLine
 10
89.45523595307529
 20
2.55895266871733
 30
0.0
 11
89.46508586329825
 21
2.557216257762304
 31
0.0
  0
LINE
  5
1B1D
330
A
100
AcDbEntity
  8
001
100
AcDbLine
 10
89.45523595307529
 20
2.55895266871733
 30
0.0
 11
89.46508586329825
 21
2.560689079672362
 31
0.0
  0
LINE
  5
1B1E
330
A
100
AcDbEntity
  8
001
100
AcDbLine
 10
89.74490206418641
 20
2.55895266871733
 30
0.0
 11
89.73505215396347
 21
2.560689079672362
 31
0.0
  0
LINE
  5
1B1F
330
A
100
AcDbEntity
  8
001
100
AcDbLine
 10
89.74490206418641
 20
2.55895266871733
 30
0.0
 11
89.73505215396347
 21
2.557216257762304
 31
0.0
  0
LINE
  5
1B20
330
A
100
AcDbEntity
  8
001
100
AcDbLine
 10
89.7589022030753
 20
2.70878854236914
 30
0.0
 11
89.76051880167442
 21
2.699618679093354
 31
0.0
  0
LINE
  5
1B21
330
A
100
AcDbEntity
  8
001
100
AcDbLine
 10
89.7589022030753
 20
2.70878854236914
 30
0.0
 11
89.75728479819258
 21
2.699618679093354
 31
0.0
  0
TEXT
  5
1B22
330
A
100
AcDbEntity
  8
001
  6
Continuous
100
AcDbText
 10
89.78921903675892
 20
2.65445012261513
 30
0.0
 40
0.0232799810762421
  1
25
 50
90.0
 41
0.6
 72
     1
 11
89.78921903675892
 21
2.666090113153251
 31
0.0
100
AcDbText
  0
LINE
  5
1B23
330
A
100
AcDbEntity
  8
001
100
AcDbLine
 10
89.7589022030753
 20
2.62645479236914
 30
0.0
 11
89.75728479819258
 21
2.635624655644927
 31
0.0
  0
LINE
  5
1B24
330
A
100
AcDbEntity
  8
001
100
AcDbLine
 10
89.7589022030753
 20
2.62645479236914
 30
0.0
 11
89.76051880167442
 21
2.635624655644927
 31
0.0
  0
TEXT
  5
1B25
330
A
100
AcDbEntity
  8
001
  6
Continuous
100
AcDbText
 10
89.92146609418671
 20
2.459364818106315
 30
0.0
 40
0.0232799810762421
  1
42
 50
90.0
 41
0.6
 72
     1
 11
89.92146609418671
 21
2.471004808644436
 31
0.0
100
AcDbText
  0
LINE
  5
1B26
330
A
100
AcDbEntity
  8
001
100
AcDbLine
 10
89.89114926050309
 20
2.540452946495107
 30
0.0
 11
89.88953185562037
 21
2.53128308321932
 31
0.0
  0
LINE
  5
1B27
330
A
100
AcDbEntity
  8
001
100
AcDbLine
 10
89.89114926050309
 20
2.540452946495107
 30
0.0
 11
89.89276585910221
 21
2.53128308321932
 31
0.0
  0
LINE
  5
1B29
330
A
100
AcDbEntity
  8
001
100
AcDbLine
 10
89.89114926050309
 20
2.402285585383995
 30
0.0
 11
89.89276585910221
 21
2.411455448659782
 31
0.0
  0
LINE
  5
1B2A
330
A
100
AcDbEntity
  8
001
100
AcDbLine
 10
89.89114926050309
 20
2.402285585383995
 30
0.0
 11
89.88953185562037
 21
2.411455448659782
 31
0.0
  0
ENDSEC
  0
SECTION
  2
OBJECTS
  0
DICTIONARY
  5
19
330
0
100
AcDbDictionary
281
     1
  3
ACAD_COLOR
350
7BF
  3
ACAD_GROUP
350
1A
  3
ACAD_LAYOUT
350
105
  3
ACAD_MATERIAL
350
7AA
  3
ACAD_MLINESTYLE
350
1B
  3
ACAD_PLOTSETTINGS
350
106
  3
ACAD_PLOTSTYLENAME
350
76F
  3
ACAD_TABLESTYLE
350
7C0
  3
ACAD_VISUALSTYLE
350
7AE
  3
AcDbVariableDictionary
350
7A7
  3
DWGPROPS
350
83C
1001
ACAD
1000
TREAT_AS_HARD
1070
     0
  0
DICTIONARY
  5
802
330
7
100
AcDbDictionary
280
     1
281
     1
  3
ACAD_XREC_ROUNDTRIP
360
803
  0
DICTIONARY
  5
C88
330
2
100
AcDbDictionary
280
     1
281
     1
  3
ACAD_LAYERFILTERS
360
C93
  3
ACAD_LAYERSTATES
360
C89
  0
DICTIONARY
  5
806
330
14
100
AcDbDictionary
280
     1
281
     1
  3
ACAD_XREC_ROUNDTRIP
360
807
  0
DICTIONARY
  5
767
330
A
100
AcDbDictionary
280
     1
281
     1
  3
ACAD_LAYOUTSELFREF
360
804
  0
DICTIONARY
  5
769
330
B
100
AcDbDictionary
280
     1
281
     1
  3
ACAD_LAYOUTSELFREF
360
805
  0
DICTIONARY
  5
7BF
102
{ACAD_REACTORS
330
19
102
}
330
19
100
AcDbDictionary
281
     1
  0
DICTIONARY
  5
1A
102
{ACAD_REACTORS
330
19
102
}
330
19
100
AcDbDictionary
281
     1
1001
ACAD
1000
TREAT_AS_HARD
1070
     0
  0
DICTIONARY
  5
105
102
{ACAD_REACTORS
330
19
102
}
330
19
100
AcDbDictionary
281
     1
  3
Model
350
771
  3
ﾚｲｱｳﾄ1
350
772
1001
ACAD
1000
TREAT_AS_HARD
1070
     0
  0
DICTIONARY
  5
7AA
102
{ACAD_REACTORS
330
19
102
}
330
19
100
AcDbDictionary
281
     1
  3
ByBlock
350
7AC
  3
ByLayer
350
7AB
  3
Global
350
7AD
  0
DICTIONARY
  5
1B
102
{ACAD_REACTORS
330
19
102
}
330
19
100
AcDbDictionary
281
     1
  3
STANDARD
350
1C
1001
ACAD
1000
TREAT_AS_HARD
1070
     0
  0
DICTIONARY
  5
106
102
{ACAD_REACTORS
330
19
102
}
330
19
100
AcDbDictionary
281
     1
1001
ACAD
1000
TREAT_AS_HARD
1070
     0
  0
ACDBDICTIONARYWDFLT
  5
76F
102
{ACAD_REACTORS
330
19
102
}
330
19
100
AcDbDictionary
281
     1
  3
Normal
350
770
100
AcDbDictionaryWithDefault
340
770
1001
ACAD
1000
TREAT_AS_HARD
1070
     0
  0
DICTIONARY
  5
7C0
102
{ACAD_REACTORS
330
19
102
}
330
19
100
AcDbDictionary
281
     1
  3
Standard
350
7C1
  0
DICTIONARY
  5
7AE
102
{ACAD_REACTORS
330
19
102
}
330
19
100
AcDbDictionary
281
     1
  3
2dWireframe
350
7B4
  3
3D Hidden
350
7B6
  3
3dWireframe
350
7B5
  3
Basic
350
7B3
  3
Brighten
350
7BA
  3
ColorChange
350
7BE
  3
Conceptual
350
7B7
  3
Dim
350
7B9
  3
Facepattern
350
7BD
  3
Flat
350
7AF
  3
FlatWithEdges
350
7B0
  3
Gouraud
350
7B1
  3
GouraudWithEdges
350
7B2
  3
Linepattern
350
7BC
  3
Realistic
350
7B8
  3
Thicken
350
7BB
  0
DICTIONARY
  5
7A7
102
{ACAD_REACTORS
330
19
102
}
330
19
100
AcDbDictionary
281
     1
  3
CTABLESTYLE
350
824
  3
DIMASSOC
350
7A8
  3
INDEXCTL
350
826
  3
PROJECTNAME
350
835
  3
SORTENTS
350
825
  0
XRECORD
  5
83C
102
{ACAD_REACTORS
330
19
102
}
330
19
100
AcDbXrecord
280
     1
  1
DWGPROPS COOKIE
  2

  3

  4

  6

  7

  8
sendai
  9

300
=
301
=
302
=
303
=
304
=
305
=
306
=
307
=
308
=
309
=
 40
0.0323558217592593
 41
2444972.375
 42
2455449.586781504
  1

 90
        0
  0
XRECORD
  5
803
102
{ACAD_REACTORS
330
802
102
}
330
802
100
AcDbXrecord
280
     1
102
VTR_0.000_0.000_1.000_1.000_VISUALSTYLE
340
7B4
102
VTR_0.000_0.000_1.000_1.000_GRIDDISPLAY
 70
     3
102
VTR_0.000_0.000_1.000_1.000_GRIDMAJOR
 70
     5
102
VTR_0.000_0.000_1.000_1.000_DEFAULTLIGHTING
280
     1
102
VTR_0.000_0.000_1.000_1.000_DEFAULTLIGHTINGTYPE
 70
     1
102
VTR_0.000_0.000_1.000_1.000_BRIGHTNESS
141
0.0
102
VTR_0.000_0.000_1.000_1.000_CONTRAST
142
0.0
  0
DICTIONARY
  5
C93
102
{ACAD_REACTORS
330
C88
102
}
330
C88
100
AcDbDictionary
280
     1
281
     1
  0
DICTIONARY
  5
C89
102
{ACAD_REACTORS
330
C88
102
}
330
C88
100
AcDbDictionary
281
     1
  0
XRECORD
  5
807
102
{ACAD_REACTORS
330
806
102
}
330
806
100
AcDbXrecord
280
     1
102
MATERIAL
340
7AD
  0
XRECORD
  5
804
102
{ACAD_REACTORS
330
767
102
}
330
767
100
AcDbXrecord
280
     1
340
A
  0
XRECORD
  5
805
102
{ACAD_REACTORS
330
769
102
}
330
769
100
AcDbXrecord
280
     1
340
B
  0
LAYOUT
  5
771
102
{ACAD_XDICTIONARY
360
83E
102
}
102
{ACAD_REACTORS
330
105
102
}
330
105
100
AcDbPlotSettings
  1

  2
SHARP MX-2311FN SPDL2-c
  4
A4
  6
OLE1
 40
5.027083396911621
 41
5.027085304260253
 42
5.027084350585937
 43
5.027069091796875
 44
209.9733276367187
 45
296.9259948730469
 46
49.57
 47
94.22
 48
6721.381288999999
 49
13504.610177
140
86528.90362899999
141
70232.64859
142
100.0
143
1.0
 70
 11940
 72
     1
 73
     0
 74
     1
  7
プリンタ.ctb
 75
     0
147
100.0
148
-89.09548619083301
149
-1.996110235944854
100
AcDbLayout
  1
Model
 70
     1
 71
     0
 10
0.0
 20
0.0
 11
12.0
 21
9.0
 12
0.0
 22
0.0
 32
0.0
 14
0.0
 24
0.0
 34
0.0
 15
0.0
 25
0.0
 35
0.0
146
0.0
 13
0.0
 23
0.0
 33
0.0
 16
1.0
 26
0.0
 36
0.0
 17
0.0
 27
1.0
 37
0.0
 76
     0
330
A
  0
LAYOUT
  5
772
102
{ACAD_XDICTIONARY
360
840
102
}
102
{ACAD_REACTORS
330
105
102
}
330
105
100
AcDbPlotSettings
  1

  2
なし
  4

  6

 40
0.0
 41
0.0
 42
0.0
 43
0.0
 44
0.0
 45
0.0
 46
0.0
 47
0.0
 48
0.0
 49
0.0
140
0.0
141
0.0
142
1.0
143
1.0
 70
   688
 72
     0
 73
     0
 74
     5
  7
京セラレーザー.ctb
 75
    16
147
1.0
148
0.0
149
0.0
100
AcDbLayout
  1
ﾚｲｱｳﾄ1
 70
     0
 71
     1
 10
0.0
 20
0.0
 11
12.0
 21
9.0
 12
0.0
 22
0.0
 32
0.0
 14
1.000000000000000E+20
 24
1.000000000000000E+20
 34
1.000000000000000E+20
 15
-1.000000000000000E+20
 25
-1.000000000000000E+20
 35
-1.000000000000000E+20
146
0.0
 13
0.0
 23
0.0
 33
0.0
 16
1.0
 26
0.0
 36
0.0
 17
0.0
 27
1.0
 37
0.0
 76
     0
330
B
  0
ACAD_PROXY_OBJECT
  5
7AC
102
{ACAD_XDICTIONARY
360
81A
102
}
102
{ACAD_REACTORS
330
7AA
102
}
330
7AA
100
AcDbProxyObject
 90
      499
 91
      532
 95
   655383
 70
     0
 93
      574
310
41D096509313D0D2E004014040405AA6A9AA4060050101016A9AA6A9018000000000000E03F4040405AA6A9AA40650101016A9AA6A90190101016A9AA6A90194040405AA6A9AA400
 94
        0
  0
ACAD_PROXY_OBJECT
  5
7AB
102
{ACAD_XDICTIONARY
360
818
102
}
102
{ACAD_REACTORS
330
7AA
102
}
330
7AA
100
AcDbProxyObject
 90
      499
 91
      532
 95
   655383
 70
     0
 93
      574
310
41D0965310565154A004014040405AA6A9AA4060050101016A9AA6A9018000000000000E03F4040405AA6A9AA40650101016A9AA6A90190101016A9AA6A90194040405AA6A9AA400
 94
        0
  0
ACAD_PROXY_OBJECT
  5
7AD
102
{ACAD_XDICTIONARY
360
81C
102
}
102
{ACAD_REACTORS
330
7AA
102
}
330
7AA
100
AcDbProxyObject
 90
      499
 91
      532
 95
   655383
 70
     0
 93
      566
310
4191D313D090532004014040405AA6A9AA4060050101016A9AA6A9018000000000000E03F4040405AA6A9AA40650101016A9AA6A90190101016A9AA6A90194040405AA6A9AA400
 94
        0
  0
MLINESTYLE
  5
1C
102
{ACAD_REACTORS
330
1B
102
}
330
1B
100
AcDbMlineStyle
  2
STANDARD
 70
     0
  3

 62
     0
 51
90.00000000000019
 52
90.00000000000019
 71
     2
 49
0.5
 62
   256
  6
BYLAYER
 49
-0.5
 62
   256
  6
BYLAYER
  0
ACDBPLACEHOLDER
  5
770
102
{ACAD_REACTORS
330
76F
102
}
330
76F
  0
ACAD_PROXY_OBJECT
  5
7C1
102
{ACAD_XDICTIONARY
360
822
102
}
102
{ACAD_REACTORS
330
7C0
102
}
330
7C0
100
AcDbProxyObject
 90
      499
 91
      534
 95
   655383
 70
     0
 93
     1841
310
4214DD185B99185C9928B81E85EB51B8AE3F2E07A17AD46E2B8FC02B5E8DC0F42B1CFD028000000C1008070000C3001FDFF8000000C1003FBFF000000182007F7FE00000030400FEFFC00000060801FDFF8000000C1003FBFF00000018200000000000000681FA0B0000001820100E000186003FBFF000000182007F7FE000
310
00030400FEFFC00000060801FDFF8000000C1003FBFF000000182007F7FE000000304000AD7A3703D0AC73F4160000003040201C00030C007F7FE00000030400FEFFC00000060801FDFF8000000C1003FBFF000000182007F7FE00000030400FEFFC000000608000
340
17
340
17
340
17
 94
        0
  0
ACAD_PROXY_OBJECT
  5
7B4
102
{ACAD_REACTORS
330
7AE
102
}
330
7AE
100
AcDbProxyObject
 90
      499
 91
      533
 95
   655381
 70
     0
 93
      444
310
430C9915DA5C99599C985B59401049028333333333333E3BF0000000000000FB0107901411070040501600405405064090741402480A0340
 94
        0
1001
ACAD
1000
AcDbSavedByObjectVersion
1070
     0
1000
AcRTDxfName
1000
VISUALSTYLE
1000
AcRTDxfName
1000
VISUALSTYLE
  0
ACAD_PROXY_OBJECT
  5
7B6
102
{ACAD_REACTORS
330
7AE
102
}
330
7AE
100
AcDbProxyObject
 90
      499
 91
      533
 95
   655381
 70
     0
 93
      508
310
428CD108121A5919195B8010640502408333333333333E3BF0000000000000FB01079024090700405020000000000001110200405405064090740C02480A0340
 94
        0
1001
ACAD
1000
AcDbSavedByObjectVersion
1070
     0
1000
AcRTDxfName
1000
VISUALSTYLE
1000
AcRTDxfName
1000
VISUALSTYLE
  0
ACAD_PROXY_OBJECT
  5
7B5
102
{ACAD_REACTORS
330
7AE
102
}
330
7AE
100
AcDbProxyObject
 90
      499
 91
      533
 95
   655381
 70
     0
 93
      444
310
430CD915DA5C99599C985B59401059028333333333333E3BF0000000000000FB0107901411070040501600405405064090741402480A0340
 94
        0
1001
ACAD
1000
AcDbSavedByObjectVersion
1070
     0
1000
AcRTDxfName
1000
VISUALSTYLE
1000
AcRTDxfName
1000
VISUALSTYLE
  0
ACAD_PROXY_OBJECT
  5
7B3
102
{ACAD_REACTORS
330
7AE
102
}
330
7AE
100
AcDbProxyObject
 90
      499
 91
      533
 95
   655381
 70
     0
 93
      396
310
4190985CDA58C0107406404333333333333E3BF0000000000000FB0107A41107004050150841D405064090741402480A0356
 94
        0
1001
ACAD
1000
AcDbSavedByObjectVersion
1070
     0
1000
AcRTDxfName
1000
VISUALSTYLE
1000
AcRTDxfName
1000
VISUALSTYLE
  0
ACAD_PROXY_OBJECT
  5
7BA
102
{ACAD_REACTORS
330
7AE
102
}
330
7AE
100
AcDbProxyObject
 90
      499
 91
      533
 95
   655381
 70
     0
 93
      436
310
42509C9A59DA1D195B8010C409028333333333333E3BF0000000000000FB010790141107004050150841D405064090741402480A029956
 94
        0
1001
ACAD
1000
AcDbSavedByObjectVersion
1070
     0
1000
AcRTDxfName
1000
VISUALSTYLE
1000
AcRTDxfName
1000
VISUALSTYLE
  0
ACAD_PROXY_OBJECT
  5
7BE
102
{ACAD_REACTORS
330
7AE
102
}
330
7AE
100
AcDbProxyObject
 90
      499
 91
      533
 95
   655381
 70
     0
 93
      460
310
4310DBDB1BDC90DA185B99D9401104090240C333333333333E3BF0000000000000FB0108901411070040501508421405064090741402480A0354
 94
        0
1001
ACAD
1000
AcDbSavedByObjectVersion
1070
     0
1000
AcRTDxfName
1000
VISUALSTYLE
1000
AcRTDxfName
1000
VISUALSTYLE
  0
ACAD_PROXY_OBJECT
  5
7B7
102
{ACAD_REACTORS
330
7AE
102
}
330
7AE
100
AcDbProxyObject
 90
      499
 91
      533
 95
   655381
 70
     0
 93
      508
310
42D0DBDB98D95C1D1D585B0010940D028333333333333E3BF0000000000000FB0107902409070040501000000000000111010841D405064090740C02480A0340
 94
        0
1001
ACAD
1000
AcDbSavedByObjectVersion
1070
     0
1000
AcRTDxfName
1000
VISUALSTYLE
1000
AcRTDxfName
1000
VISUALSTYLE
  0
ACAD_PROXY_OBJECT
  5
7B9
102
{ACAD_REACTORS
330
7AE
102
}
330
7AE
100
AcDbProxyObject
 90
      499
 91
      533
 95
   655381
 70
     0
 93
      420
310
41111A5B4010B409028333333333333E3BF0000000000000FB010790141107004050150841D405064090741402480A02677FFFFFDB
 94
        0
1001
ACAD
1000
AcDbSavedByObjectVersion
1070
     0
1000
AcRTDxfName
1000
VISUALSTYLE
1000
AcRTDxfName
1000
VISUALSTYLE
  0
ACAD_PROXY_OBJECT
  5
7BD
102
{ACAD_REACTORS
330
7AE
102
}
330
7AE
100
AcDbProxyObject
 90
      499
 91
      533
 95
   655381
 70
     0
 93
      452
310
43119858D95C185D1D195C9B8010F409028333333333333E3BF0000000000000FB010790141107004050150841D405064090741402480A0350
 94
        0
1001
ACAD
1000
AcDbSavedByObjectVersion
1070
     0
1000
AcRTDxfName
1000
VISUALSTYLE
1000
AcRTDxfName
1000
VISUALSTYLE
  0
ACAD_PROXY_OBJECT
  5
7AF
102
{ACAD_REACTORS
330
7AE
102
}
330
7AE
100
AcDbProxyObject
 90
      499
 91
      533
 95
   655381
 70
     0
 93
      396
310
41519B185D00240901404333333333333E3BF0000000000000F9010740A41107004050150841D405064090741402480A1B50
 94
        0
1001
ACAD
1000
AcDbSavedByObjectVersion
1070
     0
1000
AcRTDxfName
1000
VISUALSTYLE
1000
AcRTDxfName
1000
VISUALSTYLE
  0
ACAD_PROXY_OBJECT
  5
7B0
102
{ACAD_REACTORS
330
7AE
102
}
330
7AE
100
AcDbProxyObject
 90
      499
 91
      533
 95
   655381
 70
     0
 93
      484
310
43919B185D15DA5D1A115919D95CC010140901404333333333333E3BF0000000000000F9010740901411070040501600405405064090741402480A1B50
 94
        0
1001
ACAD
1000
AcDbSavedByObjectVersion
1070
     0
1000
AcRTDxfName
1000
VISUALSTYLE
1000
AcRTDxfName
1000
VISUALSTYLE
  0
ACAD_PROXY_OBJECT
  5
7B1
102
{ACAD_REACTORS
330
7AE
102
}
330
7AE
100
AcDbProxyObject
 90
      499
 91
      533
 95
   655381
 70
     0
 93
      420
310
4211DBDD5C985D590010240902404333333333333E3BF0000000000000F9010740A411070040501641D405064090741402480A1B50
 94
        0
1001
ACAD
1000
AcDbSavedByObjectVersion
1070
     0
1000
AcRTDxfName
1000
VISUALSTYLE
1000
AcRTDxfName
1000
VISUALSTYLE
  0
ACAD_PROXY_OBJECT
  5
7B2
102
{ACAD_REACTORS
330
7AE
102
}
330
7AE
100
AcDbProxyObject
 90
      499
 91
      533
 95
   655381
 70
     0
 93
      508
310
4451DBDD5C985D5915DA5D1A115919D95CC010340902404333333333333E3BF0000000000000F9010740901411070040501600405405064090741402480A1B50
 94
        0
1001
ACAD
1000
AcDbSavedByObjectVersion
1070
     0
1000
AcRTDxfName
1000
VISUALSTYLE
1000
AcRTDxfName
1000
VISUALSTYLE
  0
ACAD_PROXY_OBJECT
  5
7BC
102
{ACAD_REACTORS
330
7AE
102
}
330
7AE
100
AcDbProxyObject
 90
      499
 91
      533
 95
   655381
 70
     0
 93
      452
310
43131A5B995C185D1D195C9B8010E409028333333333333E3BF0000000000000FB010790141107004050750841D405064090741402483A0350
 94
        0
1001
ACAD
1000
AcDbSavedByObjectVersion
1070
     0
1000
AcRTDxfName
1000
VISUALSTYLE
1000
AcRTDxfName
1000
VISUALSTYLE
  0
ACAD_PROXY_OBJECT
  5
7B8
102
{ACAD_REACTORS
330
7AE
102
}
330
7AE
100
AcDbProxyObject
 90
      499
 91
      533
 95
   655381
 70
     0
 93
      428
310
429499585B1A5CDD1A58C0108409028333333333333E3BF0000000000000FB01079019070040501508421405064090741402480A1B45
 94
        0
1001
ACAD
1000
AcDbSavedByObjectVersion
1070
     0
1000
AcRTDxfName
1000
VISUALSTYLE
1000
AcRTDxfName
1000
VISUALSTYLE
  0
ACAD_PROXY_OBJECT
  5
7BB
102
{ACAD_REACTORS
330
7AE
102
}
330
7AE
100
AcDbProxyObject
 90
      499
 91
      533
 95
   655381
 70
     0
 93
      420
310
42151A1A58DAD95B8010D409028333333333333E3BF0000000000000FB010790141107004050150C41D405064090741402480A0352
 94
        0
1001
ACAD
1000
AcDbSavedByObjectVersion
1070
     0
1000
AcRTDxfName
1000
VISUALSTYLE
1000
AcRTDxfName
1000
VISUALSTYLE
  0
DICTIONARYVAR
  5
824
102
{ACAD_REACTORS
330
7A7
102
}
330
7A7
100
DictionaryVariables
280
     0
  1
STANDARD
  0
DICTIONARYVAR
  5
7A8
102
{ACAD_REACTORS
330
7A7
102
}
330
7A7
100
DictionaryVariables
280
     0
  1
1
  0
DICTIONARYVAR
  5
826
102
{ACAD_REACTORS
330
7A7
102
}
330
7A7
100
DictionaryVariables
280
     0
  1
0
  0
DICTIONARYVAR
  5
835
102
{ACAD_REACTORS
330
7A7
102
}
330
7A7
100
DictionaryVariables
280
     0
  1

  0
DICTIONARYVAR
  5
825
102
{ACAD_REACTORS
330
7A7
102
}
330
7A7
100
DictionaryVariables
280
     0
  1
127
  0
DICTIONARY
  5
83E
330
771
100
AcDbDictionary
280
     1
281
     1
  3
ACAD_XREC_ROUNDTRIP
360
83F
  0
DICTIONARY
  5
840
330
772
100
AcDbDictionary
280
     1
281
     1
  3
ACAD_XREC_ROUNDTRIP
360
841
  0
DICTIONARY
  5
81A
330
7AC
100
AcDbDictionary
280
     1
281
     1
  3
ACAD_XREC_ROUNDTRIP
360
81B
  0
DICTIONARY
  5
818
330
7AB
100
AcDbDictionary
280
     1
281
     1
  3
ACAD_XREC_ROUNDTRIP
360
819
  0
DICTIONARY
  5
81C
330
7AD
100
AcDbDictionary
280
     1
281
     1
  3
ACAD_XREC_ROUNDTRIP
360
81D
  0
DICTIONARY
  5
822
330
7C1
100
AcDbDictionary
280
     1
281
     1
  3
ACAD_XREC_ROUNDTRIP
360
823
  0
XRECORD
  5
83F
102
{ACAD_REACTORS
330
83E
102
}
330
83E
100
AcDbXrecord
280
     1
102
SHADEPLOT
 70
     0
102
SHADEPLOTRESLEVEL
 70
     2
102
SHADEPLOTCUSTOMDPI
 70
   300
  0
XRECORD
  5
841
102
{ACAD_REACTORS
330
840
102
}
330
840
100
AcDbXrecord
280
     1
102
SHADEPLOT
 70
     0
102
SHADEPLOTRESLEVEL
 70
     2
102
SHADEPLOTCUSTOMDPI
 70
   300
  0
XRECORD
  5
81B
102
{ACAD_REACTORS
330
81A
102
}
330
81A
100
AcDbXrecord
280
     1
102
MATERIAL
148
0.0
149
0.0
149
0.0
 93
        0
 94
       63
282
     0
 72
     1
 77
     1
171
     1
175
     1
179
     1
273
     0
  0
XRECORD
  5
819
102
{ACAD_REACTORS
330
818
102
}
330
818
100
AcDbXrecord
280
     1
102
MATERIAL
148
0.0
149
0.0
149
0.0
 93
        0
 94
       63
282
     0
 72
     1
 77
     1
171
     1
175
     1
179
     1
273
     0
  0
XRECORD
  5
81D
102
{ACAD_REACTORS
330
81C
102
}
330
81C
100
AcDbXrecord
280
     1
102
MATERIAL
148
0.0
149
0.0
149
0.0
 93
        0
 94
       63
282
     0
 72
     1
 77
     1
171
     1
175
     1
179
     1
273
     0
  0
XRECORD
  5
823
102
{ACAD_REACTORS
330
822
102
}
330
822
100
AcDbXrecord
280
     1
102
ACAD_ROUNDTRIP_PRE2007_TABLESTYLE
 90
      512
 91
        0
  1

 92
      512
 93
        0
  2

 94
      512
 95
        0
  3

  0
ENDSEC
  0
EOF
